ISO-10303-21;
HEADER;
/* Generated by software containing ST-Developer
 * from STEP Tools, Inc. (www.steptools.com) 
 */
/* OPTION: using custom schema-name function */

FILE_DESCRIPTION(
/* description */ (''),
/* implementation_level */ '2;1');

FILE_NAME(
/* name */ '1493813724931.stp',
/* time_stamp */ '2017-05-03T14:15:29+02:00',
/* author */ (''),
/* organization */ ('SMS'),
/* preprocessor_version */ 'ST-DEVELOPER v15',
/* originating_system */ 'SIEMENS PLM Software NX 8.5',
/* authorisation */ '');

FILE_SCHEMA (('AUTOMOTIVE_DESIGN { 1 0 10303 214 3 1 1 1 }'));
ENDSEC;

DATA;
#10=CONSTRUCTIVE_GEOMETRY_REPRESENTATION_RELATIONSHIP(
'supplemental geometry','',#24,#11);
#11=CONSTRUCTIVE_GEOMETRY_REPRESENTATION('supplemental geometry',(#283,
#284,#285),#492);
#12=SHAPE_REPRESENTATION_RELATIONSHIP('None',
'relationship between 200824372MOD000_02-None and 200824372MOD000_02-N
one',#24,#13);
#13=ADVANCED_BREP_SHAPE_REPRESENTATION('200824372MOD000_02-None',(#30),
#492);
#14=SHAPE_DEFINITION_REPRESENTATION(#15,#24);
#15=PRODUCT_DEFINITION_SHAPE('','',#16);
#16=PRODUCT_DEFINITION(' ','',#18,#17);
#17=PRODUCT_DEFINITION_CONTEXT('part definition',#23,'design');
#18=PRODUCT_DEFINITION_FORMATION_WITH_SPECIFIED_SOURCE(' ',' ',#20,
 .NOT_KNOWN.);
#19=PRODUCT_RELATED_PRODUCT_CATEGORY('part','',(#20));
#20=PRODUCT('200824372MOD000_02','200824372MOD000_02',' ',(#21));
#21=PRODUCT_CONTEXT(' ',#23,'mechanical');
#22=APPLICATION_PROTOCOL_DEFINITION('international standard',
'automotive_design',2010,#23);
#23=APPLICATION_CONTEXT(
'core data for automotive mechanical design processes');
#24=SHAPE_REPRESENTATION('200824372MOD000_02-None',(#282),#492);
#25=SURFACE_STYLE_USAGE(.BOTH.,#26);
#26=SURFACE_SIDE_STYLE('',(#27));
#27=SURFACE_STYLE_FILL_AREA(#28);
#28=FILL_AREA_STYLE('',(#29));
#29=FILL_AREA_STYLE_COLOUR('',#278);
#30=MANIFOLD_SOLID_BREP('',#31);
#31=CLOSED_SHELL('',(#52,#53,#54,#55,#56,#57,#58,#59,#60,#61,#62,#63,#64,
#65,#66,#67,#68,#69,#70,#71,#72,#73));
#32=FACE_OUTER_BOUND('',#148,.T.);
#33=FACE_OUTER_BOUND('',#149,.T.);
#34=CONICAL_SURFACE('',#306,8.,8.00000000000005);
#35=CONICAL_SURFACE('',#310,6.76028509719471,7.99999999999997);
#36=CONICAL_SURFACE('',#314,6.0324283141667,8.00000000000127);
#37=CONICAL_SURFACE('',#316,5.00641947359036,48.9999999999992);
#38=CONICAL_SURFACE('',#328,10.,60.);
#39=PLANE('',#294);
#40=PLANE('',#298);
#41=PLANE('',#302);
#42=PLANE('',#317);
#43=PLANE('',#319);
#44=PLANE('',#323);
#45=PLANE('',#327);
#46=CYLINDRICAL_SURFACE('',#290,16.);
#47=CYLINDRICAL_SURFACE('',#296,10.25);
#48=CYLINDRICAL_SURFACE('',#300,6.9);
#49=CYLINDRICAL_SURFACE('',#304,8.);
#50=CYLINDRICAL_SURFACE('',#321,5.8);
#51=CYLINDRICAL_SURFACE('',#325,6.25);
#52=ADVANCED_FACE('',(#78,#79),#74,.T.);
#53=ADVANCED_FACE('',(#80,#81),#46,.T.);
#54=ADVANCED_FACE('',(#82,#83),#75,.T.);
#55=ADVANCED_FACE('',(#84,#85),#39,.T.);
#56=ADVANCED_FACE('',(#86,#87),#47,.F.);
#57=ADVANCED_FACE('',(#88,#89),#40,.T.);
#58=ADVANCED_FACE('',(#90,#91),#48,.T.);
#59=ADVANCED_FACE('',(#92,#93),#41,.T.);
#60=ADVANCED_FACE('',(#94,#95),#49,.T.);
#61=ADVANCED_FACE('',(#96,#97),#34,.T.);
#62=ADVANCED_FACE('',(#98,#99),#76,.F.);
#63=ADVANCED_FACE('',(#100,#101),#35,.T.);
#64=ADVANCED_FACE('',(#102,#103),#77,.F.);
#65=ADVANCED_FACE('',(#104,#105),#36,.T.);
#66=ADVANCED_FACE('',(#106,#107),#37,.T.);
#67=ADVANCED_FACE('',(#32),#42,.T.);
#68=ADVANCED_FACE('',(#33),#43,.T.);
#69=ADVANCED_FACE('',(#108,#109),#50,.T.);
#70=ADVANCED_FACE('',(#110,#111),#44,.T.);
#71=ADVANCED_FACE('',(#112,#113),#51,.F.);
#72=ADVANCED_FACE('',(#114,#115),#45,.T.);
#73=ADVANCED_FACE('',(#116,#117),#38,.T.);
#74=TOROIDAL_SURFACE('',#288,15.,1.);
#75=TOROIDAL_SURFACE('',#292,15.,1.);
#76=TOROIDAL_SURFACE('',#308,7.75055316593628,1.);
#77=TOROIDAL_SURFACE('',#312,6.82500543625413,1.);
#78=FACE_BOUND('',#118,.T.);
#79=FACE_BOUND('',#119,.T.);
#80=FACE_BOUND('',#120,.T.);
#81=FACE_BOUND('',#121,.T.);
#82=FACE_BOUND('',#122,.T.);
#83=FACE_BOUND('',#123,.T.);
#84=FACE_BOUND('',#124,.T.);
#85=FACE_BOUND('',#125,.T.);
#86=FACE_BOUND('',#126,.T.);
#87=FACE_BOUND('',#127,.T.);
#88=FACE_BOUND('',#128,.T.);
#89=FACE_BOUND('',#129,.T.);
#90=FACE_BOUND('',#130,.T.);
#91=FACE_BOUND('',#131,.T.);
#92=FACE_BOUND('',#132,.T.);
#93=FACE_BOUND('',#133,.T.);
#94=FACE_BOUND('',#134,.T.);
#95=FACE_BOUND('',#135,.T.);
#96=FACE_BOUND('',#136,.T.);
#97=FACE_BOUND('',#137,.T.);
#98=FACE_BOUND('',#138,.T.);
#99=FACE_BOUND('',#139,.T.);
#100=FACE_BOUND('',#140,.T.);
#101=FACE_BOUND('',#141,.T.);
#102=FACE_BOUND('',#142,.T.);
#103=FACE_BOUND('',#143,.T.);
#104=FACE_BOUND('',#144,.T.);
#105=FACE_BOUND('',#145,.T.);
#106=FACE_BOUND('',#146,.T.);
#107=FACE_BOUND('',#147,.T.);
#108=FACE_BOUND('',#150,.T.);
#109=FACE_BOUND('',#151,.T.);
#110=FACE_BOUND('',#152,.T.);
#111=FACE_BOUND('',#153,.T.);
#112=FACE_BOUND('',#154,.T.);
#113=FACE_BOUND('',#155,.T.);
#114=FACE_BOUND('',#156,.T.);
#115=FACE_BOUND('',#157,.T.);
#116=FACE_BOUND('',#158,.T.);
#117=FACE_BOUND('',#159,.T.);
#118=EDGE_LOOP('',(#160));
#119=EDGE_LOOP('',(#161));
#120=EDGE_LOOP('',(#162));
#121=EDGE_LOOP('',(#163));
#122=EDGE_LOOP('',(#164));
#123=EDGE_LOOP('',(#165));
#124=EDGE_LOOP('',(#166));
#125=EDGE_LOOP('',(#167));
#126=EDGE_LOOP('',(#168));
#127=EDGE_LOOP('',(#169));
#128=EDGE_LOOP('',(#170));
#129=EDGE_LOOP('',(#171));
#130=EDGE_LOOP('',(#172));
#131=EDGE_LOOP('',(#173));
#132=EDGE_LOOP('',(#174));
#133=EDGE_LOOP('',(#175));
#134=EDGE_LOOP('',(#176));
#135=EDGE_LOOP('',(#177));
#136=EDGE_LOOP('',(#178));
#137=EDGE_LOOP('',(#179));
#138=EDGE_LOOP('',(#180));
#139=EDGE_LOOP('',(#181));
#140=EDGE_LOOP('',(#182));
#141=EDGE_LOOP('',(#183));
#142=EDGE_LOOP('',(#184));
#143=EDGE_LOOP('',(#185));
#144=EDGE_LOOP('',(#186));
#145=EDGE_LOOP('',(#187));
#146=EDGE_LOOP('',(#188));
#147=EDGE_LOOP('',(#189));
#148=EDGE_LOOP('',(#190));
#149=EDGE_LOOP('',(#191));
#150=EDGE_LOOP('',(#192));
#151=EDGE_LOOP('',(#193));
#152=EDGE_LOOP('',(#194));
#153=EDGE_LOOP('',(#195));
#154=EDGE_LOOP('',(#196));
#155=EDGE_LOOP('',(#197));
#156=EDGE_LOOP('',(#198));
#157=EDGE_LOOP('',(#199));
#158=EDGE_LOOP('',(#200));
#159=EDGE_LOOP('',(#201));
#160=ORIENTED_EDGE('',*,*,#223,.T.);
#161=ORIENTED_EDGE('',*,*,#224,.F.);
#162=ORIENTED_EDGE('',*,*,#225,.T.);
#163=ORIENTED_EDGE('',*,*,#223,.F.);
#164=ORIENTED_EDGE('',*,*,#226,.T.);
#165=ORIENTED_EDGE('',*,*,#225,.F.);
#166=ORIENTED_EDGE('',*,*,#227,.T.);
#167=ORIENTED_EDGE('',*,*,#226,.F.);
#168=ORIENTED_EDGE('',*,*,#228,.T.);
#169=ORIENTED_EDGE('',*,*,#227,.F.);
#170=ORIENTED_EDGE('',*,*,#229,.T.);
#171=ORIENTED_EDGE('',*,*,#228,.F.);
#172=ORIENTED_EDGE('',*,*,#230,.T.);
#173=ORIENTED_EDGE('',*,*,#229,.F.);
#174=ORIENTED_EDGE('',*,*,#231,.T.);
#175=ORIENTED_EDGE('',*,*,#230,.F.);
#176=ORIENTED_EDGE('',*,*,#232,.T.);
#177=ORIENTED_EDGE('',*,*,#231,.F.);
#178=ORIENTED_EDGE('',*,*,#233,.T.);
#179=ORIENTED_EDGE('',*,*,#232,.F.);
#180=ORIENTED_EDGE('',*,*,#234,.T.);
#181=ORIENTED_EDGE('',*,*,#233,.F.);
#182=ORIENTED_EDGE('',*,*,#235,.T.);
#183=ORIENTED_EDGE('',*,*,#234,.F.);
#184=ORIENTED_EDGE('',*,*,#236,.T.);
#185=ORIENTED_EDGE('',*,*,#235,.F.);
#186=ORIENTED_EDGE('',*,*,#237,.T.);
#187=ORIENTED_EDGE('',*,*,#236,.F.);
#188=ORIENTED_EDGE('',*,*,#238,.T.);
#189=ORIENTED_EDGE('',*,*,#237,.F.);
#190=ORIENTED_EDGE('',*,*,#238,.F.);
#191=ORIENTED_EDGE('',*,*,#239,.T.);
#192=ORIENTED_EDGE('',*,*,#240,.T.);
#193=ORIENTED_EDGE('',*,*,#239,.F.);
#194=ORIENTED_EDGE('',*,*,#241,.T.);
#195=ORIENTED_EDGE('',*,*,#240,.F.);
#196=ORIENTED_EDGE('',*,*,#242,.T.);
#197=ORIENTED_EDGE('',*,*,#241,.F.);
#198=ORIENTED_EDGE('',*,*,#243,.T.);
#199=ORIENTED_EDGE('',*,*,#242,.F.);
#200=ORIENTED_EDGE('',*,*,#224,.T.);
#201=ORIENTED_EDGE('',*,*,#243,.F.);
#202=VERTEX_POINT('',#428);
#203=VERTEX_POINT('',#430);
#204=VERTEX_POINT('',#433);
#205=VERTEX_POINT('',#436);
#206=VERTEX_POINT('',#439);
#207=VERTEX_POINT('',#442);
#208=VERTEX_POINT('',#445);
#209=VERTEX_POINT('',#448);
#210=VERTEX_POINT('',#451);
#211=VERTEX_POINT('',#454);
#212=VERTEX_POINT('',#457);
#213=VERTEX_POINT('',#460);
#214=VERTEX_POINT('',#463);
#215=VERTEX_POINT('',#466);
#216=VERTEX_POINT('',#469);
#217=VERTEX_POINT('',#472);
#218=VERTEX_POINT('',#476);
#219=VERTEX_POINT('',#479);
#220=VERTEX_POINT('',#482);
#221=VERTEX_POINT('',#485);
#222=VERTEX_POINT('',#488);
#223=EDGE_CURVE('',#202,#202,#244,.T.);
#224=EDGE_CURVE('',#203,#203,#245,.T.);
#225=EDGE_CURVE('',#204,#204,#246,.T.);
#226=EDGE_CURVE('',#205,#205,#247,.T.);
#227=EDGE_CURVE('',#206,#206,#248,.T.);
#228=EDGE_CURVE('',#207,#207,#249,.T.);
#229=EDGE_CURVE('',#208,#208,#250,.T.);
#230=EDGE_CURVE('',#209,#209,#251,.T.);
#231=EDGE_CURVE('',#210,#210,#252,.T.);
#232=EDGE_CURVE('',#211,#211,#253,.T.);
#233=EDGE_CURVE('',#212,#212,#254,.T.);
#234=EDGE_CURVE('',#213,#213,#255,.T.);
#235=EDGE_CURVE('',#214,#214,#256,.T.);
#236=EDGE_CURVE('',#215,#215,#257,.T.);
#237=EDGE_CURVE('',#216,#216,#258,.T.);
#238=EDGE_CURVE('',#217,#217,#259,.T.);
#239=EDGE_CURVE('',#218,#218,#260,.T.);
#240=EDGE_CURVE('',#219,#219,#261,.T.);
#241=EDGE_CURVE('',#220,#220,#262,.T.);
#242=EDGE_CURVE('',#221,#221,#263,.T.);
#243=EDGE_CURVE('',#222,#222,#264,.T.);
#244=CIRCLE('',#286,16.);
#245=CIRCLE('',#287,15.5);
#246=CIRCLE('',#289,16.);
#247=CIRCLE('',#291,15.);
#248=CIRCLE('',#293,10.25);
#249=CIRCLE('',#295,10.25);
#250=CIRCLE('',#297,6.9);
#251=CIRCLE('',#299,6.9);
#252=CIRCLE('',#301,8.);
#253=CIRCLE('',#303,8.);
#254=CIRCLE('',#305,7.15675499178565);
#255=CIRCLE('',#307,6.76028509719471);
#256=CIRCLE('',#309,5.83473736751257);
#257=CIRCLE('',#311,6.0324283141667);
#258=CIRCLE('',#313,5.00641947359036);
#259=CIRCLE('',#315,4.6618061856683);
#260=CIRCLE('',#318,5.8);
#261=CIRCLE('',#320,5.8);
#262=CIRCLE('',#322,6.25);
#263=CIRCLE('',#324,6.25);
#264=CIRCLE('',#326,10.);
#265=PRESENTATION_LAYER_ASSIGNMENT('1','Layer 1',(#283,#284,#285,#30));
#266=STYLED_ITEM('',(#270),#283);
#267=STYLED_ITEM('',(#271),#284);
#268=STYLED_ITEM('',(#272),#285);
#269=STYLED_ITEM('',(#273),#30);
#270=PRESENTATION_STYLE_ASSIGNMENT((#274));
#271=PRESENTATION_STYLE_ASSIGNMENT((#275));
#272=PRESENTATION_STYLE_ASSIGNMENT((#276));
#273=PRESENTATION_STYLE_ASSIGNMENT((#25));
#274=CURVE_STYLE('',#279,POSITIVE_LENGTH_MEASURE(0.13),#277);
#275=CURVE_STYLE('',#280,POSITIVE_LENGTH_MEASURE(0.13),#277);
#276=CURVE_STYLE('',#281,POSITIVE_LENGTH_MEASURE(0.13),#277);
#277=COLOUR_RGB('Strong Stone',0.576470588235294,0.54508278019379,0.392156862745098);
#278=COLOUR_RGB('TLS_NOCUT',0.499992370489052,0.499992370489052,0.499992370489052);
#279=DRAUGHTING_PRE_DEFINED_CURVE_FONT('continuous');
#280=DRAUGHTING_PRE_DEFINED_CURVE_FONT('continuous');
#281=DRAUGHTING_PRE_DEFINED_CURVE_FONT('continuous');
#282=AXIS2_PLACEMENT_3D('',#423,#329,#330);
#283=AXIS2_PLACEMENT_3D('PCS',#424,#331,#332);
#284=AXIS2_PLACEMENT_3D('MCS',#425,#333,#334);
#285=AXIS2_PLACEMENT_3D('CSW',#426,#335,#336);
#286=AXIS2_PLACEMENT_3D('',#427,#337,#338);
#287=AXIS2_PLACEMENT_3D('',#429,#339,#340);
#288=AXIS2_PLACEMENT_3D('',#431,#341,#342);
#289=AXIS2_PLACEMENT_3D('',#432,#343,#344);
#290=AXIS2_PLACEMENT_3D('',#434,#345,#346);
#291=AXIS2_PLACEMENT_3D('',#435,#347,#348);
#292=AXIS2_PLACEMENT_3D('',#437,#349,#350);
#293=AXIS2_PLACEMENT_3D('',#438,#351,#352);
#294=AXIS2_PLACEMENT_3D('',#440,#353,#354);
#295=AXIS2_PLACEMENT_3D('',#441,#355,#356);
#296=AXIS2_PLACEMENT_3D('',#443,#357,#358);
#297=AXIS2_PLACEMENT_3D('',#444,#359,#360);
#298=AXIS2_PLACEMENT_3D('',#446,#361,#362);
#299=AXIS2_PLACEMENT_3D('',#447,#363,#364);
#300=AXIS2_PLACEMENT_3D('',#449,#365,#366);
#301=AXIS2_PLACEMENT_3D('',#450,#367,#368);
#302=AXIS2_PLACEMENT_3D('',#452,#369,#370);
#303=AXIS2_PLACEMENT_3D('',#453,#371,#372);
#304=AXIS2_PLACEMENT_3D('',#455,#373,#374);
#305=AXIS2_PLACEMENT_3D('',#456,#375,#376);
#306=AXIS2_PLACEMENT_3D('',#458,#377,#378);
#307=AXIS2_PLACEMENT_3D('',#459,#379,#380);
#308=AXIS2_PLACEMENT_3D('',#461,#381,#382);
#309=AXIS2_PLACEMENT_3D('',#462,#383,#384);
#310=AXIS2_PLACEMENT_3D('',#464,#385,#386);
#311=AXIS2_PLACEMENT_3D('',#465,#387,#388);
#312=AXIS2_PLACEMENT_3D('',#467,#389,#390);
#313=AXIS2_PLACEMENT_3D('',#468,#391,#392);
#314=AXIS2_PLACEMENT_3D('',#470,#393,#394);
#315=AXIS2_PLACEMENT_3D('',#471,#395,#396);
#316=AXIS2_PLACEMENT_3D('',#473,#397,#398);
#317=AXIS2_PLACEMENT_3D('',#474,#399,#400);
#318=AXIS2_PLACEMENT_3D('',#475,#401,#402);
#319=AXIS2_PLACEMENT_3D('',#477,#403,#404);
#320=AXIS2_PLACEMENT_3D('',#478,#405,#406);
#321=AXIS2_PLACEMENT_3D('',#480,#407,#408);
#322=AXIS2_PLACEMENT_3D('',#481,#409,#410);
#323=AXIS2_PLACEMENT_3D('',#483,#411,#412);
#324=AXIS2_PLACEMENT_3D('',#484,#413,#414);
#325=AXIS2_PLACEMENT_3D('',#486,#415,#416);
#326=AXIS2_PLACEMENT_3D('',#487,#417,#418);
#327=AXIS2_PLACEMENT_3D('',#489,#419,#420);
#328=AXIS2_PLACEMENT_3D('',#490,#421,#422);
#329=DIRECTION('',(0.,0.,1.));
#330=DIRECTION('',(1.,0.,0.));
#331=DIRECTION('',(0.,0.,1.));
#332=DIRECTION('',(1.,0.,0.));
#333=DIRECTION('',(0.,0.,1.));
#334=DIRECTION('',(1.,0.,0.));
#335=DIRECTION('',(0.,0.,1.));
#336=DIRECTION('',(1.,0.,0.));
#337=DIRECTION('',(0.,2.10968745772001E-017,-1.));
#338=DIRECTION('',(0.,1.,0.));
#339=DIRECTION('',(0.,2.10968745772001E-017,-1.));
#340=DIRECTION('',(0.,1.,0.));
#341=DIRECTION('',(0.,2.10968745772001E-017,-1.));
#342=DIRECTION('',(0.,-1.,0.));
#343=DIRECTION('',(0.,2.10968745772001E-017,-1.));
#344=DIRECTION('',(0.,1.,0.));
#345=DIRECTION('',(0.,2.10968745772001E-017,-1.));
#346=DIRECTION('',(0.,-1.,0.));
#347=DIRECTION('',(0.,2.10968745772001E-017,-1.));
#348=DIRECTION('',(0.,1.,0.));
#349=DIRECTION('',(0.,2.10968745772001E-017,-1.));
#350=DIRECTION('',(0.,-1.,0.));
#351=DIRECTION('',(0.,2.10968745772001E-017,-1.));
#352=DIRECTION('',(0.,1.,0.));
#353=DIRECTION('',(0.,-2.10968745772001E-017,1.));
#354=DIRECTION('',(0.,1.,2.08166817117217E-017));
#355=DIRECTION('',(0.,2.10968745772001E-017,-1.));
#356=DIRECTION('',(0.,1.,0.));
#357=DIRECTION('',(0.,2.10968745772001E-017,-1.));
#358=DIRECTION('',(0.,-1.,0.));
#359=DIRECTION('',(0.,2.10968745772001E-017,-1.));
#360=DIRECTION('',(0.,1.,0.));
#361=DIRECTION('',(0.,-2.10968745772001E-017,1.));
#362=DIRECTION('',(0.,1.,2.12503625807159E-017));
#363=DIRECTION('',(0.,2.10968745772001E-017,-1.));
#364=DIRECTION('',(0.,1.,3.14261499271161E-017));
#365=DIRECTION('',(0.,2.10968745772001E-017,-1.));
#366=DIRECTION('',(0.,-1.,0.));
#367=DIRECTION('',(0.,2.10968745772001E-017,-1.));
#368=DIRECTION('',(0.,1.,2.71050543121376E-017));
#369=DIRECTION('',(0.,2.10968745772001E-017,-1.));
#370=DIRECTION('',(0.,-1.,-2.10335221462188E-017));
#371=DIRECTION('',(0.,2.10968745772001E-017,-1.));
#372=DIRECTION('',(0.,1.,2.10968745772001E-017));
#373=DIRECTION('',(0.,2.10968745772001E-017,-1.));
#374=DIRECTION('',(0.,-1.,0.));
#375=DIRECTION('',(0.,2.10968745772001E-017,-1.));
#376=DIRECTION('',(0.,1.,0.));
#377=DIRECTION('',(0.,2.10968745772001E-017,-1.));
#378=DIRECTION('',(0.,-1.,0.));
#379=DIRECTION('',(0.,2.10968745772001E-017,-1.));
#380=DIRECTION('',(0.,1.,0.));
#381=DIRECTION('',(0.,2.10968745772001E-017,-1.));
#382=DIRECTION('',(0.,-1.,0.));
#383=DIRECTION('',(0.,2.10968745772001E-017,-1.));
#384=DIRECTION('',(0.,1.,0.));
#385=DIRECTION('',(0.,2.10968745772001E-017,-1.));
#386=DIRECTION('',(0.,-1.,-3.6507820054897E-016));
#387=DIRECTION('',(0.,2.10968745772001E-017,-1.));
#388=DIRECTION('',(0.,1.,0.));
#389=DIRECTION('',(0.,2.10968745772001E-017,-1.));
#390=DIRECTION('',(0.,-1.,0.));
#391=DIRECTION('',(0.,2.10968745772001E-017,-1.));
#392=DIRECTION('',(0.,1.,0.));
#393=DIRECTION('',(0.,2.10968745772001E-017,-1.));
#394=DIRECTION('',(0.,-1.,-1.18351972267996E-017));
#395=DIRECTION('',(0.,2.10968745772001E-017,-1.));
#396=DIRECTION('',(0.,1.,0.));
#397=DIRECTION('',(0.,2.10968745772001E-017,-1.));
#398=DIRECTION('',(0.,-1.,3.6034507989544E-017));
#399=DIRECTION('',(0.,-2.10968745772001E-017,1.));
#400=DIRECTION('',(0.,1.,2.08166817117217E-017));
#401=DIRECTION('',(0.,2.10968745772001E-017,-1.));
#402=DIRECTION('',(0.,1.,0.));
#403=DIRECTION('',(0.,2.10968745772001E-017,-1.));
#404=DIRECTION('',(0.,-1.,-2.08166817117217E-017));
#405=DIRECTION('',(0.,2.10968745772001E-017,-1.));
#406=DIRECTION('',(0.,1.,0.));
#407=DIRECTION('',(0.,2.10968745772001E-017,-1.));
#408=DIRECTION('',(0.,-1.,0.));
#409=DIRECTION('',(0.,2.10968745772001E-017,-1.));
#410=DIRECTION('',(0.,1.,0.));
#411=DIRECTION('',(0.,2.10968745772001E-017,-1.));
#412=DIRECTION('',(0.,-1.,-2.08166817117217E-017));
#413=DIRECTION('',(0.,2.10968745772001E-017,-1.));
#414=DIRECTION('',(0.,1.,0.));
#415=DIRECTION('',(0.,2.10968745772001E-017,-1.));
#416=DIRECTION('',(0.,-1.,0.));
#417=DIRECTION('',(0.,2.10968745772001E-017,-1.));
#418=DIRECTION('',(0.,1.,0.));
#419=DIRECTION('',(0.,2.10968745772001E-017,-1.));
#420=DIRECTION('',(0.,-1.,-2.08166817117217E-017));
#421=DIRECTION('',(0.,-2.10968745772001E-017,1.));
#422=DIRECTION('',(0.,1.,2.788222772626E-017));
#423=CARTESIAN_POINT('',(0.,0.,0.));
#424=CARTESIAN_POINT('',(0.,0.,0.));
#425=CARTESIAN_POINT('',(0.,0.,0.));
#426=CARTESIAN_POINT('',(0.,0.,-20.5));
#427=CARTESIAN_POINT('',(0.,-2.96230749285445E-016,-6.45854811567262));
#428=CARTESIAN_POINT('',(0.,16.,-6.45854811567262));
#429=CARTESIAN_POINT('',(0.,-2.77960319961136E-016,-7.32457351945706));
#430=CARTESIAN_POINT('',(0.,15.5,-7.32457351945706));
#431=CARTESIAN_POINT('',(0.,-1.73472347597681E-015,-6.45854811567262));
#432=CARTESIAN_POINT('',(0.,-5.69615613584403E-016,6.5));
#433=CARTESIAN_POINT('',(0.,16.,6.5));
#434=CARTESIAN_POINT('',(0.,-8.88178419700125E-016,21.6));
#435=CARTESIAN_POINT('',(0.,-5.90712488161603E-016,7.5));
#436=CARTESIAN_POINT('',(0.,15.,7.5));
#437=CARTESIAN_POINT('',(0.,-1.73472347597681E-015,6.5));
#438=CARTESIAN_POINT('',(0.,-5.90712488161603E-016,7.5));
#439=CARTESIAN_POINT('',(0.,10.25,7.5));
#440=CARTESIAN_POINT('',(0.,-15.,7.5));
#441=CARTESIAN_POINT('',(0.,-3.90292179678202E-016,-2.));
#442=CARTESIAN_POINT('',(0.,10.25,-2.));
#443=CARTESIAN_POINT('',(0.,-8.88178419700125E-016,21.6));
#444=CARTESIAN_POINT('',(0.,-3.90292179678202E-016,-2.));
#445=CARTESIAN_POINT('',(0.,6.9,-2.));
#446=CARTESIAN_POINT('',(0.,-10.25,-2.));
#447=CARTESIAN_POINT('',(0.,-4.00840616966802E-016,-1.5));
#448=CARTESIAN_POINT('',(0.,6.9,-1.5));
#449=CARTESIAN_POINT('',(0.,-8.88178419700125E-016,21.6));
#450=CARTESIAN_POINT('',(0.,-4.00840616966802E-016,-1.5));
#451=CARTESIAN_POINT('',(0.,8.,-1.5));
#452=CARTESIAN_POINT('',(0.,-6.9,-1.5));
#453=CARTESIAN_POINT('',(0.,-4.32485928832603E-016,0.));
#454=CARTESIAN_POINT('',(0.,8.,0.));
#455=CARTESIAN_POINT('',(0.,-8.88178419700125E-016,21.6));
#456=CARTESIAN_POINT('',(0.,-5.59067176295803E-016,6.));
#457=CARTESIAN_POINT('',(0.,7.15675499178565,6.));
#458=CARTESIAN_POINT('',(0.,-4.32485928832603E-016,0.));
#459=CARTESIAN_POINT('',(0.,-5.73105899997649E-016,6.6654409235109));
#460=CARTESIAN_POINT('',(0.,6.76028509719471,6.6654409235109));
#461=CARTESIAN_POINT('',(0.,-8.67361737988404E-016,6.804614024471));
#462=CARTESIAN_POINT('',(0.,-7.12041778738266E-016,13.2510552159127));
#463=CARTESIAN_POINT('',(0.,5.83473736751257,13.2510552159127));
#464=CARTESIAN_POINT('',(0.,-5.73105899997649E-016,6.6654409235109));
#465=CARTESIAN_POINT('',(0.,-7.27842172913401E-016,13.9999999999999));
#466=CARTESIAN_POINT('',(0.,6.0324283141667,13.9999999999999));
#467=CARTESIAN_POINT('',(0.,-8.67361737988404E-016,13.3902283168728));
#468=CARTESIAN_POINT('',(0.,-8.81858476221764E-016,21.3004322391341));
#469=CARTESIAN_POINT('',(0.,5.00641947359036,21.3004322391341));
#470=CARTESIAN_POINT('',(0.,-7.27842172913401E-016,13.9999999999999));
#471=CARTESIAN_POINT('',(0.,-8.88178419700125E-016,21.6));
#472=CARTESIAN_POINT('',(0.,4.66180618566829,21.6));
#473=CARTESIAN_POINT('',(0.,-8.81858476221764E-016,21.3004322391341));
#474=CARTESIAN_POINT('',(0.,-4.6618061856683,21.6));
#475=CARTESIAN_POINT('',(0.,0.,-20.5));
#476=CARTESIAN_POINT('',(0.,5.8,-20.5));
#477=CARTESIAN_POINT('',(0.,-1.29072653908573E-033,-20.5));
#478=CARTESIAN_POINT('',(0.,-2.27846245433761E-016,-9.7));
#479=CARTESIAN_POINT('',(0.,5.8,-9.7));
#480=CARTESIAN_POINT('',(0.,-8.88178419700125E-016,21.6));
#481=CARTESIAN_POINT('',(0.,-2.27846245433761E-016,-9.7));
#482=CARTESIAN_POINT('',(0.,6.25,-9.7));
#483=CARTESIAN_POINT('',(0.,-5.8,-9.7));
#484=CARTESIAN_POINT('',(0.,-2.10968745772001E-016,-10.5));
#485=CARTESIAN_POINT('',(0.,6.25,-10.5));
#486=CARTESIAN_POINT('',(0.,-8.88178419700125E-016,21.6));
#487=CARTESIAN_POINT('',(0.,-2.10968745772001E-016,-10.5));
#488=CARTESIAN_POINT('',(0.,10.,-10.5));
#489=CARTESIAN_POINT('',(0.,-6.25,-10.5));
#490=CARTESIAN_POINT('',(0.,-2.10968745772001E-016,-10.5));
#491=MECHANICAL_DESIGN_GEOMETRIC_PRESENTATION_REPRESENTATION('',(#266,#267,
#268,#269),#492);
#492=(
GEOMETRIC_REPRESENTATION_CONTEXT(3)
GLOBAL_UNCERTAINTY_ASSIGNED_CONTEXT((#493))
GLOBAL_UNIT_ASSIGNED_CONTEXT((#499,#495,#494))
REPRESENTATION_CONTEXT('1493813724931','TOP_LEVEL_ASSEMBLY_PART')
);
#493=UNCERTAINTY_MEASURE_WITH_UNIT(LENGTH_MEASURE(2.E-005),#499,
'DISTANCE_ACCURACY_VALUE','Maximum Tolerance applied to model');
#494=(
NAMED_UNIT(*)
SI_UNIT($,.STERADIAN.)
SOLID_ANGLE_UNIT()
);
#495=(
CONVERSION_BASED_UNIT('DEGREE',#497)
NAMED_UNIT(#496)
PLANE_ANGLE_UNIT()
);
#496=DIMENSIONAL_EXPONENTS(0.,0.,0.,0.,0.,0.,0.);
#497=PLANE_ANGLE_MEASURE_WITH_UNIT(PLANE_ANGLE_MEASURE(0.0174532925),#498);
#498=(
NAMED_UNIT(*)
PLANE_ANGLE_UNIT()
SI_UNIT($,.RADIAN.)
);
#499=(
LENGTH_UNIT()
NAMED_UNIT(*)
SI_UNIT(.MILLI.,.METRE.)
);
ENDSEC;
END-ISO-10303-21;
