ISO-10303-21;
HEADER;
/* Generated by software containing ST-Developer
 * from STEP Tools, Inc. (www.steptools.com) 
 */
/* OPTION: using custom schema-name function */

FILE_DESCRIPTION(
/* description */ (''),
/* implementation_level */ '2;1');

FILE_NAME(
/* name */ '1493798866784.stp',
/* time_stamp */ '2017-05-03T10:07:52+02:00',
/* author */ (''),
/* organization */ ('SMS'),
/* preprocessor_version */ 'ST-DEVELOPER v15',
/* originating_system */ 'SIEMENS PLM Software NX 8.5',
/* authorisation */ '');

FILE_SCHEMA (('AUTOMOTIVE_DESIGN { 1 0 10303 214 3 1 1 1 }'));
ENDSEC;

DATA;
#10=CONSTRUCTIVE_GEOMETRY_REPRESENTATION_RELATIONSHIP(
'supplemental geometry','',#24,#11);
#11=CONSTRUCTIVE_GEOMETRY_REPRESENTATION('supplemental geometry',(#305,
#306,#307),#532);
#12=SHAPE_REPRESENTATION_RELATIONSHIP('None',
'relationship between 200824370MOD000_02-None and 200824370MOD000_02-N
one',#24,#13);
#13=ADVANCED_BREP_SHAPE_REPRESENTATION('200824370MOD000_02-None',(#30),
#532);
#14=SHAPE_DEFINITION_REPRESENTATION(#15,#24);
#15=PRODUCT_DEFINITION_SHAPE('','',#16);
#16=PRODUCT_DEFINITION(' ','',#18,#17);
#17=PRODUCT_DEFINITION_CONTEXT('part definition',#23,'design');
#18=PRODUCT_DEFINITION_FORMATION_WITH_SPECIFIED_SOURCE(' ',' ',#20,
 .NOT_KNOWN.);
#19=PRODUCT_RELATED_PRODUCT_CATEGORY('part','',(#20));
#20=PRODUCT('200824370MOD000_02','200824370MOD000_02',' ',(#21));
#21=PRODUCT_CONTEXT(' ',#23,'mechanical');
#22=APPLICATION_PROTOCOL_DEFINITION('international standard',
'automotive_design',2010,#23);
#23=APPLICATION_CONTEXT(
'core data for automotive mechanical design processes');
#24=SHAPE_REPRESENTATION('200824370MOD000_02-None',(#304),#532);
#25=SURFACE_STYLE_USAGE(.BOTH.,#26);
#26=SURFACE_SIDE_STYLE('',(#27));
#27=SURFACE_STYLE_FILL_AREA(#28);
#28=FILL_AREA_STYLE('',(#29));
#29=FILL_AREA_STYLE_COLOUR('',#300);
#30=MANIFOLD_SOLID_BREP('',#31);
#31=CLOSED_SHELL('',(#49,#50,#51,#52,#53,#54,#55,#56,#57,#58,#59,#60,#61,
#62,#63,#64,#65,#66,#67,#68,#69,#70,#71,#72));
#32=TOROIDAL_SURFACE('',#335,5.03355334416152,1.);
#33=TOROIDAL_SURFACE('',#339,5.67465542254807,1.);
#34=FACE_OUTER_BOUND('',#144,.T.);
#35=FACE_OUTER_BOUND('',#169,.T.);
#36=CYLINDRICAL_SURFACE('',#319,9.5);
#37=CYLINDRICAL_SURFACE('',#325,4.875);
#38=CYLINDRICAL_SURFACE('',#343,5.5);
#39=CYLINDRICAL_SURFACE('',#347,4.75);
#40=CYLINDRICAL_SURFACE('',#350,5.5);
#41=CYLINDRICAL_SURFACE('',#351,6.625);
#42=CYLINDRICAL_SURFACE('',#354,4.8);
#43=PLANE('',#313);
#44=PLANE('',#316);
#45=PLANE('',#329);
#46=PLANE('',#345);
#47=PLANE('',#349);
#48=PLANE('',#353);
#49=ADVANCED_FACE('',(#82,#83),#73,.F.);
#50=ADVANCED_FACE('',(#84,#85),#43,.T.);
#51=ADVANCED_FACE('',(#86,#87),#44,.T.);
#52=ADVANCED_FACE('',(#88,#89),#36,.T.);
#53=ADVANCED_FACE('',(#90,#91),#74,.T.);
#54=ADVANCED_FACE('',(#92,#93),#75,.T.);
#55=ADVANCED_FACE('',(#94,#95),#76,.F.);
#56=ADVANCED_FACE('',(#96,#97),#37,.F.);
#57=ADVANCED_FACE('',(#98,#99),#77,.T.);
#58=ADVANCED_FACE('',(#34),#45,.F.);
#59=ADVANCED_FACE('',(#100,#101),#78,.T.);
#60=ADVANCED_FACE('',(#102,#103),#79,.T.);
#61=ADVANCED_FACE('',(#104,#105),#32,.F.);
#62=ADVANCED_FACE('',(#106,#107),#80,.T.);
#63=ADVANCED_FACE('',(#108,#109),#33,.F.);
#64=ADVANCED_FACE('',(#110,#111),#81,.T.);
#65=ADVANCED_FACE('',(#112,#113),#38,.T.);
#66=ADVANCED_FACE('',(#114,#115),#46,.F.);
#67=ADVANCED_FACE('',(#116,#117),#39,.T.);
#68=ADVANCED_FACE('',(#118,#119),#47,.F.);
#69=ADVANCED_FACE('',(#120,#121),#40,.F.);
#70=ADVANCED_FACE('',(#122,#123),#41,.F.);
#71=ADVANCED_FACE('',(#35),#48,.F.);
#72=ADVANCED_FACE('',(#124,#125),#42,.T.);
#73=CONICAL_SURFACE('',#310,6.0625,48.3664606634298);
#74=CONICAL_SURFACE('',#320,9.5,60.);
#75=CONICAL_SURFACE('',#321,9.5,44.9999999999999);
#76=CONICAL_SURFACE('',#323,4.6,45.);
#77=CONICAL_SURFACE('',#327,6.,30.);
#78=CONICAL_SURFACE('',#331,3.6307461512095,48.9999999999999);
#79=CONICAL_SURFACE('',#333,3.58864464804747,8.);
#80=CONICAL_SURFACE('',#337,4.76397931362719,7.99999999999999);
#81=CONICAL_SURFACE('',#341,3.58864464804747,8.);
#82=FACE_BOUND('',#126,.T.);
#83=FACE_BOUND('',#127,.T.);
#84=FACE_BOUND('',#128,.T.);
#85=FACE_BOUND('',#129,.T.);
#86=FACE_BOUND('',#130,.T.);
#87=FACE_BOUND('',#131,.T.);
#88=FACE_BOUND('',#132,.T.);
#89=FACE_BOUND('',#133,.T.);
#90=FACE_BOUND('',#134,.T.);
#91=FACE_BOUND('',#135,.T.);
#92=FACE_BOUND('',#136,.T.);
#93=FACE_BOUND('',#137,.T.);
#94=FACE_BOUND('',#138,.T.);
#95=FACE_BOUND('',#139,.T.);
#96=FACE_BOUND('',#140,.T.);
#97=FACE_BOUND('',#141,.T.);
#98=FACE_BOUND('',#142,.T.);
#99=FACE_BOUND('',#143,.T.);
#100=FACE_BOUND('',#145,.T.);
#101=FACE_BOUND('',#146,.T.);
#102=FACE_BOUND('',#147,.T.);
#103=FACE_BOUND('',#148,.T.);
#104=FACE_BOUND('',#149,.T.);
#105=FACE_BOUND('',#150,.T.);
#106=FACE_BOUND('',#151,.T.);
#107=FACE_BOUND('',#152,.T.);
#108=FACE_BOUND('',#153,.T.);
#109=FACE_BOUND('',#154,.T.);
#110=FACE_BOUND('',#155,.T.);
#111=FACE_BOUND('',#156,.T.);
#112=FACE_BOUND('',#157,.T.);
#113=FACE_BOUND('',#158,.T.);
#114=FACE_BOUND('',#159,.T.);
#115=FACE_BOUND('',#160,.T.);
#116=FACE_BOUND('',#161,.T.);
#117=FACE_BOUND('',#162,.T.);
#118=FACE_BOUND('',#163,.T.);
#119=FACE_BOUND('',#164,.T.);
#120=FACE_BOUND('',#165,.T.);
#121=FACE_BOUND('',#166,.T.);
#122=FACE_BOUND('',#167,.T.);
#123=FACE_BOUND('',#168,.T.);
#124=FACE_BOUND('',#170,.T.);
#125=FACE_BOUND('',#171,.T.);
#126=EDGE_LOOP('',(#172));
#127=EDGE_LOOP('',(#173));
#128=EDGE_LOOP('',(#174));
#129=EDGE_LOOP('',(#175));
#130=EDGE_LOOP('',(#176));
#131=EDGE_LOOP('',(#177));
#132=EDGE_LOOP('',(#178));
#133=EDGE_LOOP('',(#179));
#134=EDGE_LOOP('',(#180));
#135=EDGE_LOOP('',(#181));
#136=EDGE_LOOP('',(#182));
#137=EDGE_LOOP('',(#183));
#138=EDGE_LOOP('',(#184));
#139=EDGE_LOOP('',(#185));
#140=EDGE_LOOP('',(#186));
#141=EDGE_LOOP('',(#187));
#142=EDGE_LOOP('',(#188));
#143=EDGE_LOOP('',(#189));
#144=EDGE_LOOP('',(#190));
#145=EDGE_LOOP('',(#191));
#146=EDGE_LOOP('',(#192));
#147=EDGE_LOOP('',(#193));
#148=EDGE_LOOP('',(#194));
#149=EDGE_LOOP('',(#195));
#150=EDGE_LOOP('',(#196));
#151=EDGE_LOOP('',(#197));
#152=EDGE_LOOP('',(#198));
#153=EDGE_LOOP('',(#199));
#154=EDGE_LOOP('',(#200));
#155=EDGE_LOOP('',(#201));
#156=EDGE_LOOP('',(#202));
#157=EDGE_LOOP('',(#203));
#158=EDGE_LOOP('',(#204));
#159=EDGE_LOOP('',(#205));
#160=EDGE_LOOP('',(#206));
#161=EDGE_LOOP('',(#207));
#162=EDGE_LOOP('',(#208));
#163=EDGE_LOOP('',(#209));
#164=EDGE_LOOP('',(#210));
#165=EDGE_LOOP('',(#211));
#166=EDGE_LOOP('',(#212));
#167=EDGE_LOOP('',(#213));
#168=EDGE_LOOP('',(#214));
#169=EDGE_LOOP('',(#215));
#170=EDGE_LOOP('',(#216));
#171=EDGE_LOOP('',(#217));
#172=ORIENTED_EDGE('',*,*,#241,.T.);
#173=ORIENTED_EDGE('',*,*,#242,.F.);
#174=ORIENTED_EDGE('',*,*,#243,.T.);
#175=ORIENTED_EDGE('',*,*,#244,.T.);
#176=ORIENTED_EDGE('',*,*,#245,.T.);
#177=ORIENTED_EDGE('',*,*,#246,.T.);
#178=ORIENTED_EDGE('',*,*,#247,.T.);
#179=ORIENTED_EDGE('',*,*,#248,.T.);
#180=ORIENTED_EDGE('',*,*,#247,.F.);
#181=ORIENTED_EDGE('',*,*,#246,.F.);
#182=ORIENTED_EDGE('',*,*,#243,.F.);
#183=ORIENTED_EDGE('',*,*,#248,.F.);
#184=ORIENTED_EDGE('',*,*,#249,.F.);
#185=ORIENTED_EDGE('',*,*,#245,.F.);
#186=ORIENTED_EDGE('',*,*,#250,.F.);
#187=ORIENTED_EDGE('',*,*,#249,.T.);
#188=ORIENTED_EDGE('',*,*,#251,.F.);
#189=ORIENTED_EDGE('',*,*,#250,.T.);
#190=ORIENTED_EDGE('',*,*,#252,.T.);
#191=ORIENTED_EDGE('',*,*,#252,.F.);
#192=ORIENTED_EDGE('',*,*,#253,.F.);
#193=ORIENTED_EDGE('',*,*,#253,.T.);
#194=ORIENTED_EDGE('',*,*,#254,.F.);
#195=ORIENTED_EDGE('',*,*,#254,.T.);
#196=ORIENTED_EDGE('',*,*,#255,.F.);
#197=ORIENTED_EDGE('',*,*,#255,.T.);
#198=ORIENTED_EDGE('',*,*,#256,.T.);
#199=ORIENTED_EDGE('',*,*,#256,.F.);
#200=ORIENTED_EDGE('',*,*,#257,.T.);
#201=ORIENTED_EDGE('',*,*,#258,.F.);
#202=ORIENTED_EDGE('',*,*,#257,.F.);
#203=ORIENTED_EDGE('',*,*,#259,.F.);
#204=ORIENTED_EDGE('',*,*,#258,.T.);
#205=ORIENTED_EDGE('',*,*,#260,.F.);
#206=ORIENTED_EDGE('',*,*,#259,.T.);
#207=ORIENTED_EDGE('',*,*,#260,.T.);
#208=ORIENTED_EDGE('',*,*,#261,.T.);
#209=ORIENTED_EDGE('',*,*,#262,.F.);
#210=ORIENTED_EDGE('',*,*,#261,.F.);
#211=ORIENTED_EDGE('',*,*,#262,.T.);
#212=ORIENTED_EDGE('',*,*,#241,.F.);
#213=ORIENTED_EDGE('',*,*,#242,.T.);
#214=ORIENTED_EDGE('',*,*,#244,.F.);
#215=ORIENTED_EDGE('',*,*,#263,.F.);
#216=ORIENTED_EDGE('',*,*,#263,.T.);
#217=ORIENTED_EDGE('',*,*,#251,.T.);
#218=VERTEX_POINT('',#462);
#219=VERTEX_POINT('',#464);
#220=VERTEX_POINT('',#467);
#221=VERTEX_POINT('',#469);
#222=VERTEX_POINT('',#472);
#223=VERTEX_POINT('',#474);
#224=VERTEX_POINT('',#477);
#225=VERTEX_POINT('',#479);
#226=VERTEX_POINT('',#484);
#227=VERTEX_POINT('',#487);
#228=VERTEX_POINT('',#490);
#229=VERTEX_POINT('',#493);
#230=VERTEX_POINT('',#496);
#231=VERTEX_POINT('',#499);
#232=VERTEX_POINT('',#502);
#233=VERTEX_POINT('',#505);
#234=VERTEX_POINT('',#508);
#235=VERTEX_POINT('',#511);
#236=VERTEX_POINT('',#514);
#237=VERTEX_POINT('',#517);
#238=VERTEX_POINT('',#520);
#239=VERTEX_POINT('',#523);
#240=VERTEX_POINT('',#528);
#241=EDGE_CURVE('',#218,#218,#264,.T.);
#242=EDGE_CURVE('',#219,#219,#265,.T.);
#243=EDGE_CURVE('',#220,#220,#266,.T.);
#244=EDGE_CURVE('',#221,#221,#267,.T.);
#245=EDGE_CURVE('',#222,#222,#268,.T.);
#246=EDGE_CURVE('',#223,#223,#269,.T.);
#247=EDGE_CURVE('',#224,#224,#270,.T.);
#248=EDGE_CURVE('',#225,#225,#271,.T.);
#249=EDGE_CURVE('',#226,#226,#272,.T.);
#250=EDGE_CURVE('',#227,#227,#273,.T.);
#251=EDGE_CURVE('',#228,#228,#274,.T.);
#252=EDGE_CURVE('',#229,#229,#275,.T.);
#253=EDGE_CURVE('',#230,#230,#276,.T.);
#254=EDGE_CURVE('',#231,#231,#277,.T.);
#255=EDGE_CURVE('',#232,#232,#278,.T.);
#256=EDGE_CURVE('',#233,#233,#279,.T.);
#257=EDGE_CURVE('',#234,#234,#280,.T.);
#258=EDGE_CURVE('',#235,#235,#281,.T.);
#259=EDGE_CURVE('',#236,#236,#282,.T.);
#260=EDGE_CURVE('',#237,#237,#283,.T.);
#261=EDGE_CURVE('',#238,#238,#284,.T.);
#262=EDGE_CURVE('',#239,#239,#285,.T.);
#263=EDGE_CURVE('',#240,#240,#286,.T.);
#264=CIRCLE('',#308,5.5);
#265=CIRCLE('',#309,6.625);
#266=CIRCLE('',#311,9.);
#267=CIRCLE('',#312,6.625);
#268=CIRCLE('',#314,5.15);
#269=CIRCLE('',#315,8.02775681356646);
#270=CIRCLE('',#317,9.5);
#271=CIRCLE('',#318,9.5);
#272=CIRCLE('',#322,4.875);
#273=CIRCLE('',#324,4.875);
#274=CIRCLE('',#326,4.8);
#275=CIRCLE('',#328,3.28613286328743);
#276=CIRCLE('',#330,3.6307461512095);
#277=CIRCLE('',#332,4.15783502859216);
#278=CIRCLE('',#334,4.04328527541995);
#279=CIRCLE('',#336,4.6843873538065);
#280=CIRCLE('',#338,4.96594482813091);
#281=CIRCLE('',#340,5.5);
#282=CIRCLE('',#342,5.5);
#283=CIRCLE('',#344,4.75);
#284=CIRCLE('',#346,4.75);
#285=CIRCLE('',#348,5.5);
#286=CIRCLE('',#352,4.8);
#287=PRESENTATION_LAYER_ASSIGNMENT('1','Layer 1',(#305,#306,#307,#30));
#288=STYLED_ITEM('',(#292),#305);
#289=STYLED_ITEM('',(#293),#306);
#290=STYLED_ITEM('',(#294),#307);
#291=STYLED_ITEM('',(#295),#30);
#292=PRESENTATION_STYLE_ASSIGNMENT((#296));
#293=PRESENTATION_STYLE_ASSIGNMENT((#297));
#294=PRESENTATION_STYLE_ASSIGNMENT((#298));
#295=PRESENTATION_STYLE_ASSIGNMENT((#25));
#296=CURVE_STYLE('',#301,POSITIVE_LENGTH_MEASURE(0.13),#299);
#297=CURVE_STYLE('',#302,POSITIVE_LENGTH_MEASURE(0.13),#299);
#298=CURVE_STYLE('',#303,POSITIVE_LENGTH_MEASURE(0.13),#299);
#299=COLOUR_RGB('Strong Emerald',0.,0.803921568627451,0.525490196078431);
#300=COLOUR_RGB('TLS_NOCUT',0.499992370489052,0.499992370489052,0.499992370489052);
#301=DRAUGHTING_PRE_DEFINED_CURVE_FONT('continuous');
#302=DRAUGHTING_PRE_DEFINED_CURVE_FONT('continuous');
#303=DRAUGHTING_PRE_DEFINED_CURVE_FONT('continuous');
#304=AXIS2_PLACEMENT_3D('',#457,#355,#356);
#305=AXIS2_PLACEMENT_3D('PCS',#458,#357,#358);
#306=AXIS2_PLACEMENT_3D('MCS',#459,#359,#360);
#307=AXIS2_PLACEMENT_3D('CSW',#460,#361,#362);
#308=AXIS2_PLACEMENT_3D('',#461,#363,#364);
#309=AXIS2_PLACEMENT_3D('',#463,#365,#366);
#310=AXIS2_PLACEMENT_3D('',#465,#367,#368);
#311=AXIS2_PLACEMENT_3D('',#466,#369,#370);
#312=AXIS2_PLACEMENT_3D('',#468,#371,#372);
#313=AXIS2_PLACEMENT_3D('',#470,#373,#374);
#314=AXIS2_PLACEMENT_3D('',#471,#375,#376);
#315=AXIS2_PLACEMENT_3D('',#473,#377,#378);
#316=AXIS2_PLACEMENT_3D('',#475,#379,#380);
#317=AXIS2_PLACEMENT_3D('',#476,#381,#382);
#318=AXIS2_PLACEMENT_3D('',#478,#383,#384);
#319=AXIS2_PLACEMENT_3D('',#480,#385,#386);
#320=AXIS2_PLACEMENT_3D('',#481,#387,#388);
#321=AXIS2_PLACEMENT_3D('',#482,#389,#390);
#322=AXIS2_PLACEMENT_3D('',#483,#391,#392);
#323=AXIS2_PLACEMENT_3D('',#485,#393,#394);
#324=AXIS2_PLACEMENT_3D('',#486,#395,#396);
#325=AXIS2_PLACEMENT_3D('',#488,#397,#398);
#326=AXIS2_PLACEMENT_3D('',#489,#399,#400);
#327=AXIS2_PLACEMENT_3D('',#491,#401,#402);
#328=AXIS2_PLACEMENT_3D('',#492,#403,#404);
#329=AXIS2_PLACEMENT_3D('',#494,#405,#406);
#330=AXIS2_PLACEMENT_3D('',#495,#407,#408);
#331=AXIS2_PLACEMENT_3D('',#497,#409,#410);
#332=AXIS2_PLACEMENT_3D('',#498,#411,#412);
#333=AXIS2_PLACEMENT_3D('',#500,#413,#414);
#334=AXIS2_PLACEMENT_3D('',#501,#415,#416);
#335=AXIS2_PLACEMENT_3D('',#503,#417,#418);
#336=AXIS2_PLACEMENT_3D('',#504,#419,#420);
#337=AXIS2_PLACEMENT_3D('',#506,#421,#422);
#338=AXIS2_PLACEMENT_3D('',#507,#423,#424);
#339=AXIS2_PLACEMENT_3D('',#509,#425,#426);
#340=AXIS2_PLACEMENT_3D('',#510,#427,#428);
#341=AXIS2_PLACEMENT_3D('',#512,#429,#430);
#342=AXIS2_PLACEMENT_3D('',#513,#431,#432);
#343=AXIS2_PLACEMENT_3D('',#515,#433,#434);
#344=AXIS2_PLACEMENT_3D('',#516,#435,#436);
#345=AXIS2_PLACEMENT_3D('',#518,#437,#438);
#346=AXIS2_PLACEMENT_3D('',#519,#439,#440);
#347=AXIS2_PLACEMENT_3D('',#521,#441,#442);
#348=AXIS2_PLACEMENT_3D('',#522,#443,#444);
#349=AXIS2_PLACEMENT_3D('',#524,#445,#446);
#350=AXIS2_PLACEMENT_3D('',#525,#447,#448);
#351=AXIS2_PLACEMENT_3D('',#526,#449,#450);
#352=AXIS2_PLACEMENT_3D('',#527,#451,#452);
#353=AXIS2_PLACEMENT_3D('',#529,#453,#454);
#354=AXIS2_PLACEMENT_3D('',#530,#455,#456);
#355=DIRECTION('',(0.,0.,1.));
#356=DIRECTION('',(1.,0.,0.));
#357=DIRECTION('',(0.,0.,1.));
#358=DIRECTION('',(1.,0.,0.));
#359=DIRECTION('',(0.,0.,1.));
#360=DIRECTION('',(1.,0.,0.));
#361=DIRECTION('',(0.,0.,1.));
#362=DIRECTION('',(1.,0.,0.));
#363=DIRECTION('',(0.,0.,-1.));
#364=DIRECTION('',(1.,0.,0.));
#365=DIRECTION('',(0.,0.,-1.));
#366=DIRECTION('',(1.,0.,0.));
#367=DIRECTION('',(0.,0.,1.));
#368=DIRECTION('',(-1.,0.,-4.29439198340946E-017));
#369=DIRECTION('',(0.,0.,1.));
#370=DIRECTION('',(-1.,0.,0.));
#371=DIRECTION('',(0.,0.,-1.));
#372=DIRECTION('',(-1.,0.,0.));
#373=DIRECTION('',(0.,0.,1.));
#374=DIRECTION('',(-1.,0.,0.));
#375=DIRECTION('',(0.,0.,1.));
#376=DIRECTION('',(1.,0.,0.));
#377=DIRECTION('',(0.,0.,-1.));
#378=DIRECTION('',(1.,0.,0.));
#379=DIRECTION('',(0.,0.,-1.));
#380=DIRECTION('',(1.,0.,0.));
#381=DIRECTION('',(0.,0.,1.));
#382=DIRECTION('',(1.,0.,0.));
#383=DIRECTION('',(0.,0.,-1.));
#384=DIRECTION('',(-1.,0.,0.));
#385=DIRECTION('',(0.,0.,1.));
#386=DIRECTION('',(-1.,0.,0.));
#387=DIRECTION('',(0.,0.,1.));
#388=DIRECTION('',(-1.,0.,1.49411961032455E-017));
#389=DIRECTION('',(0.,0.,-1.));
#390=DIRECTION('',(1.,0.,-3.608637245717E-017));
#391=DIRECTION('',(0.,0.,-1.));
#392=DIRECTION('',(1.,0.,0.));
#393=DIRECTION('',(0.,0.,-1.));
#394=DIRECTION('',(1.,0.,-5.18034085997455E-017));
#395=DIRECTION('',(0.,-6.0660075097953E-017,-1.));
#396=DIRECTION('',(0.,-1.,0.));
#397=DIRECTION('',(0.,0.,1.));
#398=DIRECTION('',(-1.,0.,0.));
#399=DIRECTION('',(0.,-6.0660075097953E-017,-1.));
#400=DIRECTION('',(0.,-1.,0.));
#401=DIRECTION('',(0.,6.0660075097953E-017,1.));
#402=DIRECTION('',(0.,-1.,8.32643094428085E-017));
#403=DIRECTION('',(0.,6.0660075097953E-017,1.));
#404=DIRECTION('',(0.,1.,0.));
#405=DIRECTION('',(0.,-6.0660075097953E-017,-1.));
#406=DIRECTION('',(0.,1.,-6.07153216591882E-017));
#407=DIRECTION('',(0.,-6.06600750979527E-017,-1.));
#408=DIRECTION('',(0.,-1.,0.));
#409=DIRECTION('',(0.,-6.06600750979527E-017,-1.));
#410=DIRECTION('',(0.,1.,-7.06517012015626E-017));
#411=DIRECTION('',(0.,-6.0660075097953E-017,-1.));
#412=DIRECTION('',(0.,1.,0.));
#413=DIRECTION('',(0.,-6.0660075097953E-017,-1.));
#414=DIRECTION('',(0.,1.,-3.73111926842725E-016));
#415=DIRECTION('',(0.,-6.0660075097953E-017,-1.));
#416=DIRECTION('',(0.,1.,0.));
#417=DIRECTION('',(0.,6.0660075097953E-017,1.));
#418=DIRECTION('',(0.,-1.,0.));
#419=DIRECTION('',(0.,6.0660075097953E-017,1.));
#420=DIRECTION('',(0.,1.,0.));
#421=DIRECTION('',(0.,-6.0660075097953E-017,-1.));
#422=DIRECTION('',(0.,1.,1.79077701698056E-016));
#423=DIRECTION('',(0.,6.0660075097953E-017,1.));
#424=DIRECTION('',(0.,-1.,8.73309881611051E-017));
#425=DIRECTION('',(0.,-6.0660075097953E-017,-1.));
#426=DIRECTION('',(0.,1.,0.));
#427=DIRECTION('',(0.,-6.0660075097953E-017,-1.));
#428=DIRECTION('',(0.,1.,-6.0660075097953E-017));
#429=DIRECTION('',(0.,-6.0660075097953E-017,-1.));
#430=DIRECTION('',(0.,1.,-3.73111926842725E-016));
#431=DIRECTION('',(0.,-6.0660075097953E-017,-1.));
#432=DIRECTION('',(0.,1.,-7.88510670898549E-017));
#433=DIRECTION('',(0.,-6.0660075097953E-017,-1.));
#434=DIRECTION('',(0.,1.,0.));
#435=DIRECTION('',(0.,-6.0660075097953E-017,-1.));
#436=DIRECTION('',(0.,-1.,4.56506177888633E-017));
#437=DIRECTION('',(0.,6.0660075097953E-017,1.));
#438=DIRECTION('',(0.,-1.,6.07153216591882E-017));
#439=DIRECTION('',(0.,0.,1.));
#440=DIRECTION('',(1.,0.,0.));
#441=DIRECTION('',(0.,-6.0660075097953E-017,-1.));
#442=DIRECTION('',(0.,1.,0.));
#443=DIRECTION('',(0.,0.,-1.));
#444=DIRECTION('',(1.,0.,0.));
#445=DIRECTION('',(0.,0.,-1.));
#446=DIRECTION('',(1.,0.,0.));
#447=DIRECTION('',(0.,0.,-1.));
#448=DIRECTION('',(1.,0.,0.));
#449=DIRECTION('',(0.,0.,-1.));
#450=DIRECTION('',(1.,0.,0.));
#451=DIRECTION('',(0.,0.,1.));
#452=DIRECTION('',(-1.,0.,0.));
#453=DIRECTION('',(0.,0.,1.));
#454=DIRECTION('',(-1.,0.,0.));
#455=DIRECTION('',(0.,0.,1.));
#456=DIRECTION('',(-1.,0.,0.));
#457=CARTESIAN_POINT('',(0.,0.,0.));
#458=CARTESIAN_POINT('',(0.,0.,0.));
#459=CARTESIAN_POINT('',(0.,0.,0.));
#460=CARTESIAN_POINT('',(0.,0.,-16.8));
#461=CARTESIAN_POINT('',(0.,-4.93811760684811E-016,-1.50320508075686));
#462=CARTESIAN_POINT('',(5.5,-4.93811760684811E-016,-1.50320508075686));
#463=CARTESIAN_POINT('',(0.,-4.93811760684811E-016,-0.503205080756859));
#464=CARTESIAN_POINT('',(6.625,-4.93811760684811E-016,-0.503205080756859));
#465=CARTESIAN_POINT('',(0.,-4.93811760684811E-016,-1.00320508075686));
#466=CARTESIAN_POINT('',(0.,-4.93811760684811E-016,3.22679491924314));
#467=CARTESIAN_POINT('',(-9.,-4.93811760684811E-016,3.22679491924314));
#468=CARTESIAN_POINT('',(0.,-4.93811760684811E-016,3.22679491924314));
#469=CARTESIAN_POINT('',(-6.625,-4.93811760684811E-016,3.22679491924314));
#470=CARTESIAN_POINT('',(0.,-4.93811760684811E-016,3.22679491924314));
#471=CARTESIAN_POINT('',(0.,-4.93811760684811E-016,-8.77320508075686));
#472=CARTESIAN_POINT('',(5.15,-4.93811760684811E-016,-8.77320508075686));
#473=CARTESIAN_POINT('',(0.,-4.93811760684811E-016,-8.77320508075686));
#474=CARTESIAN_POINT('',(8.02775681356646,-4.93811760684811E-016,-8.77320508075686));
#475=CARTESIAN_POINT('',(0.,-4.93811760684811E-016,-8.77320508075686));
#476=CARTESIAN_POINT('',(0.,-4.93811760684811E-016,-7.92320508075686));
#477=CARTESIAN_POINT('',(9.5,-4.93811760684811E-016,-7.92320508075686));
#478=CARTESIAN_POINT('',(0.,-4.93811760684811E-016,2.72679491924314));
#479=CARTESIAN_POINT('',(-9.5,-4.93811760684811E-016,2.72679491924314));
#480=CARTESIAN_POINT('',(0.,-4.93811760684811E-016,-8.77320508075686));
#481=CARTESIAN_POINT('',(0.,-4.93811760684811E-016,-7.92320508075686));
#482=CARTESIAN_POINT('',(0.,-4.93811760684811E-016,2.72679491924314));
#483=CARTESIAN_POINT('',(0.,-4.93811760684811E-016,-8.49820508075686));
#484=CARTESIAN_POINT('',(4.875,-4.93811760684811E-016,-8.49820508075686));
#485=CARTESIAN_POINT('',(0.,-4.93811760684811E-016,-8.22320508075686));
#486=CARTESIAN_POINT('',(0.,1.8386608110605E-017,-7.49689110867545));
#487=CARTESIAN_POINT('',(0.,-4.875,-7.49689110867545));
#488=CARTESIAN_POINT('',(0.,-4.93811760684811E-016,-8.77320508075686));
#489=CARTESIAN_POINT('',(0.,1.050663320606E-017,-7.62679491924311));
#490=CARTESIAN_POINT('',(0.,-4.8,-7.62679491924311));
#491=CARTESIAN_POINT('',(0.,1.36586231678778E-016,-5.54833395016046));
#492=CARTESIAN_POINT('',(0.,1.29812560709619E-015,13.6));
#493=CARTESIAN_POINT('',(0.,3.28613286328743,13.6));
#494=CARTESIAN_POINT('',(0.,1.33226762955019E-015,13.6));
#495=CARTESIAN_POINT('',(0.,1.27995380422514E-015,13.3004322391341));
#496=CARTESIAN_POINT('',(0.,-3.63074615120949,13.3004322391341));
#497=CARTESIAN_POINT('',(0.,1.27995380422514E-015,13.3004322391341));
#498=CARTESIAN_POINT('',(0.,1.05245230294948E-015,9.55));
#499=CARTESIAN_POINT('',(0.,4.15783502859216,9.55));
#500=CARTESIAN_POINT('',(0.,1.29812560709619E-015,13.6));
#501=CARTESIAN_POINT('',(0.,1.01472201154811E-015,8.9280045385626));
#502=CARTESIAN_POINT('',(0.,4.04328527541995,8.9280045385626));
#503=CARTESIAN_POINT('',(0.,1.02316426230396E-015,9.06717763952265));
#504=CARTESIAN_POINT('',(0.,7.3801026223529E-016,4.36632622105334));
#505=CARTESIAN_POINT('',(0.,4.6843873538065,4.36632622105334));
#506=CARTESIAN_POINT('',(0.,7.03656871136255E-016,3.8));
#507=CARTESIAN_POINT('',(0.,7.03656871136255E-016,3.8));
#508=CARTESIAN_POINT('',(0.,-4.96594482813091,3.8));
#509=CARTESIAN_POINT('',(0.,7.46452512991143E-016,4.5054993220134));
#510=CARTESIAN_POINT('',(0.,4.73148585764034E-016,0.));
#511=CARTESIAN_POINT('',(0.,5.5,-3.33630413038741E-016));
#512=CARTESIAN_POINT('',(0.,1.29812560709619E-015,13.6));
#513=CARTESIAN_POINT('',(0.,4.0035649564649E-016,-1.2));
#514=CARTESIAN_POINT('',(0.,5.5,-1.2));
#515=CARTESIAN_POINT('',(0.,1.29812560709619E-015,13.6));
#516=CARTESIAN_POINT('',(0.,4.0035649564649E-016,-1.2));
#517=CARTESIAN_POINT('',(0.,-4.75,-1.2));
#518=CARTESIAN_POINT('',(0.,5.5,-1.2));
#519=CARTESIAN_POINT('',(0.,2.72775917501382E-016,-3.30320508075686));
#520=CARTESIAN_POINT('',(4.75,2.72775917501382E-016,-3.30320508075686));
#521=CARTESIAN_POINT('',(0.,1.29812560709619E-015,13.6));
#522=CARTESIAN_POINT('',(0.,-4.93811760684811E-016,-3.30320508075686));
#523=CARTESIAN_POINT('',(5.5,-4.93811760684811E-016,-3.30320508075686));
#524=CARTESIAN_POINT('',(0.,-4.93811760684811E-016,-3.30320508075686));
#525=CARTESIAN_POINT('',(0.,-4.93811760684811E-016,3.22679491924314));
#526=CARTESIAN_POINT('',(0.,-4.93811760684811E-016,3.22679491924314));
#527=CARTESIAN_POINT('',(0.,0.,-16.8));
#528=CARTESIAN_POINT('',(-4.8,0.,-16.8));
#529=CARTESIAN_POINT('',(0.,0.,-16.8));
#530=CARTESIAN_POINT('',(0.,0.,-16.8));
#531=MECHANICAL_DESIGN_GEOMETRIC_PRESENTATION_REPRESENTATION('',(#288,#289,
#290,#291),#532);
#532=(
GEOMETRIC_REPRESENTATION_CONTEXT(3)
GLOBAL_UNCERTAINTY_ASSIGNED_CONTEXT((#533))
GLOBAL_UNIT_ASSIGNED_CONTEXT((#539,#535,#534))
REPRESENTATION_CONTEXT('1493798866784','TOP_LEVEL_ASSEMBLY_PART')
);
#533=UNCERTAINTY_MEASURE_WITH_UNIT(LENGTH_MEASURE(2.E-005),#539,
'DISTANCE_ACCURACY_VALUE','Maximum Tolerance applied to model');
#534=(
NAMED_UNIT(*)
SI_UNIT($,.STERADIAN.)
SOLID_ANGLE_UNIT()
);
#535=(
CONVERSION_BASED_UNIT('DEGREE',#537)
NAMED_UNIT(#536)
PLANE_ANGLE_UNIT()
);
#536=DIMENSIONAL_EXPONENTS(0.,0.,0.,0.,0.,0.,0.);
#537=PLANE_ANGLE_MEASURE_WITH_UNIT(PLANE_ANGLE_MEASURE(0.0174532925),#538);
#538=(
NAMED_UNIT(*)
PLANE_ANGLE_UNIT()
SI_UNIT($,.RADIAN.)
);
#539=(
LENGTH_UNIT()
NAMED_UNIT(*)
SI_UNIT(.MILLI.,.METRE.)
);
ENDSEC;
END-ISO-10303-21;
