ISO-10303-21;
HEADER;
FILE_DESCRIPTION(
/* description */ ('3-D model version:1'),
/* implementation_level */ '2;1');
FILE_NAME(
/* name */ '392.55EH-3020049',
/* time_stamp */ '2016-12-02T13:56:14',
/* author */ ('InteractiveCad'),
/* organization */ ('AB Sandvik Coromant'),
/* preprocessor_version */ 'ST-DEVELOPER v11',
/* originating_system */ 'SIEMENS UGS NX 6.0',
/* authorization */ '');
FILE_SCHEMA(('AUTOMOTIVE_DESIGN'));
ENDSEC;
DATA;
#10=SHAPE_REPRESENTATION_RELATIONSHIP('None','relationship between 392.55EH_3020049uno_stp-None and 392.55EH_3020049\X\0Duno_stp-None',
     #22,#11);
#11=ADVANCED_BREP_SHAPE_REPRESENTATION('392.55EH_3020049uno_stp-None',(#32),#425);
#12=SHAPE_DEFINITION_REPRESENTATION(#13,#22);
#13=PRODUCT_DEFINITION_SHAPE('','',#14);
#14=PRODUCT_DEFINITION(' ','',#16,#15);
#15=PRODUCT_DEFINITION_CONTEXT('part definition',#21,'design');
#16=PRODUCT_DEFINITION_FORMATION_WITH_SPECIFIED_SOURCE(' ',' ',#18,.NOT_KNOWN.);
#17=PRODUCT_RELATED_PRODUCT_CATEGORY('part','',(#18));
#18=PRODUCT('392.55EH_3020049uno_stp','392.55EH_3020049uno_stp',' ',(#19));
#19=PRODUCT_CONTEXT(' ',#21,'mechanical');
#20=APPLICATION_PROTOCOL_DEFINITION('international standard','automotive_design',
     2001,#21);
#21=APPLICATION_CONTEXT('core data for automotive mechanical design processes');
#22=SHAPE_REPRESENTATION('392.55EH_3020049uno_stp-None',(#245),#425);
#23=PRESENTATION_LAYER_ASSIGNMENT('1','Layer 1',(#32));
#24=STYLED_ITEM('',(#25),#32);
#25=PRESENTATION_STYLE_ASSIGNMENT((#26));
#26=SURFACE_STYLE_USAGE(.BOTH.,#27);
#27=SURFACE_SIDE_STYLE('',(#28));
#28=SURFACE_STYLE_FILL_AREA(#29);
#29=FILL_AREA_STYLE('',(#30));
#30=FILL_AREA_STYLE_COLOUR('',#31);
#31=COLOUR_RGB('TLS_NOCUT',0.499992370489052,0.499992370489052,0.499992370489052);
#32=MANIFOLD_SOLID_BREP('NOCUT',#33);
#33=CLOSED_SHELL('',(#85,#86,#87,#88,#89,#90,#91,#92,#93,#94,#95,#96,#97,#98,#99,
     #100,#101,#102,#103,#104));
#34=CONICAL_SURFACE('',#253,13.2744602716499,74.6266329562781);
#35=CONICAL_SURFACE('',#259,22.99025,60.1249999999989);
#36=CONICAL_SURFACE('',#267,19.480757323931,60.125);
#37=CONICAL_SURFACE('',#279,15.65,29.9999999999999);
#38=CONICAL_SURFACE('',#281,15.9333388353814,8.29791666666669);
#39=TOROIDAL_SURFACE('',#251,14.6,5.0);
#40=TOROIDAL_SURFACE('',#255,22.49025,0.5);
#41=TOROIDAL_SURFACE('',#271,22.49025,0.5);
#42=TOROIDAL_SURFACE('',#275,16.25,0.6);
#43=TOROIDAL_SURFACE('',#283,8.3836346024001,0.5);
#44=CYLINDRICAL_SURFACE('',#249,9.6);
#45=CYLINDRICAL_SURFACE('',#257,22.99025);
#46=CYLINDRICAL_SURFACE('',#263,19.0);
#47=CYLINDRICAL_SURFACE('',#269,22.99025);
#48=CYLINDRICAL_SURFACE('',#277,15.65);
#49=FACE_BOUND('',#113,.T.);
#50=FACE_BOUND('',#114,.T.);
#51=FACE_BOUND('',#115,.T.);
#52=FACE_BOUND('',#116,.T.);
#53=FACE_BOUND('',#117,.T.);
#54=FACE_BOUND('',#118,.T.);
#55=FACE_BOUND('',#119,.T.);
#56=FACE_BOUND('',#120,.T.);
#57=FACE_BOUND('',#121,.T.);
#58=FACE_BOUND('',#122,.T.);
#59=FACE_BOUND('',#123,.T.);
#60=FACE_BOUND('',#124,.T.);
#61=FACE_BOUND('',#125,.T.);
#62=FACE_BOUND('',#126,.T.);
#63=FACE_BOUND('',#127,.T.);
#64=FACE_BOUND('',#128,.T.);
#65=FACE_BOUND('',#129,.T.);
#66=FACE_BOUND('',#130,.T.);
#67=FACE_BOUND('',#131,.T.);
#68=FACE_BOUND('',#132,.T.);
#69=FACE_BOUND('',#133,.T.);
#70=FACE_BOUND('',#134,.T.);
#71=FACE_BOUND('',#135,.T.);
#72=FACE_BOUND('',#136,.T.);
#73=FACE_BOUND('',#137,.T.);
#74=FACE_BOUND('',#138,.T.);
#75=FACE_BOUND('',#139,.T.);
#76=FACE_BOUND('',#140,.T.);
#77=FACE_BOUND('',#141,.T.);
#78=FACE_BOUND('',#142,.T.);
#79=FACE_BOUND('',#143,.T.);
#80=FACE_BOUND('',#144,.T.);
#81=FACE_BOUND('',#145,.T.);
#82=FACE_BOUND('',#146,.T.);
#83=FACE_BOUND('',#147,.T.);
#84=FACE_BOUND('',#148,.T.);
#85=ADVANCED_FACE('',(#110),#105,.T.);
#86=ADVANCED_FACE('',(#49,#50),#44,.T.);
#87=ADVANCED_FACE('',(#51,#52),#39,.F.);
#88=ADVANCED_FACE('',(#53,#54),#34,.T.);
#89=ADVANCED_FACE('',(#55,#56),#40,.T.);
#90=ADVANCED_FACE('',(#57,#58),#45,.T.);
#91=ADVANCED_FACE('',(#59,#60),#35,.T.);
#92=ADVANCED_FACE('',(#61,#62),#106,.T.);
#93=ADVANCED_FACE('',(#63,#64),#46,.T.);
#94=ADVANCED_FACE('',(#65,#66),#107,.T.);
#95=ADVANCED_FACE('',(#67,#68),#36,.T.);
#96=ADVANCED_FACE('',(#69,#70),#47,.T.);
#97=ADVANCED_FACE('',(#71,#72),#41,.T.);
#98=ADVANCED_FACE('',(#73,#74),#108,.T.);
#99=ADVANCED_FACE('',(#75,#76),#42,.F.);
#100=ADVANCED_FACE('',(#77,#78),#48,.T.);
#101=ADVANCED_FACE('',(#79,#80),#37,.T.);
#102=ADVANCED_FACE('',(#81,#82),#38,.T.);
#103=ADVANCED_FACE('',(#83,#84),#43,.T.);
#104=ADVANCED_FACE('',(#111),#109,.T.);
#105=PLANE('',#247);
#106=PLANE('',#261);
#107=PLANE('',#265);
#108=PLANE('',#273);
#109=PLANE('',#284);
#110=FACE_OUTER_BOUND('',#112,.T.);
#111=FACE_OUTER_BOUND('',#149,.T.);
#112=EDGE_LOOP('',(#150));
#113=EDGE_LOOP('',(#151));
#114=EDGE_LOOP('',(#152));
#115=EDGE_LOOP('',(#153));
#116=EDGE_LOOP('',(#154));
#117=EDGE_LOOP('',(#155));
#118=EDGE_LOOP('',(#156));
#119=EDGE_LOOP('',(#157));
#120=EDGE_LOOP('',(#158));
#121=EDGE_LOOP('',(#159));
#122=EDGE_LOOP('',(#160));
#123=EDGE_LOOP('',(#161));
#124=EDGE_LOOP('',(#162));
#125=EDGE_LOOP('',(#163));
#126=EDGE_LOOP('',(#164));
#127=EDGE_LOOP('',(#165));
#128=EDGE_LOOP('',(#166));
#129=EDGE_LOOP('',(#167));
#130=EDGE_LOOP('',(#168));
#131=EDGE_LOOP('',(#169));
#132=EDGE_LOOP('',(#170));
#133=EDGE_LOOP('',(#171));
#134=EDGE_LOOP('',(#172));
#135=EDGE_LOOP('',(#173));
#136=EDGE_LOOP('',(#174));
#137=EDGE_LOOP('',(#175));
#138=EDGE_LOOP('',(#176));
#139=EDGE_LOOP('',(#177));
#140=EDGE_LOOP('',(#178));
#141=EDGE_LOOP('',(#179));
#142=EDGE_LOOP('',(#180));
#143=EDGE_LOOP('',(#181));
#144=EDGE_LOOP('',(#182));
#145=EDGE_LOOP('',(#183));
#146=EDGE_LOOP('',(#184));
#147=EDGE_LOOP('',(#185));
#148=EDGE_LOOP('',(#186));
#149=EDGE_LOOP('',(#187));
#150=ORIENTED_EDGE('',*,*,#207,.T.);
#151=ORIENTED_EDGE('',*,*,#208,.T.);
#152=ORIENTED_EDGE('',*,*,#207,.F.);
#153=ORIENTED_EDGE('',*,*,#209,.T.);
#154=ORIENTED_EDGE('',*,*,#208,.F.);
#155=ORIENTED_EDGE('',*,*,#210,.T.);
#156=ORIENTED_EDGE('',*,*,#209,.F.);
#157=ORIENTED_EDGE('',*,*,#211,.T.);
#158=ORIENTED_EDGE('',*,*,#210,.F.);
#159=ORIENTED_EDGE('',*,*,#212,.T.);
#160=ORIENTED_EDGE('',*,*,#211,.F.);
#161=ORIENTED_EDGE('',*,*,#213,.T.);
#162=ORIENTED_EDGE('',*,*,#212,.F.);
#163=ORIENTED_EDGE('',*,*,#214,.T.);
#164=ORIENTED_EDGE('',*,*,#213,.F.);
#165=ORIENTED_EDGE('',*,*,#215,.T.);
#166=ORIENTED_EDGE('',*,*,#214,.F.);
#167=ORIENTED_EDGE('',*,*,#216,.T.);
#168=ORIENTED_EDGE('',*,*,#215,.F.);
#169=ORIENTED_EDGE('',*,*,#217,.T.);
#170=ORIENTED_EDGE('',*,*,#216,.F.);
#171=ORIENTED_EDGE('',*,*,#218,.T.);
#172=ORIENTED_EDGE('',*,*,#217,.F.);
#173=ORIENTED_EDGE('',*,*,#219,.T.);
#174=ORIENTED_EDGE('',*,*,#218,.F.);
#175=ORIENTED_EDGE('',*,*,#220,.T.);
#176=ORIENTED_EDGE('',*,*,#219,.F.);
#177=ORIENTED_EDGE('',*,*,#221,.T.);
#178=ORIENTED_EDGE('',*,*,#220,.F.);
#179=ORIENTED_EDGE('',*,*,#222,.T.);
#180=ORIENTED_EDGE('',*,*,#221,.F.);
#181=ORIENTED_EDGE('',*,*,#223,.T.);
#182=ORIENTED_EDGE('',*,*,#222,.F.);
#183=ORIENTED_EDGE('',*,*,#224,.T.);
#184=ORIENTED_EDGE('',*,*,#223,.F.);
#185=ORIENTED_EDGE('',*,*,#225,.T.);
#186=ORIENTED_EDGE('',*,*,#224,.F.);
#187=ORIENTED_EDGE('',*,*,#225,.F.);
#188=VERTEX_POINT('',#367);
#189=VERTEX_POINT('',#370);
#190=VERTEX_POINT('',#373);
#191=VERTEX_POINT('',#376);
#192=VERTEX_POINT('',#379);
#193=VERTEX_POINT('',#382);
#194=VERTEX_POINT('',#385);
#195=VERTEX_POINT('',#388);
#196=VERTEX_POINT('',#391);
#197=VERTEX_POINT('',#394);
#198=VERTEX_POINT('',#397);
#199=VERTEX_POINT('',#400);
#200=VERTEX_POINT('',#403);
#201=VERTEX_POINT('',#406);
#202=VERTEX_POINT('',#409);
#203=VERTEX_POINT('',#412);
#204=VERTEX_POINT('',#415);
#205=VERTEX_POINT('',#418);
#206=VERTEX_POINT('',#421);
#207=EDGE_CURVE('',#188,#188,#226,.T.);
#208=EDGE_CURVE('',#189,#189,#227,.T.);
#209=EDGE_CURVE('',#190,#190,#228,.T.);
#210=EDGE_CURVE('',#191,#191,#229,.T.);
#211=EDGE_CURVE('',#192,#192,#230,.T.);
#212=EDGE_CURVE('',#193,#193,#231,.T.);
#213=EDGE_CURVE('',#194,#194,#232,.T.);
#214=EDGE_CURVE('',#195,#195,#233,.T.);
#215=EDGE_CURVE('',#196,#196,#234,.T.);
#216=EDGE_CURVE('',#197,#197,#235,.T.);
#217=EDGE_CURVE('',#198,#198,#236,.T.);
#218=EDGE_CURVE('',#199,#199,#237,.T.);
#219=EDGE_CURVE('',#200,#200,#238,.T.);
#220=EDGE_CURVE('',#201,#201,#239,.T.);
#221=EDGE_CURVE('',#202,#202,#240,.T.);
#222=EDGE_CURVE('',#203,#203,#241,.T.);
#223=EDGE_CURVE('',#204,#204,#242,.T.);
#224=EDGE_CURVE('',#205,#205,#243,.T.);
#225=EDGE_CURVE('',#206,#206,#244,.T.);
#226=CIRCLE('',#246,9.6);
#227=CIRCLE('',#248,9.6);
#228=CIRCLE('',#250,13.2744602716499);
#229=CIRCLE('',#252,22.5513764186311);
#230=CIRCLE('',#254,22.99025);
#231=CIRCLE('',#256,22.99025);
#232=CIRCLE('',#258,19.480757323931);
#233=CIRCLE('',#260,19.0);
#234=CIRCLE('',#262,19.0);
#235=CIRCLE('',#264,19.480757323931);
#236=CIRCLE('',#266,22.99025);
#237=CIRCLE('',#268,22.99025);
#238=CIRCLE('',#270,22.49025);
#239=CIRCLE('',#272,16.25);
#240=CIRCLE('',#274,15.65);
#241=CIRCLE('',#276,15.65);
#242=CIRCLE('',#278,15.9333388353814);
#243=CIRCLE('',#280,8.87840012107731);
#244=CIRCLE('',#282,8.3836346024001);
#245=AXIS2_PLACEMENT_3D('',#365,#285,#286);
#246=AXIS2_PLACEMENT_3D('',#366,#287,#288);
#247=AXIS2_PLACEMENT_3D('',#368,#289,#290);
#248=AXIS2_PLACEMENT_3D('',#369,#291,#292);
#249=AXIS2_PLACEMENT_3D('',#371,#293,#294);
#250=AXIS2_PLACEMENT_3D('',#372,#295,#296);
#251=AXIS2_PLACEMENT_3D('',#374,#297,#298);
#252=AXIS2_PLACEMENT_3D('',#375,#299,#300);
#253=AXIS2_PLACEMENT_3D('',#377,#301,#302);
#254=AXIS2_PLACEMENT_3D('',#378,#303,#304);
#255=AXIS2_PLACEMENT_3D('',#380,#305,#306);
#256=AXIS2_PLACEMENT_3D('',#381,#307,#308);
#257=AXIS2_PLACEMENT_3D('',#383,#309,#310);
#258=AXIS2_PLACEMENT_3D('',#384,#311,#312);
#259=AXIS2_PLACEMENT_3D('',#386,#313,#314);
#260=AXIS2_PLACEMENT_3D('',#387,#315,#316);
#261=AXIS2_PLACEMENT_3D('',#389,#317,#318);
#262=AXIS2_PLACEMENT_3D('',#390,#319,#320);
#263=AXIS2_PLACEMENT_3D('',#392,#321,#322);
#264=AXIS2_PLACEMENT_3D('',#393,#323,#324);
#265=AXIS2_PLACEMENT_3D('',#395,#325,#326);
#266=AXIS2_PLACEMENT_3D('',#396,#327,#328);
#267=AXIS2_PLACEMENT_3D('',#398,#329,#330);
#268=AXIS2_PLACEMENT_3D('',#399,#331,#332);
#269=AXIS2_PLACEMENT_3D('',#401,#333,#334);
#270=AXIS2_PLACEMENT_3D('',#402,#335,#336);
#271=AXIS2_PLACEMENT_3D('',#404,#337,#338);
#272=AXIS2_PLACEMENT_3D('',#405,#339,#340);
#273=AXIS2_PLACEMENT_3D('',#407,#341,#342);
#274=AXIS2_PLACEMENT_3D('',#408,#343,#344);
#275=AXIS2_PLACEMENT_3D('',#410,#345,#346);
#276=AXIS2_PLACEMENT_3D('',#411,#347,#348);
#277=AXIS2_PLACEMENT_3D('',#413,#349,#350);
#278=AXIS2_PLACEMENT_3D('',#414,#351,#352);
#279=AXIS2_PLACEMENT_3D('',#416,#353,#354);
#280=AXIS2_PLACEMENT_3D('',#417,#355,#356);
#281=AXIS2_PLACEMENT_3D('',#419,#357,#358);
#282=AXIS2_PLACEMENT_3D('',#420,#359,#360);
#283=AXIS2_PLACEMENT_3D('',#422,#361,#362);
#284=AXIS2_PLACEMENT_3D('',#423,#363,#364);
#285=DIRECTION('',(0.0,0.0,1.0));
#286=DIRECTION('',(1.0,0.0,0.0));
#287=DIRECTION('',(0.0,0.0,-1.0));
#288=DIRECTION('',(-1.0,0.0,0.0));
#289=DIRECTION('',(0.0,0.0,-1.0));
#290=DIRECTION('',(-1.0,0.0,0.0));
#291=DIRECTION('',(0.0,0.0,-1.0));
#292=DIRECTION('',(-1.0,0.0,0.0));
#293=DIRECTION('',(0.0,0.0,-1.0));
#294=DIRECTION('',(-1.0,0.0,0.0));
#295=DIRECTION('',(0.0,0.0,-1.0));
#296=DIRECTION('',(-1.0,0.0,0.0));
#297=DIRECTION('',(0.0,0.0,-1.0));
#298=DIRECTION('',(-1.0,0.0,0.0));
#299=DIRECTION('',(0.0,0.0,-1.0));
#300=DIRECTION('',(-1.0,0.0,0.0));
#301=DIRECTION('',(0.0,0.0,1.0));
#302=DIRECTION('',(1.0,0.0,-1.14052941412616E-17));
#303=DIRECTION('',(0.0,0.0,-1.0));
#304=DIRECTION('',(-1.0,0.0,0.0));
#305=DIRECTION('',(0.0,0.0,-1.0));
#306=DIRECTION('',(-1.0,0.0,0.0));
#307=DIRECTION('',(0.0,0.0,-1.0));
#308=DIRECTION('',(-1.0,0.0,0.0));
#309=DIRECTION('',(0.0,0.0,-1.0));
#310=DIRECTION('',(-1.0,0.0,0.0));
#311=DIRECTION('',(0.0,0.0,-1.0));
#312=DIRECTION('',(-1.0,0.0,0.0));
#313=DIRECTION('',(0.0,0.0,-1.0));
#314=DIRECTION('',(-1.0,0.0,3.14724602936526E-17));
#315=DIRECTION('',(0.0,0.0,-1.0));
#316=DIRECTION('',(-1.0,0.0,0.0));
#317=DIRECTION('',(0.0,0.0,1.0));
#318=DIRECTION('',(1.0,0.0,0.0));
#319=DIRECTION('',(0.0,0.0,-1.0));
#320=DIRECTION('',(-1.0,0.0,0.0));
#321=DIRECTION('',(0.0,0.0,-1.0));
#322=DIRECTION('',(-1.0,0.0,0.0));
#323=DIRECTION('',(0.0,0.0,-1.0));
#324=DIRECTION('',(-1.0,0.0,0.0));
#325=DIRECTION('',(0.0,0.0,-1.0));
#326=DIRECTION('',(-1.0,0.0,0.0));
#327=DIRECTION('',(0.0,0.0,-1.0));
#328=DIRECTION('',(-1.0,0.0,0.0));
#329=DIRECTION('',(0.0,0.0,1.0));
#330=DIRECTION('',(1.0,0.0,-3.15352069352257E-17));
#331=DIRECTION('',(0.0,0.0,-1.0));
#332=DIRECTION('',(-1.0,0.0,0.0));
#333=DIRECTION('',(0.0,0.0,-1.0));
#334=DIRECTION('',(-1.0,0.0,0.0));
#335=DIRECTION('',(0.0,0.0,-1.0));
#336=DIRECTION('',(-1.0,0.0,0.0));
#337=DIRECTION('',(0.0,0.0,-1.0));
#338=DIRECTION('',(-1.0,0.0,0.0));
#339=DIRECTION('',(0.0,0.0,-1.0));
#340=DIRECTION('',(-1.0,0.0,0.0));
#341=DIRECTION('',(0.0,0.0,1.0));
#342=DIRECTION('',(1.0,0.0,0.0));
#343=DIRECTION('',(0.0,0.0,-1.0));
#344=DIRECTION('',(-1.0,0.0,0.0));
#345=DIRECTION('',(0.0,0.0,-1.0));
#346=DIRECTION('',(-1.0,0.0,0.0));
#347=DIRECTION('',(0.0,0.0,-1.0));
#348=DIRECTION('',(-1.0,0.0,0.0));
#349=DIRECTION('',(0.0,0.0,-1.0));
#350=DIRECTION('',(-1.0,0.0,0.0));
#351=DIRECTION('',(0.0,0.0,-1.0));
#352=DIRECTION('',(-1.0,0.0,0.0));
#353=DIRECTION('',(0.0,0.0,1.0));
#354=DIRECTION('',(1.0,0.0,3.51040004419713E-17));
#355=DIRECTION('',(0.0,0.0,-1.0));
#356=DIRECTION('',(-1.0,0.0,0.0));
#357=DIRECTION('',(0.0,0.0,-1.0));
#358=DIRECTION('',(-1.0,0.0,2.57344872436873E-16));
#359=DIRECTION('',(0.0,0.0,-1.0));
#360=DIRECTION('',(-1.0,0.0,0.0));
#361=DIRECTION('',(0.0,0.0,-1.0));
#362=DIRECTION('',(-1.0,0.0,0.0));
#363=DIRECTION('',(0.0,0.0,1.0));
#364=DIRECTION('',(1.0,0.0,0.0));
#365=CARTESIAN_POINT('',(0.0,0.0,0.0));
#366=CARTESIAN_POINT('',(0.0,0.0,-49.0));
#367=CARTESIAN_POINT('',(-9.6,0.0,-49.0));
#368=CARTESIAN_POINT('',(0.0,0.0,-49.0));
#369=CARTESIAN_POINT('',(0.0,0.0,-29.3679928327262));
#370=CARTESIAN_POINT('',(-9.6,0.0,-29.3679928327262));
#371=CARTESIAN_POINT('',(0.0,0.0,48.4));
#372=CARTESIAN_POINT('',(0.0,0.0,-24.5468991364198));
#373=CARTESIAN_POINT('',(-13.2744602716499,0.0,-24.5468991364198));
#374=CARTESIAN_POINT('',(0.0,0.0,-29.3679928327262));
#375=CARTESIAN_POINT('',(0.0,0.0,-21.9962494946556));
#376=CARTESIAN_POINT('',(-22.5513764186311,0.0,-21.9962494946556));
#377=CARTESIAN_POINT('',(0.0,0.0,-24.5468991364198));
#378=CARTESIAN_POINT('',(0.0,0.0,-21.5));
#379=CARTESIAN_POINT('',(-22.99025,0.0,-21.5));
#380=CARTESIAN_POINT('',(0.0,0.0,-21.5));
#381=CARTESIAN_POINT('',(0.0,0.0,-17.616010667241));
#382=CARTESIAN_POINT('',(-22.99025,0.0,-17.616010667241));
#383=CARTESIAN_POINT('',(0.0,0.0,48.4));
#384=CARTESIAN_POINT('',(0.0,0.0,-15.5999999999999));
#385=CARTESIAN_POINT('',(-19.480757323931,0.0,-15.5999999999999));
#386=CARTESIAN_POINT('',(0.0,0.0,-17.616010667241));
#387=CARTESIAN_POINT('',(0.0,0.0,-15.6));
#388=CARTESIAN_POINT('',(-19.0,0.0,-15.6));
#389=CARTESIAN_POINT('',(0.0,19.480757323931,-15.6));
#390=CARTESIAN_POINT('',(0.0,0.0,-11.6));
#391=CARTESIAN_POINT('',(-19.0,0.0,-11.6));
#392=CARTESIAN_POINT('',(0.0,0.0,48.4));
#393=CARTESIAN_POINT('',(0.0,0.0,-11.6));
#394=CARTESIAN_POINT('',(-19.480757323931,0.0,-11.6));
#395=CARTESIAN_POINT('',(0.0,19.0,-11.6));
#396=CARTESIAN_POINT('',(0.0,0.0,-9.58398933275902));
#397=CARTESIAN_POINT('',(-22.99025,0.0,-9.58398933275902));
#398=CARTESIAN_POINT('',(0.0,0.0,-11.6));
#399=CARTESIAN_POINT('',(0.0,0.0,-2.5));
#400=CARTESIAN_POINT('',(-22.99025,0.0,-2.5));
#401=CARTESIAN_POINT('',(0.0,0.0,48.4));
#402=CARTESIAN_POINT('',(0.0,0.0,-2.0));
#403=CARTESIAN_POINT('',(-22.49025,0.0,-2.0));
#404=CARTESIAN_POINT('',(0.0,0.0,-2.5));
#405=CARTESIAN_POINT('',(0.0,0.0,-2.0));
#406=CARTESIAN_POINT('',(-16.25,0.0,-2.0));
#407=CARTESIAN_POINT('',(0.0,22.49025,-2.0));
#408=CARTESIAN_POINT('',(0.0,0.0,-1.4));
#409=CARTESIAN_POINT('',(-15.65,0.0,-1.4));
#410=CARTESIAN_POINT('',(0.0,0.0,-1.4));
#411=CARTESIAN_POINT('',(0.0,0.0,-0.890757258637985));
#412=CARTESIAN_POINT('',(-15.65,0.0,-0.890757258637985));
#413=CARTESIAN_POINT('',(0.0,0.0,48.4));
#414=CARTESIAN_POINT('',(0.0,0.0,-0.399999999999998));
#415=CARTESIAN_POINT('',(-15.9333388353814,0.0,-0.399999999999998));
#416=CARTESIAN_POINT('',(0.0,0.0,-0.890757258637985));
#417=CARTESIAN_POINT('',(0.0,0.0,47.9721601103663));
#418=CARTESIAN_POINT('',(-8.87840012107731,0.0,47.9721601103663));
#419=CARTESIAN_POINT('',(0.0,0.0,-0.399999999999998));
#420=CARTESIAN_POINT('',(0.0,0.0,48.4));
#421=CARTESIAN_POINT('',(-8.3836346024001,0.0,48.4));
#422=CARTESIAN_POINT('',(0.0,0.0,47.9));
#423=CARTESIAN_POINT('',(0.0,8.3836346024001,48.4));
#424=MECHANICAL_DESIGN_GEOMETRIC_PRESENTATION_REPRESENTATION('',(#24),#425);
#425=(GEOMETRIC_REPRESENTATION_CONTEXT(3)GLOBAL_UNCERTAINTY_ASSIGNED_CONTEXT((#426))
     GLOBAL_UNIT_ASSIGNED_CONTEXT((#432,#428,#427))REPRESENTATION_CONTEXT('392','TOP_LEVEL_ASSEMBLY_PART'));
#426=UNCERTAINTY_MEASURE_WITH_UNIT(LENGTH_MEASURE(2.0E-5),#432,'DISTANCE_ACCURACY_VALUE',
     'Maximum Tolerance applied to model');
#427=(NAMED_UNIT(*)SI_UNIT($,.STERADIAN.)SOLID_ANGLE_UNIT());
#428=(CONVERSION_BASED_UNIT('DEGREE',#430)NAMED_UNIT(*)PLANE_ANGLE_UNIT());
#429=DIMENSIONAL_EXPONENTS(0.0,0.0,0.0,0.0,0.0,0.0,0.0);
#430=PLANE_ANGLE_MEASURE_WITH_UNIT(PLANE_ANGLE_MEASURE(0.0174532925),#431);
#431=(NAMED_UNIT(*)PLANE_ANGLE_UNIT()SI_UNIT($,.RADIAN.));
#432=(LENGTH_UNIT()NAMED_UNIT(*)SI_UNIT(.MILLI.,.METRE.));
#433=CARTESIAN_POINT('',(0.0,0.0,0.0));
#434=DIRECTION('',(0.0,0.0,1.0));
#435=DIRECTION('',(1.0,0.0,0.0));
#436=AXIS2_PLACEMENT_3D('PCS',#433,#434,#435);
#437=CARTESIAN_POINT('',(0.0,0.0,0.0));
#438=DIRECTION('',(0.0,0.0,1.0));
#439=DIRECTION('',(1.0,0.0,0.0));
#440=AXIS2_PLACEMENT_3D('MCS',#437,#438,#439);
#441=CARTESIAN_POINT('',(0.0,0.0,-49.0));
#442=DIRECTION('',(0.0,0.0,1.0));
#443=DIRECTION('',(1.0,0.0,0.0));
#444=AXIS2_PLACEMENT_3D('CSW',#441,#442,#443);
#445=CONSTRUCTIVE_GEOMETRY_REPRESENTATION('supplemental geometry',(#436,#440,#444),
     #425);
#446=CONSTRUCTIVE_GEOMETRY_REPRESENTATION_RELATIONSHIP('supplemental geometry',$,
     #22,#445);
ENDSEC;
END-ISO-10303-21;
