ISO-10303-21;
HEADER;
FILE_DESCRIPTION(
/* description */ ('3-D model version:1'),
/* implementation_level */ '2;1');
FILE_NAME(
/* name */ '392.55EH-3010057',
/* time_stamp */ '2016-12-02T13:57:31',
/* author */ ('InteractiveCad'),
/* organization */ ('AB Sandvik Coromant'),
/* preprocessor_version */ 'ST-DEVELOPER v11',
/* originating_system */ 'SIEMENS UGS NX 6.0',
/* authorization */ '');
FILE_SCHEMA(('AUTOMOTIVE_DESIGN'));
ENDSEC;
DATA;
#10=SHAPE_REPRESENTATION_RELATIONSHIP('None','relationship between 392.55EH_3010057uno_stp-None and 392.55EH_3010057\X\0Duno_stp-None',
     #22,#11);
#11=ADVANCED_BREP_SHAPE_REPRESENTATION('392.55EH_3010057uno_stp-None',(#32),#439);
#12=SHAPE_DEFINITION_REPRESENTATION(#13,#22);
#13=PRODUCT_DEFINITION_SHAPE('','',#14);
#14=PRODUCT_DEFINITION(' ','',#16,#15);
#15=PRODUCT_DEFINITION_CONTEXT('part definition',#21,'design');
#16=PRODUCT_DEFINITION_FORMATION_WITH_SPECIFIED_SOURCE(' ',' ',#18,.NOT_KNOWN.);
#17=PRODUCT_RELATED_PRODUCT_CATEGORY('part','',(#18));
#18=PRODUCT('392.55EH_3010057uno_stp','392.55EH_3010057uno_stp',' ',(#19));
#19=PRODUCT_CONTEXT(' ',#21,'mechanical');
#20=APPLICATION_PROTOCOL_DEFINITION('international standard','automotive_design',
     2001,#21);
#21=APPLICATION_CONTEXT('core data for automotive mechanical design processes');
#22=SHAPE_REPRESENTATION('392.55EH_3010057uno_stp-None',(#245),#439);
#23=PRESENTATION_LAYER_ASSIGNMENT('1','Layer 1',(#32));
#24=STYLED_ITEM('',(#25),#32);
#25=PRESENTATION_STYLE_ASSIGNMENT((#26));
#26=SURFACE_STYLE_USAGE(.BOTH.,#27);
#27=SURFACE_SIDE_STYLE('',(#28));
#28=SURFACE_STYLE_FILL_AREA(#29);
#29=FILL_AREA_STYLE('',(#30));
#30=FILL_AREA_STYLE_COLOUR('',#31);
#31=COLOUR_RGB('TLS_NOCUT',0.499992370489052,0.499992370489052,0.499992370489052);
#32=MANIFOLD_SOLID_BREP('NOCUT',#33);
#33=CLOSED_SHELL('',(#86,#87,#88,#89,#90,#91,#92,#93,#94,#95,#96,#97,#98,#99,#100,
     #101,#102,#103,#104,#105));
#34=B_SPLINE_CURVE_WITH_KNOTS('',3,(#378,#379,#380,#381,#382,#383,#384,#385,#386,
     #387,#388,#389,#390,#391,#392,#393,#394,#395),.UNSPECIFIED.,.T.,.F.,(2,2,2,
     2,2,2,2,2,2,2,2),(-0.125,0.0,0.125,0.25,0.375,0.5,0.625,0.75,0.875,1.0,1.125),
     .UNSPECIFIED.);
#35=TOROIDAL_SURFACE('',#253,12.1872732477432,5.0);
#36=TOROIDAL_SURFACE('',#274,16.25,0.6);
#37=TOROIDAL_SURFACE('',#282,8.38423030848271,0.5);
#38=CONICAL_SURFACE('',#251,4.8,7.89255678935581);
#39=CONICAL_SURFACE('',#255,10.8931780222306,74.9999999999997);
#40=CONICAL_SURFACE('',#260,22.99025,60.125);
#41=CONICAL_SURFACE('',#268,19.480757323931,60.1250000000001);
#42=CONICAL_SURFACE('',#278,15.65,30.0000000000062);
#43=CONICAL_SURFACE('',#280,15.9332467051706,8.29722000000023);
#44=CYLINDRICAL_SURFACE('',#249,4.8);
#45=CYLINDRICAL_SURFACE('',#256,22.99);
#46=CYLINDRICAL_SURFACE('',#258,22.99025);
#47=CYLINDRICAL_SURFACE('',#264,19.0);
#48=CYLINDRICAL_SURFACE('',#270,22.99025);
#49=CYLINDRICAL_SURFACE('',#276,15.65);
#50=FACE_BOUND('',#114,.T.);
#51=FACE_BOUND('',#115,.T.);
#52=FACE_BOUND('',#116,.T.);
#53=FACE_BOUND('',#117,.T.);
#54=FACE_BOUND('',#118,.T.);
#55=FACE_BOUND('',#119,.T.);
#56=FACE_BOUND('',#120,.T.);
#57=FACE_BOUND('',#121,.T.);
#58=FACE_BOUND('',#122,.T.);
#59=FACE_BOUND('',#123,.T.);
#60=FACE_BOUND('',#124,.T.);
#61=FACE_BOUND('',#125,.T.);
#62=FACE_BOUND('',#126,.T.);
#63=FACE_BOUND('',#127,.T.);
#64=FACE_BOUND('',#128,.T.);
#65=FACE_BOUND('',#129,.T.);
#66=FACE_BOUND('',#130,.T.);
#67=FACE_BOUND('',#131,.T.);
#68=FACE_BOUND('',#132,.T.);
#69=FACE_BOUND('',#133,.T.);
#70=FACE_BOUND('',#134,.T.);
#71=FACE_BOUND('',#135,.T.);
#72=FACE_BOUND('',#136,.T.);
#73=FACE_BOUND('',#137,.T.);
#74=FACE_BOUND('',#138,.T.);
#75=FACE_BOUND('',#139,.T.);
#76=FACE_BOUND('',#140,.T.);
#77=FACE_BOUND('',#141,.T.);
#78=FACE_BOUND('',#142,.T.);
#79=FACE_BOUND('',#143,.T.);
#80=FACE_BOUND('',#144,.T.);
#81=FACE_BOUND('',#145,.T.);
#82=FACE_BOUND('',#146,.T.);
#83=FACE_BOUND('',#147,.T.);
#84=FACE_BOUND('',#148,.T.);
#85=FACE_BOUND('',#149,.T.);
#86=ADVANCED_FACE('',(#111),#106,.F.);
#87=ADVANCED_FACE('',(#50,#51),#44,.T.);
#88=ADVANCED_FACE('',(#52,#53),#38,.T.);
#89=ADVANCED_FACE('',(#54,#55),#35,.F.);
#90=ADVANCED_FACE('',(#56,#57),#39,.T.);
#91=ADVANCED_FACE('',(#58,#59),#45,.T.);
#92=ADVANCED_FACE('',(#60,#61),#46,.T.);
#93=ADVANCED_FACE('',(#62,#63),#40,.T.);
#94=ADVANCED_FACE('',(#64,#65),#107,.F.);
#95=ADVANCED_FACE('',(#66,#67),#47,.T.);
#96=ADVANCED_FACE('',(#68,#69),#108,.F.);
#97=ADVANCED_FACE('',(#70,#71),#41,.T.);
#98=ADVANCED_FACE('',(#72,#73),#48,.T.);
#99=ADVANCED_FACE('',(#74,#75),#109,.F.);
#100=ADVANCED_FACE('',(#76,#77),#36,.F.);
#101=ADVANCED_FACE('',(#78,#79),#49,.T.);
#102=ADVANCED_FACE('',(#80,#81),#42,.T.);
#103=ADVANCED_FACE('',(#82,#83),#43,.T.);
#104=ADVANCED_FACE('',(#84,#85),#37,.T.);
#105=ADVANCED_FACE('',(#112),#110,.F.);
#106=PLANE('',#247);
#107=PLANE('',#262);
#108=PLANE('',#266);
#109=PLANE('',#272);
#110=PLANE('',#283);
#111=FACE_OUTER_BOUND('',#113,.T.);
#112=FACE_OUTER_BOUND('',#150,.T.);
#113=EDGE_LOOP('',(#151));
#114=EDGE_LOOP('',(#152));
#115=EDGE_LOOP('',(#153));
#116=EDGE_LOOP('',(#154));
#117=EDGE_LOOP('',(#155));
#118=EDGE_LOOP('',(#156));
#119=EDGE_LOOP('',(#157));
#120=EDGE_LOOP('',(#158));
#121=EDGE_LOOP('',(#159));
#122=EDGE_LOOP('',(#160));
#123=EDGE_LOOP('',(#161));
#124=EDGE_LOOP('',(#162));
#125=EDGE_LOOP('',(#163));
#126=EDGE_LOOP('',(#164));
#127=EDGE_LOOP('',(#165));
#128=EDGE_LOOP('',(#166));
#129=EDGE_LOOP('',(#167));
#130=EDGE_LOOP('',(#168));
#131=EDGE_LOOP('',(#169));
#132=EDGE_LOOP('',(#170));
#133=EDGE_LOOP('',(#171));
#134=EDGE_LOOP('',(#172));
#135=EDGE_LOOP('',(#173));
#136=EDGE_LOOP('',(#174));
#137=EDGE_LOOP('',(#175));
#138=EDGE_LOOP('',(#176));
#139=EDGE_LOOP('',(#177));
#140=EDGE_LOOP('',(#178));
#141=EDGE_LOOP('',(#179));
#142=EDGE_LOOP('',(#180));
#143=EDGE_LOOP('',(#181));
#144=EDGE_LOOP('',(#182));
#145=EDGE_LOOP('',(#183));
#146=EDGE_LOOP('',(#184));
#147=EDGE_LOOP('',(#185));
#148=EDGE_LOOP('',(#186));
#149=EDGE_LOOP('',(#187));
#150=EDGE_LOOP('',(#188));
#151=ORIENTED_EDGE('',*,*,#208,.F.);
#152=ORIENTED_EDGE('',*,*,#209,.F.);
#153=ORIENTED_EDGE('',*,*,#208,.T.);
#154=ORIENTED_EDGE('',*,*,#210,.F.);
#155=ORIENTED_EDGE('',*,*,#209,.T.);
#156=ORIENTED_EDGE('',*,*,#211,.F.);
#157=ORIENTED_EDGE('',*,*,#210,.T.);
#158=ORIENTED_EDGE('',*,*,#212,.F.);
#159=ORIENTED_EDGE('',*,*,#211,.T.);
#160=ORIENTED_EDGE('',*,*,#213,.F.);
#161=ORIENTED_EDGE('',*,*,#212,.T.);
#162=ORIENTED_EDGE('',*,*,#214,.F.);
#163=ORIENTED_EDGE('',*,*,#213,.T.);
#164=ORIENTED_EDGE('',*,*,#215,.F.);
#165=ORIENTED_EDGE('',*,*,#214,.T.);
#166=ORIENTED_EDGE('',*,*,#216,.F.);
#167=ORIENTED_EDGE('',*,*,#215,.T.);
#168=ORIENTED_EDGE('',*,*,#217,.F.);
#169=ORIENTED_EDGE('',*,*,#216,.T.);
#170=ORIENTED_EDGE('',*,*,#218,.F.);
#171=ORIENTED_EDGE('',*,*,#217,.T.);
#172=ORIENTED_EDGE('',*,*,#219,.F.);
#173=ORIENTED_EDGE('',*,*,#218,.T.);
#174=ORIENTED_EDGE('',*,*,#220,.F.);
#175=ORIENTED_EDGE('',*,*,#219,.T.);
#176=ORIENTED_EDGE('',*,*,#221,.F.);
#177=ORIENTED_EDGE('',*,*,#220,.T.);
#178=ORIENTED_EDGE('',*,*,#222,.F.);
#179=ORIENTED_EDGE('',*,*,#221,.T.);
#180=ORIENTED_EDGE('',*,*,#223,.F.);
#181=ORIENTED_EDGE('',*,*,#222,.T.);
#182=ORIENTED_EDGE('',*,*,#224,.F.);
#183=ORIENTED_EDGE('',*,*,#223,.T.);
#184=ORIENTED_EDGE('',*,*,#225,.F.);
#185=ORIENTED_EDGE('',*,*,#224,.T.);
#186=ORIENTED_EDGE('',*,*,#226,.F.);
#187=ORIENTED_EDGE('',*,*,#225,.T.);
#188=ORIENTED_EDGE('',*,*,#226,.T.);
#189=VERTEX_POINT('',#364);
#190=VERTEX_POINT('',#367);
#191=VERTEX_POINT('',#370);
#192=VERTEX_POINT('',#373);
#193=VERTEX_POINT('',#376);
#194=VERTEX_POINT('',#396);
#195=VERTEX_POINT('',#399);
#196=VERTEX_POINT('',#402);
#197=VERTEX_POINT('',#405);
#198=VERTEX_POINT('',#408);
#199=VERTEX_POINT('',#411);
#200=VERTEX_POINT('',#414);
#201=VERTEX_POINT('',#417);
#202=VERTEX_POINT('',#420);
#203=VERTEX_POINT('',#423);
#204=VERTEX_POINT('',#426);
#205=VERTEX_POINT('',#429);
#206=VERTEX_POINT('',#432);
#207=VERTEX_POINT('',#435);
#208=EDGE_CURVE('',#189,#189,#227,.T.);
#209=EDGE_CURVE('',#190,#190,#228,.T.);
#210=EDGE_CURVE('',#191,#191,#229,.T.);
#211=EDGE_CURVE('',#192,#192,#230,.T.);
#212=EDGE_CURVE('',#193,#193,#231,.T.);
#213=EDGE_CURVE('',#194,#194,#34,.T.);
#214=EDGE_CURVE('',#195,#195,#232,.T.);
#215=EDGE_CURVE('',#196,#196,#233,.T.);
#216=EDGE_CURVE('',#197,#197,#234,.T.);
#217=EDGE_CURVE('',#198,#198,#235,.T.);
#218=EDGE_CURVE('',#199,#199,#236,.T.);
#219=EDGE_CURVE('',#200,#200,#237,.T.);
#220=EDGE_CURVE('',#201,#201,#238,.T.);
#221=EDGE_CURVE('',#202,#202,#239,.T.);
#222=EDGE_CURVE('',#203,#203,#240,.T.);
#223=EDGE_CURVE('',#204,#204,#241,.T.);
#224=EDGE_CURVE('',#205,#205,#242,.T.);
#225=EDGE_CURVE('',#206,#206,#243,.T.);
#226=EDGE_CURVE('',#207,#207,#244,.T.);
#227=CIRCLE('',#246,4.8);
#228=CIRCLE('',#248,4.8);
#229=CIRCLE('',#250,7.23463669724557);
#230=CIRCLE('',#252,10.8931780222306);
#231=CIRCLE('',#254,22.9900000000001);
#232=CIRCLE('',#257,22.99025);
#233=CIRCLE('',#259,19.480757323931);
#234=CIRCLE('',#261,19.0);
#235=CIRCLE('',#263,19.0);
#236=CIRCLE('',#265,19.480757323931);
#237=CIRCLE('',#267,22.99025);
#238=CIRCLE('',#269,22.99025);
#239=CIRCLE('',#271,16.25);
#240=CIRCLE('',#273,15.65);
#241=CIRCLE('',#275,15.65);
#242=CIRCLE('',#277,15.9332467051706);
#243=CIRCLE('',#279,8.8789967045273);
#244=CIRCLE('',#281,8.38423030848271);
#245=AXIS2_PLACEMENT_3D('',#362,#284,#285);
#246=AXIS2_PLACEMENT_3D('',#363,#286,#287);
#247=AXIS2_PLACEMENT_3D('',#365,#288,#289);
#248=AXIS2_PLACEMENT_3D('',#366,#290,#291);
#249=AXIS2_PLACEMENT_3D('',#368,#292,#293);
#250=AXIS2_PLACEMENT_3D('',#369,#294,#295);
#251=AXIS2_PLACEMENT_3D('',#371,#296,#297);
#252=AXIS2_PLACEMENT_3D('',#372,#298,#299);
#253=AXIS2_PLACEMENT_3D('',#374,#300,#301);
#254=AXIS2_PLACEMENT_3D('',#375,#302,#303);
#255=AXIS2_PLACEMENT_3D('',#377,#304,#305);
#256=AXIS2_PLACEMENT_3D('',#397,#306,#307);
#257=AXIS2_PLACEMENT_3D('',#398,#308,#309);
#258=AXIS2_PLACEMENT_3D('',#400,#310,#311);
#259=AXIS2_PLACEMENT_3D('',#401,#312,#313);
#260=AXIS2_PLACEMENT_3D('',#403,#314,#315);
#261=AXIS2_PLACEMENT_3D('',#404,#316,#317);
#262=AXIS2_PLACEMENT_3D('',#406,#318,#319);
#263=AXIS2_PLACEMENT_3D('',#407,#320,#321);
#264=AXIS2_PLACEMENT_3D('',#409,#322,#323);
#265=AXIS2_PLACEMENT_3D('',#410,#324,#325);
#266=AXIS2_PLACEMENT_3D('',#412,#326,#327);
#267=AXIS2_PLACEMENT_3D('',#413,#328,#329);
#268=AXIS2_PLACEMENT_3D('',#415,#330,#331);
#269=AXIS2_PLACEMENT_3D('',#416,#332,#333);
#270=AXIS2_PLACEMENT_3D('',#418,#334,#335);
#271=AXIS2_PLACEMENT_3D('',#419,#336,#337);
#272=AXIS2_PLACEMENT_3D('',#421,#338,#339);
#273=AXIS2_PLACEMENT_3D('',#422,#340,#341);
#274=AXIS2_PLACEMENT_3D('',#424,#342,#343);
#275=AXIS2_PLACEMENT_3D('',#425,#344,#345);
#276=AXIS2_PLACEMENT_3D('',#427,#346,#347);
#277=AXIS2_PLACEMENT_3D('',#428,#348,#349);
#278=AXIS2_PLACEMENT_3D('',#430,#350,#351);
#279=AXIS2_PLACEMENT_3D('',#431,#352,#353);
#280=AXIS2_PLACEMENT_3D('',#433,#354,#355);
#281=AXIS2_PLACEMENT_3D('',#434,#356,#357);
#282=AXIS2_PLACEMENT_3D('',#436,#358,#359);
#283=AXIS2_PLACEMENT_3D('',#437,#360,#361);
#284=DIRECTION('',(0.0,0.0,1.0));
#285=DIRECTION('',(1.0,0.0,0.0));
#286=DIRECTION('',(0.0,0.0,1.0));
#287=DIRECTION('',(1.0,0.0,0.0));
#288=DIRECTION('',(0.0,0.0,1.0));
#289=DIRECTION('',(1.0,0.0,0.0));
#290=DIRECTION('',(0.0,0.0,1.0));
#291=DIRECTION('',(1.0,0.0,0.0));
#292=DIRECTION('',(0.0,0.0,1.0));
#293=DIRECTION('',(1.0,0.0,0.0));
#294=DIRECTION('',(0.0,0.0,1.0));
#295=DIRECTION('',(1.0,0.0,0.0));
#296=DIRECTION('',(0.0,0.0,1.0));
#297=DIRECTION('',(1.0,0.0,-2.90271466715822E-16));
#298=DIRECTION('',(0.0,0.0,1.0));
#299=DIRECTION('',(1.0,0.0,0.0));
#300=DIRECTION('',(0.0,0.0,1.0));
#301=DIRECTION('',(1.0,0.0,0.0));
#302=DIRECTION('',(0.0,0.0,1.0));
#303=DIRECTION('',(1.0,0.0,0.0));
#304=DIRECTION('',(0.0,0.0,1.0));
#305=DIRECTION('',(1.0,0.0,7.41543975076242E-18));
#306=DIRECTION('',(0.0,0.0,1.0));
#307=DIRECTION('',(1.0,0.0,0.0));
#308=DIRECTION('',(0.0,0.0,1.0));
#309=DIRECTION('',(1.0,0.0,0.0));
#310=DIRECTION('',(0.0,0.0,1.0));
#311=DIRECTION('',(1.0,0.0,0.0));
#312=DIRECTION('',(0.0,0.0,1.0));
#313=DIRECTION('',(1.0,0.0,0.0));
#314=DIRECTION('',(0.0,0.0,-1.0));
#315=DIRECTION('',(-1.0,0.0,2.75384027569448E-17));
#316=DIRECTION('',(0.0,0.0,1.0));
#317=DIRECTION('',(1.0,0.0,0.0));
#318=DIRECTION('',(0.0,0.0,-1.0));
#319=DIRECTION('',(-1.0,0.0,0.0));
#320=DIRECTION('',(0.0,0.0,1.0));
#321=DIRECTION('',(1.0,0.0,0.0));
#322=DIRECTION('',(0.0,0.0,1.0));
#323=DIRECTION('',(1.0,0.0,0.0));
#324=DIRECTION('',(0.0,0.0,1.0));
#325=DIRECTION('',(1.0,0.0,0.0));
#326=DIRECTION('',(0.0,0.0,1.0));
#327=DIRECTION('',(1.0,0.0,0.0));
#328=DIRECTION('',(0.0,0.0,1.0));
#329=DIRECTION('',(1.0,0.0,0.0));
#330=DIRECTION('',(0.0,0.0,1.0));
#331=DIRECTION('',(1.0,0.0,-3.15352069352256E-17));
#332=DIRECTION('',(0.0,0.0,1.0));
#333=DIRECTION('',(1.0,0.0,0.0));
#334=DIRECTION('',(0.0,0.0,1.0));
#335=DIRECTION('',(1.0,0.0,0.0));
#336=DIRECTION('',(0.0,0.0,1.0));
#337=DIRECTION('',(1.0,0.0,0.0));
#338=DIRECTION('',(0.0,0.0,-1.0));
#339=DIRECTION('',(-1.0,0.0,0.0));
#340=DIRECTION('',(0.0,0.0,1.0));
#341=DIRECTION('',(1.0,0.0,0.0));
#342=DIRECTION('',(0.0,0.0,1.0));
#343=DIRECTION('',(1.0,0.0,0.0));
#344=DIRECTION('',(0.0,0.0,1.0));
#345=DIRECTION('',(1.0,0.0,0.0));
#346=DIRECTION('',(0.0,0.0,1.0));
#347=DIRECTION('',(1.0,0.0,0.0));
#348=DIRECTION('',(0.0,0.0,1.0));
#349=DIRECTION('',(1.0,0.0,0.0));
#350=DIRECTION('',(0.0,0.0,1.0));
#351=DIRECTION('',(1.0,0.0,8.77600011049068E-17));
#352=DIRECTION('',(0.0,0.0,1.0));
#353=DIRECTION('',(1.0,0.0,0.0));
#354=DIRECTION('',(0.0,0.0,-1.0));
#355=DIRECTION('',(-1.0,0.0,-4.08164445463555E-16));
#356=DIRECTION('',(0.0,0.0,1.0));
#357=DIRECTION('',(1.0,0.0,0.0));
#358=DIRECTION('',(0.0,0.0,1.0));
#359=DIRECTION('',(1.0,0.0,0.0));
#360=DIRECTION('',(0.0,0.0,-1.0));
#361=DIRECTION('',(-1.0,0.0,0.0));
#362=CARTESIAN_POINT('',(0.0,0.0,0.0));
#363=CARTESIAN_POINT('',(0.0,0.0,-57.0));
#364=CARTESIAN_POINT('',(4.8,0.0,-57.0));
#365=CARTESIAN_POINT('',(0.0,0.0,-57.0));
#366=CARTESIAN_POINT('',(0.0,0.0,-47.0));
#367=CARTESIAN_POINT('',(4.8,0.0,-47.0));
#368=CARTESIAN_POINT('',(0.0,0.0,0.0));
#369=CARTESIAN_POINT('',(0.0,0.0,-29.4377608209417));
#370=CARTESIAN_POINT('',(7.23463669724557,0.0,-29.4377608209417));
#371=CARTESIAN_POINT('',(0.0,0.0,-47.0));
#372=CARTESIAN_POINT('',(0.0,0.0,-25.2947110357302));
#373=CARTESIAN_POINT('',(10.8931780222306,0.0,-25.2947110357302));
#374=CARTESIAN_POINT('',(0.0,0.0,-30.1243401671756));
#375=CARTESIAN_POINT('',(0.0,0.0,-22.0533773558038));
#376=CARTESIAN_POINT('',(22.9900000000001,0.0,-22.0533773558038));
#377=CARTESIAN_POINT('',(0.0,0.0,-25.2947110357302));
#378=CARTESIAN_POINT('',(6.01883337534939,22.99025,-22.0));
#379=CARTESIAN_POINT('',(-6.0188333753494,22.99025,-22.0));
#380=CARTESIAN_POINT('',(-12.0006037816325,20.5125195707155,-22.0));
#381=CARTESIAN_POINT('',(-20.5125195707155,12.0006037816326,-22.0));
#382=CARTESIAN_POINT('',(-22.99025,6.0188333753494,-22.0));
#383=CARTESIAN_POINT('',(-22.99025,-6.0188333753494,-22.0));
#384=CARTESIAN_POINT('',(-20.5125195707155,-12.0006037816326,-22.0));
#385=CARTESIAN_POINT('',(-12.0006037816326,-20.5125195707155,-22.0));
#386=CARTESIAN_POINT('',(-6.0188333753494,-22.99025,-22.0));
#387=CARTESIAN_POINT('',(6.01883337534939,-22.99025,-22.0));
#388=CARTESIAN_POINT('',(12.0006037816326,-20.5125195707155,-22.0));
#389=CARTESIAN_POINT('',(20.5125195707155,-12.0006037816326,-22.0));
#390=CARTESIAN_POINT('',(22.99025,-6.01883337534938,-22.0));
#391=CARTESIAN_POINT('',(22.99025,6.01883337534938,-22.0));
#392=CARTESIAN_POINT('',(20.5125195707155,12.0006037816325,-22.0));
#393=CARTESIAN_POINT('',(12.0006037816326,20.5125195707155,-22.0));
#394=CARTESIAN_POINT('',(6.01883337534939,22.99025,-22.0));
#395=CARTESIAN_POINT('',(-6.0188333753494,22.99025,-22.0));
#396=CARTESIAN_POINT('',(7.03869574831189E-15,22.990125,-22.0));
#397=CARTESIAN_POINT('',(0.0,0.0,0.0));
#398=CARTESIAN_POINT('',(0.0,0.0,-17.616010667241));
#399=CARTESIAN_POINT('',(22.99025,0.0,-17.616010667241));
#400=CARTESIAN_POINT('',(0.0,0.0,0.0));
#401=CARTESIAN_POINT('',(0.0,0.0,-15.6));
#402=CARTESIAN_POINT('',(19.480757323931,0.0,-15.6));
#403=CARTESIAN_POINT('',(0.0,0.0,-17.616010667241));
#404=CARTESIAN_POINT('',(0.0,0.0,-15.6));
#405=CARTESIAN_POINT('',(19.0,0.0,-15.6));
#406=CARTESIAN_POINT('',(0.0,19.480757323931,-15.6));
#407=CARTESIAN_POINT('',(0.0,0.0,-11.6));
#408=CARTESIAN_POINT('',(19.0,0.0,-11.6));
#409=CARTESIAN_POINT('',(0.0,0.0,0.0));
#410=CARTESIAN_POINT('',(0.0,0.0,-11.6));
#411=CARTESIAN_POINT('',(19.480757323931,0.0,-11.6));
#412=CARTESIAN_POINT('',(0.0,19.0,-11.6));
#413=CARTESIAN_POINT('',(0.0,0.0,-9.58398933275902));
#414=CARTESIAN_POINT('',(22.99025,0.0,-9.58398933275902));
#415=CARTESIAN_POINT('',(0.0,0.0,-11.6));
#416=CARTESIAN_POINT('',(0.0,0.0,-2.0));
#417=CARTESIAN_POINT('',(22.99025,0.0,-2.0));
#418=CARTESIAN_POINT('',(0.0,0.0,0.0));
#419=CARTESIAN_POINT('',(0.0,0.0,-2.0));
#420=CARTESIAN_POINT('',(16.25,0.0,-2.0));
#421=CARTESIAN_POINT('',(0.0,22.99025,-2.0));
#422=CARTESIAN_POINT('',(0.0,0.0,-1.4));
#423=CARTESIAN_POINT('',(15.65,0.0,-1.4));
#424=CARTESIAN_POINT('',(0.0,0.0,-1.4));
#425=CARTESIAN_POINT('',(0.0,0.0,-0.889999999999998));
#426=CARTESIAN_POINT('',(15.65,0.0,-0.889999999999998));
#427=CARTESIAN_POINT('',(0.0,0.0,0.0));
#428=CARTESIAN_POINT('',(0.0,0.0,-0.399402315568165));
#429=CARTESIAN_POINT('',(15.9332467051706,0.0,-0.399402315568165));
#430=CARTESIAN_POINT('',(0.0,0.0,-0.889999999999998));
#431=CARTESIAN_POINT('',(0.0,0.0,47.9721540944441));
#432=CARTESIAN_POINT('',(8.8789967045273,0.0,47.9721540944441));
#433=CARTESIAN_POINT('',(0.0,0.0,-0.399402315568165));
#434=CARTESIAN_POINT('',(0.0,0.0,48.4));
#435=CARTESIAN_POINT('',(8.38423030848271,0.0,48.4));
#436=CARTESIAN_POINT('',(0.0,0.0,47.9));
#437=CARTESIAN_POINT('',(0.0,7.25675,48.4));
#438=MECHANICAL_DESIGN_GEOMETRIC_PRESENTATION_REPRESENTATION('',(#24),#439);
#439=(GEOMETRIC_REPRESENTATION_CONTEXT(3)GLOBAL_UNCERTAINTY_ASSIGNED_CONTEXT((#440))
     GLOBAL_UNIT_ASSIGNED_CONTEXT((#446,#442,#441))REPRESENTATION_CONTEXT('392','TOP_LEVEL_ASSEMBLY_PART'));
#440=UNCERTAINTY_MEASURE_WITH_UNIT(LENGTH_MEASURE(0.0508),#446,'DISTANCE_ACCURACY_VALUE',
     'Maximum Tolerance applied to model');
#441=(NAMED_UNIT(*)SI_UNIT($,.STERADIAN.)SOLID_ANGLE_UNIT());
#442=(CONVERSION_BASED_UNIT('DEGREE',#444)NAMED_UNIT(*)PLANE_ANGLE_UNIT());
#443=DIMENSIONAL_EXPONENTS(0.0,0.0,0.0,0.0,0.0,0.0,0.0);
#444=PLANE_ANGLE_MEASURE_WITH_UNIT(PLANE_ANGLE_MEASURE(0.0174532925),#445);
#445=(NAMED_UNIT(*)PLANE_ANGLE_UNIT()SI_UNIT($,.RADIAN.));
#446=(LENGTH_UNIT()NAMED_UNIT(*)SI_UNIT(.MILLI.,.METRE.));
#447=CARTESIAN_POINT('',(0.0,0.0,0.0));
#448=DIRECTION('',(0.0,0.0,1.0));
#449=DIRECTION('',(1.0,0.0,0.0));
#450=AXIS2_PLACEMENT_3D('PCS',#447,#448,#449);
#451=CARTESIAN_POINT('',(0.0,0.0,0.0));
#452=DIRECTION('',(0.0,0.0,1.0));
#453=DIRECTION('',(1.0,0.0,0.0));
#454=AXIS2_PLACEMENT_3D('MCS',#451,#452,#453);
#455=CARTESIAN_POINT('',(0.0,0.0,-57.0));
#456=DIRECTION('',(0.0,0.0,1.0));
#457=DIRECTION('',(1.0,0.0,0.0));
#458=AXIS2_PLACEMENT_3D('CSW',#455,#456,#457);
#459=CONSTRUCTIVE_GEOMETRY_REPRESENTATION('supplemental geometry',(#450,#454,#458),
     #439);
#460=CONSTRUCTIVE_GEOMETRY_REPRESENTATION_RELATIONSHIP('supplemental geometry',$,
     #22,#459);
ENDSEC;
END-ISO-10303-21;
