ISO-10303-21;
HEADER;
FILE_DESCRIPTION(
/* description */ ('3-D model version:1'),
/* implementation_level */ '2;1');
FILE_NAME(
/* name */ '392.410EH-6325059',
/* time_stamp */ '2016-12-02T13:56:25',
/* author */ ('InteractiveCad'),
/* organization */ ('AB Sandvik Coromant'),
/* preprocessor_version */ 'ST-DEVELOPER v11',
/* originating_system */ 'SIEMENS UGS NX 6.0',
/* authorization */ '');
FILE_SCHEMA(('AUTOMOTIVE_DESIGN'));
ENDSEC;
DATA;
#10=SHAPE_REPRESENTATION_RELATIONSHIP('None','relationship between ds680C826cvc-None and ds680C826cvc-None',
     #22,#11);
#11=ADVANCED_BREP_SHAPE_REPRESENTATION('ds680C826cvc-None',(#32),#325);
#12=SHAPE_DEFINITION_REPRESENTATION(#13,#22);
#13=PRODUCT_DEFINITION_SHAPE('','',#14);
#14=PRODUCT_DEFINITION(' ','',#16,#15);
#15=PRODUCT_DEFINITION_CONTEXT('part definition',#21,'design');
#16=PRODUCT_DEFINITION_FORMATION_WITH_SPECIFIED_SOURCE(' ',' ',#18,.NOT_KNOWN.);
#17=PRODUCT_RELATED_PRODUCT_CATEGORY('part','',(#18));
#18=PRODUCT('ds680C826cvc','ds680C826cvc',' ',(#19));
#19=PRODUCT_CONTEXT(' ',#21,'mechanical');
#20=APPLICATION_PROTOCOL_DEFINITION('international standard','automotive_design',
     2001,#21);
#21=APPLICATION_CONTEXT('core data for automotive mechanical design processes');
#22=SHAPE_REPRESENTATION('ds680C826cvc-None',(#190),#325);
#23=PRESENTATION_LAYER_ASSIGNMENT('1','Layer 1',(#32));
#24=STYLED_ITEM('',(#25),#32);
#25=PRESENTATION_STYLE_ASSIGNMENT((#26));
#26=SURFACE_STYLE_USAGE(.BOTH.,#27);
#27=SURFACE_SIDE_STYLE('',(#28));
#28=SURFACE_STYLE_FILL_AREA(#29);
#29=FILL_AREA_STYLE('',(#30));
#30=FILL_AREA_STYLE_COLOUR('',#31);
#31=COLOUR_RGB('Medium Gray',0.490196078431373,0.490196078431373,0.490196078431373);
#32=MANIFOLD_SOLID_BREP('NOCUT',#33);
#33=CLOSED_SHELL('',(#47,#48,#49,#50,#51,#52,#53,#54,#55,#56,#57,#58,#59,#60,#61));
#34=TOROIDAL_SURFACE('',#219,17.05,5.0);
#35=FACE_OUTER_BOUND('',#114,.T.);
#36=FACE_OUTER_BOUND('',#115,.T.);
#37=CYLINDRICAL_SURFACE('',#197,31.47);
#38=CYLINDRICAL_SURFACE('',#203,27.475);
#39=CYLINDRICAL_SURFACE('',#209,31.47);
#40=CYLINDRICAL_SURFACE('',#218,12.05);
#41=PLANE('',#195);
#42=PLANE('',#201);
#43=PLANE('',#205);
#44=PLANE('',#211);
#45=PLANE('',#214);
#46=PLANE('',#216);
#47=ADVANCED_FACE('',(#66,#67),#62,.T.);
#48=ADVANCED_FACE('',(#68,#69),#41,.T.);
#49=ADVANCED_FACE('',(#70,#71),#37,.T.);
#50=ADVANCED_FACE('',(#72,#73),#63,.T.);
#51=ADVANCED_FACE('',(#74,#75),#42,.T.);
#52=ADVANCED_FACE('',(#76,#77),#38,.T.);
#53=ADVANCED_FACE('',(#78,#79),#43,.T.);
#54=ADVANCED_FACE('',(#80,#81),#64,.T.);
#55=ADVANCED_FACE('',(#82,#83),#39,.T.);
#56=ADVANCED_FACE('',(#84,#85),#44,.T.);
#57=ADVANCED_FACE('',(#86,#87),#65,.T.);
#58=ADVANCED_FACE('',(#35),#45,.T.);
#59=ADVANCED_FACE('',(#36),#46,.T.);
#60=ADVANCED_FACE('',(#88,#89),#40,.T.);
#61=ADVANCED_FACE('',(#90,#91),#34,.F.);
#62=CONICAL_SURFACE('',#193,15.7559047744873,75.0);
#63=CONICAL_SURFACE('',#199,31.47,60.0000000000009);
#64=CONICAL_SURFACE('',#207,28.9375471694755,59.9999999999993);
#65=CONICAL_SURFACE('',#213,24.3206312625251,2.86813194068655);
#66=FACE_BOUND('',#92,.T.);
#67=FACE_BOUND('',#93,.T.);
#68=FACE_BOUND('',#94,.T.);
#69=FACE_BOUND('',#95,.T.);
#70=FACE_BOUND('',#96,.T.);
#71=FACE_BOUND('',#97,.T.);
#72=FACE_BOUND('',#98,.T.);
#73=FACE_BOUND('',#99,.T.);
#74=FACE_BOUND('',#100,.T.);
#75=FACE_BOUND('',#101,.T.);
#76=FACE_BOUND('',#102,.T.);
#77=FACE_BOUND('',#103,.T.);
#78=FACE_BOUND('',#104,.T.);
#79=FACE_BOUND('',#105,.T.);
#80=FACE_BOUND('',#106,.T.);
#81=FACE_BOUND('',#107,.T.);
#82=FACE_BOUND('',#108,.T.);
#83=FACE_BOUND('',#109,.T.);
#84=FACE_BOUND('',#110,.T.);
#85=FACE_BOUND('',#111,.T.);
#86=FACE_BOUND('',#112,.T.);
#87=FACE_BOUND('',#113,.T.);
#88=FACE_BOUND('',#116,.T.);
#89=FACE_BOUND('',#117,.T.);
#90=FACE_BOUND('',#118,.T.);
#91=FACE_BOUND('',#119,.T.);
#92=EDGE_LOOP('',(#120));
#93=EDGE_LOOP('',(#121));
#94=EDGE_LOOP('',(#122));
#95=EDGE_LOOP('',(#123));
#96=EDGE_LOOP('',(#124));
#97=EDGE_LOOP('',(#125));
#98=EDGE_LOOP('',(#126));
#99=EDGE_LOOP('',(#127));
#100=EDGE_LOOP('',(#128));
#101=EDGE_LOOP('',(#129));
#102=EDGE_LOOP('',(#130));
#103=EDGE_LOOP('',(#131));
#104=EDGE_LOOP('',(#132));
#105=EDGE_LOOP('',(#133));
#106=EDGE_LOOP('',(#134));
#107=EDGE_LOOP('',(#135));
#108=EDGE_LOOP('',(#136));
#109=EDGE_LOOP('',(#137));
#110=EDGE_LOOP('',(#138));
#111=EDGE_LOOP('',(#139));
#112=EDGE_LOOP('',(#140));
#113=EDGE_LOOP('',(#141));
#114=EDGE_LOOP('',(#142));
#115=EDGE_LOOP('',(#143));
#116=EDGE_LOOP('',(#144));
#117=EDGE_LOOP('',(#145));
#118=EDGE_LOOP('',(#146));
#119=EDGE_LOOP('',(#147));
#120=ORIENTED_EDGE('',*,*,#162,.T.);
#121=ORIENTED_EDGE('',*,*,#163,.F.);
#122=ORIENTED_EDGE('',*,*,#164,.T.);
#123=ORIENTED_EDGE('',*,*,#162,.F.);
#124=ORIENTED_EDGE('',*,*,#165,.T.);
#125=ORIENTED_EDGE('',*,*,#164,.F.);
#126=ORIENTED_EDGE('',*,*,#166,.T.);
#127=ORIENTED_EDGE('',*,*,#165,.F.);
#128=ORIENTED_EDGE('',*,*,#167,.T.);
#129=ORIENTED_EDGE('',*,*,#166,.F.);
#130=ORIENTED_EDGE('',*,*,#168,.T.);
#131=ORIENTED_EDGE('',*,*,#167,.F.);
#132=ORIENTED_EDGE('',*,*,#169,.T.);
#133=ORIENTED_EDGE('',*,*,#168,.F.);
#134=ORIENTED_EDGE('',*,*,#170,.T.);
#135=ORIENTED_EDGE('',*,*,#169,.F.);
#136=ORIENTED_EDGE('',*,*,#171,.T.);
#137=ORIENTED_EDGE('',*,*,#170,.F.);
#138=ORIENTED_EDGE('',*,*,#172,.T.);
#139=ORIENTED_EDGE('',*,*,#171,.F.);
#140=ORIENTED_EDGE('',*,*,#173,.T.);
#141=ORIENTED_EDGE('',*,*,#172,.F.);
#142=ORIENTED_EDGE('',*,*,#173,.F.);
#143=ORIENTED_EDGE('',*,*,#174,.T.);
#144=ORIENTED_EDGE('',*,*,#175,.T.);
#145=ORIENTED_EDGE('',*,*,#174,.F.);
#146=ORIENTED_EDGE('',*,*,#163,.T.);
#147=ORIENTED_EDGE('',*,*,#175,.F.);
#148=VERTEX_POINT('',#282);
#149=VERTEX_POINT('',#284);
#150=VERTEX_POINT('',#287);
#151=VERTEX_POINT('',#290);
#152=VERTEX_POINT('',#293);
#153=VERTEX_POINT('',#296);
#154=VERTEX_POINT('',#299);
#155=VERTEX_POINT('',#302);
#156=VERTEX_POINT('',#305);
#157=VERTEX_POINT('',#308);
#158=VERTEX_POINT('',#311);
#159=VERTEX_POINT('',#314);
#160=VERTEX_POINT('',#318);
#161=VERTEX_POINT('',#321);
#162=EDGE_CURVE('',#148,#148,#176,.T.);
#163=EDGE_CURVE('',#149,#149,#177,.T.);
#164=EDGE_CURVE('',#150,#150,#178,.T.);
#165=EDGE_CURVE('',#151,#151,#179,.T.);
#166=EDGE_CURVE('',#152,#152,#180,.T.);
#167=EDGE_CURVE('',#153,#153,#181,.T.);
#168=EDGE_CURVE('',#154,#154,#182,.T.);
#169=EDGE_CURVE('',#155,#155,#183,.T.);
#170=EDGE_CURVE('',#156,#156,#184,.T.);
#171=EDGE_CURVE('',#157,#157,#185,.T.);
#172=EDGE_CURVE('',#158,#158,#186,.T.);
#173=EDGE_CURVE('',#159,#159,#187,.T.);
#174=EDGE_CURVE('',#160,#160,#188,.T.);
#175=EDGE_CURVE('',#161,#161,#189,.T.);
#176=CIRCLE('',#191,25.9999999999998);
#177=CIRCLE('',#192,15.7559047744873);
#178=CIRCLE('',#194,31.47);
#179=CIRCLE('',#196,31.47);
#180=CIRCLE('',#198,28.9375471694755);
#181=CIRCLE('',#200,27.475);
#182=CIRCLE('',#202,27.475);
#183=CIRCLE('',#204,28.9375471694755);
#184=CIRCLE('',#206,31.47);
#185=CIRCLE('',#208,31.47);
#186=CIRCLE('',#210,24.3206312625251);
#187=CIRCLE('',#212,22.7224348697396);
#188=CIRCLE('',#215,12.05);
#189=CIRCLE('',#217,12.05);
#190=AXIS2_PLACEMENT_3D('',#280,#220,#221);
#191=AXIS2_PLACEMENT_3D('',#281,#222,#223);
#192=AXIS2_PLACEMENT_3D('',#283,#224,#225);
#193=AXIS2_PLACEMENT_3D('',#285,#226,#227);
#194=AXIS2_PLACEMENT_3D('',#286,#228,#229);
#195=AXIS2_PLACEMENT_3D('',#288,#230,#231);
#196=AXIS2_PLACEMENT_3D('',#289,#232,#233);
#197=AXIS2_PLACEMENT_3D('',#291,#234,#235);
#198=AXIS2_PLACEMENT_3D('',#292,#236,#237);
#199=AXIS2_PLACEMENT_3D('',#294,#238,#239);
#200=AXIS2_PLACEMENT_3D('',#295,#240,#241);
#201=AXIS2_PLACEMENT_3D('',#297,#242,#243);
#202=AXIS2_PLACEMENT_3D('',#298,#244,#245);
#203=AXIS2_PLACEMENT_3D('',#300,#246,#247);
#204=AXIS2_PLACEMENT_3D('',#301,#248,#249);
#205=AXIS2_PLACEMENT_3D('',#303,#250,#251);
#206=AXIS2_PLACEMENT_3D('',#304,#252,#253);
#207=AXIS2_PLACEMENT_3D('',#306,#254,#255);
#208=AXIS2_PLACEMENT_3D('',#307,#256,#257);
#209=AXIS2_PLACEMENT_3D('',#309,#258,#259);
#210=AXIS2_PLACEMENT_3D('',#310,#260,#261);
#211=AXIS2_PLACEMENT_3D('',#312,#262,#263);
#212=AXIS2_PLACEMENT_3D('',#313,#264,#265);
#213=AXIS2_PLACEMENT_3D('',#315,#266,#267);
#214=AXIS2_PLACEMENT_3D('',#316,#268,#269);
#215=AXIS2_PLACEMENT_3D('',#317,#270,#271);
#216=AXIS2_PLACEMENT_3D('',#319,#272,#273);
#217=AXIS2_PLACEMENT_3D('',#320,#274,#275);
#218=AXIS2_PLACEMENT_3D('',#322,#276,#277);
#219=AXIS2_PLACEMENT_3D('',#323,#278,#279);
#220=DIRECTION('',(0.0,0.0,1.0));
#221=DIRECTION('',(1.0,0.0,0.0));
#222=DIRECTION('',(0.0,0.0,-1.0));
#223=DIRECTION('',(-1.0,0.0,0.0));
#224=DIRECTION('',(0.0,0.0,-1.0));
#225=DIRECTION('',(-1.0,0.0,0.0));
#226=DIRECTION('',(0.0,0.0,1.0));
#227=DIRECTION('',(1.0,0.0,1.11087274822163E-17));
#228=DIRECTION('',(0.0,0.0,-1.0));
#229=DIRECTION('',(-1.0,0.0,0.0));
#230=DIRECTION('',(0.0,0.0,-1.0));
#231=DIRECTION('',(-1.0,0.0,0.0));
#232=DIRECTION('',(0.0,0.0,-1.0));
#233=DIRECTION('',(-1.0,0.0,0.0));
#234=DIRECTION('',(0.0,0.0,-1.0));
#235=DIRECTION('',(-1.0,0.0,0.0));
#236=DIRECTION('',(0.0,0.0,-1.0));
#237=DIRECTION('',(-1.0,0.0,0.0));
#238=DIRECTION('',(0.0,0.0,-1.0));
#239=DIRECTION('',(-1.0,0.0,-7.86936436942038E-18));
#240=DIRECTION('',(0.0,0.0,-1.0));
#241=DIRECTION('',(-1.0,0.0,0.0));
#242=DIRECTION('',(0.0,0.0,1.0));
#243=DIRECTION('',(1.0,0.0,0.0));
#244=DIRECTION('',(0.0,0.0,-1.0));
#245=DIRECTION('',(-1.0,0.0,0.0));
#246=DIRECTION('',(0.0,0.0,-1.0));
#247=DIRECTION('',(-1.0,0.0,0.0));
#248=DIRECTION('',(0.0,0.0,-1.0));
#249=DIRECTION('',(-1.0,0.0,0.0));
#250=DIRECTION('',(0.0,0.0,-1.0));
#251=DIRECTION('',(-1.0,0.0,0.0));
#252=DIRECTION('',(0.0,0.0,-1.0));
#253=DIRECTION('',(-1.0,0.0,0.0));
#254=DIRECTION('',(0.0,0.0,1.0));
#255=DIRECTION('',(1.0,0.0,-1.97017029818417E-17));
#256=DIRECTION('',(0.0,0.0,-1.0));
#257=DIRECTION('',(-1.0,0.0,0.0));
#258=DIRECTION('',(0.0,0.0,-1.0));
#259=DIRECTION('',(-1.0,0.0,0.0));
#260=DIRECTION('',(0.0,0.0,-1.0));
#261=DIRECTION('',(-1.0,0.0,0.0));
#262=DIRECTION('',(0.0,0.0,1.0));
#263=DIRECTION('',(1.0,0.0,0.0));
#264=DIRECTION('',(0.0,0.0,-1.0));
#265=DIRECTION('',(-1.0,0.0,0.0));
#266=DIRECTION('',(0.0,0.0,-1.0));
#267=DIRECTION('',(-1.0,0.0,0.0));
#268=DIRECTION('',(0.0,0.0,1.0));
#269=DIRECTION('',(1.0,0.0,0.0));
#270=DIRECTION('',(0.0,0.0,-1.0));
#271=DIRECTION('',(-1.0,0.0,0.0));
#272=DIRECTION('',(0.0,0.0,-1.0));
#273=DIRECTION('',(-1.0,0.0,0.0));
#274=DIRECTION('',(0.0,0.0,-1.0));
#275=DIRECTION('',(-1.0,0.0,0.0));
#276=DIRECTION('',(0.0,0.0,-1.0));
#277=DIRECTION('',(-1.0,0.0,0.0));
#278=DIRECTION('',(0.0,0.0,-1.0));
#279=DIRECTION('',(-1.0,0.0,0.0));
#280=CARTESIAN_POINT('',(0.0,0.0,0.0));
#281=CARTESIAN_POINT('',(0.0,1.77635683940025E-15,-25.95));
#282=CARTESIAN_POINT('',(-25.9999999999998,1.77635683940025E-15,-25.95));
#283=CARTESIAN_POINT('',(0.0,1.77635683940025E-15,-28.6948970428636));
#284=CARTESIAN_POINT('',(-15.7559047744873,1.77635683940025E-15,-28.6948970428636));
#285=CARTESIAN_POINT('',(0.0,1.77635683940025E-15,-28.6948970428636));
#286=CARTESIAN_POINT('',(0.0,1.77635683940025E-15,-25.95));
#287=CARTESIAN_POINT('',(-31.47,1.77635683940025E-15,-25.95));
#288=CARTESIAN_POINT('',(0.0,25.9999999999998,-25.95));
#289=CARTESIAN_POINT('',(0.0,1.77635683940025E-15,-21.3746123234133));
#290=CARTESIAN_POINT('',(-31.47,1.77635683940025E-15,-21.3746123234133));
#291=CARTESIAN_POINT('',(0.0,1.77635683940025E-15,31.9));
#292=CARTESIAN_POINT('',(0.0,1.77635683940025E-15,-19.9125));
#293=CARTESIAN_POINT('',(-28.9375471694755,1.77635683940025E-15,-19.9125));
#294=CARTESIAN_POINT('',(0.0,1.77635683940025E-15,-21.3746123234133));
#295=CARTESIAN_POINT('',(0.0,1.77635683940025E-15,-19.9125));
#296=CARTESIAN_POINT('',(-27.475,1.77635683940025E-15,-19.9125));
#297=CARTESIAN_POINT('',(0.0,28.9375471694755,-19.9125));
#298=CARTESIAN_POINT('',(0.0,1.77635683940025E-15,-16.0875));
#299=CARTESIAN_POINT('',(-27.475,1.77635683940025E-15,-16.0875));
#300=CARTESIAN_POINT('',(0.0,1.77635683940025E-15,31.9));
#301=CARTESIAN_POINT('',(0.0,1.77635683940025E-15,-16.0875));
#302=CARTESIAN_POINT('',(-28.9375471694755,1.77635683940025E-15,-16.0875));
#303=CARTESIAN_POINT('',(0.0,27.475,-16.0875));
#304=CARTESIAN_POINT('',(0.0,1.77635683940025E-15,-14.6253876765866));
#305=CARTESIAN_POINT('',(-31.47,1.77635683940025E-15,-14.6253876765866));
#306=CARTESIAN_POINT('',(0.0,1.77635683940025E-15,-16.0875));
#307=CARTESIAN_POINT('',(0.0,1.77635683940025E-15,0.0));
#308=CARTESIAN_POINT('',(-31.47,1.77635683940025E-15,0.0));
#309=CARTESIAN_POINT('',(0.0,1.77635683940025E-15,31.9));
#310=CARTESIAN_POINT('',(0.0,1.77635683940025E-15,0.0));
#311=CARTESIAN_POINT('',(-24.3206312625251,1.77635683940025E-15,0.0));
#312=CARTESIAN_POINT('',(0.0,31.47,4.44089209850063E-16));
#313=CARTESIAN_POINT('',(0.0,1.77635683940025E-15,31.8999999999999));
#314=CARTESIAN_POINT('',(-22.7224348697396,1.77635683940025E-15,31.8999999999999));
#315=CARTESIAN_POINT('',(0.0,1.77635683940025E-15,0.0));
#316=CARTESIAN_POINT('',(0.0,17.025,31.9));
#317=CARTESIAN_POINT('',(0.0,1.77635683940025E-15,-59.0));
#318=CARTESIAN_POINT('',(-12.05,1.77635683940025E-15,-59.0));
#319=CARTESIAN_POINT('',(0.0,1.77635683940025E-15,-59.0));
#320=CARTESIAN_POINT('',(0.0,1.77635683940025E-15,-33.5245261743089));
#321=CARTESIAN_POINT('',(-12.05,1.77635683940025E-15,-33.5245261743089));
#322=CARTESIAN_POINT('',(0.0,1.77635683940025E-15,31.9));
#323=CARTESIAN_POINT('',(0.0,3.46944695195361E-15,-33.5245261743089));
#324=MECHANICAL_DESIGN_GEOMETRIC_PRESENTATION_REPRESENTATION('',(#24),#325);
#325=(GEOMETRIC_REPRESENTATION_CONTEXT(3)GLOBAL_UNCERTAINTY_ASSIGNED_CONTEXT((#326))
     GLOBAL_UNIT_ASSIGNED_CONTEXT((#332,#328,#327))REPRESENTATION_CONTEXT('392','TOP_LEVEL_ASSEMBLY_PART'));
#326=UNCERTAINTY_MEASURE_WITH_UNIT(LENGTH_MEASURE(2.0E-5),#332,'DISTANCE_ACCURACY_VALUE',
     'Maximum Tolerance applied to model');
#327=(NAMED_UNIT(*)SI_UNIT($,.STERADIAN.)SOLID_ANGLE_UNIT());
#328=(CONVERSION_BASED_UNIT('DEGREE',#330)NAMED_UNIT(*)PLANE_ANGLE_UNIT());
#329=DIMENSIONAL_EXPONENTS(0.0,0.0,0.0,0.0,0.0,0.0,0.0);
#330=PLANE_ANGLE_MEASURE_WITH_UNIT(PLANE_ANGLE_MEASURE(0.0174532925),#331);
#331=(NAMED_UNIT(*)PLANE_ANGLE_UNIT()SI_UNIT($,.RADIAN.));
#332=(LENGTH_UNIT()NAMED_UNIT(*)SI_UNIT(.MILLI.,.METRE.));
#333=CARTESIAN_POINT('',(0.0,0.0,0.0));
#334=DIRECTION('',(0.0,0.0,1.0));
#335=DIRECTION('',(1.0,0.0,0.0));
#336=AXIS2_PLACEMENT_3D('PCS',#333,#334,#335);
#337=CARTESIAN_POINT('',(0.0,0.0,0.0));
#338=DIRECTION('',(0.0,0.0,1.0));
#339=DIRECTION('',(1.0,0.0,0.0));
#340=AXIS2_PLACEMENT_3D('MCS',#337,#338,#339);
#341=CARTESIAN_POINT('',(0.0,0.0,-59.0));
#342=DIRECTION('',(0.0,0.0,1.0));
#343=DIRECTION('',(1.0,0.0,0.0));
#344=AXIS2_PLACEMENT_3D('CSW',#341,#342,#343);
#345=CONSTRUCTIVE_GEOMETRY_REPRESENTATION('supplemental geometry',(#336,#340,#344),
     #325);
#346=CONSTRUCTIVE_GEOMETRY_REPRESENTATION_RELATIONSHIP('supplemental geometry',$,
     #22,#345);
ENDSEC;
END-ISO-10303-21;
