ISO-10303-21;
HEADER;
FILE_DESCRIPTION(
/* description */ ('3-D model version:1'),
/* implementation_level */ '2;1');
FILE_NAME(
/* name */ '392.140EH-4020084',
/* time_stamp */ '2016-12-02T13:57:16',
/* author */ ('InteractiveCad'),
/* organization */ ('AB Sandvik Coromant'),
/* preprocessor_version */ 'ST-DEVELOPER v11',
/* originating_system */ 'SIEMENS UGS NX 6.0',
/* authorization */ '');
FILE_SCHEMA(('AUTOMOTIVE_DESIGN'));
ENDSEC;
DATA;
#10=SHAPE_REPRESENTATION_RELATIONSHIP('None','relationship between ds66C9944o8f-None and ds66C9944o8f-None',
     #22,#11);
#11=ADVANCED_BREP_SHAPE_REPRESENTATION('ds66C9944o8f-None',(#32),#439);
#12=SHAPE_DEFINITION_REPRESENTATION(#13,#22);
#13=PRODUCT_DEFINITION_SHAPE('','',#14);
#14=PRODUCT_DEFINITION(' ','',#16,#15);
#15=PRODUCT_DEFINITION_CONTEXT('part definition',#21,'design');
#16=PRODUCT_DEFINITION_FORMATION_WITH_SPECIFIED_SOURCE(' ',' ',#18,.NOT_KNOWN.);
#17=PRODUCT_RELATED_PRODUCT_CATEGORY('part','',(#18));
#18=PRODUCT('ds66C9944o8f','ds66C9944o8f',' ',(#19));
#19=PRODUCT_CONTEXT(' ',#21,'mechanical');
#20=APPLICATION_PROTOCOL_DEFINITION('international standard','automotive_design',
     2001,#21);
#21=APPLICATION_CONTEXT('core data for automotive mechanical design processes');
#22=SHAPE_REPRESENTATION('ds66C9944o8f-None',(#245),#439);
#23=PRESENTATION_LAYER_ASSIGNMENT('1','Layer 1',(#32));
#24=STYLED_ITEM('',(#25),#32);
#25=PRESENTATION_STYLE_ASSIGNMENT((#26));
#26=SURFACE_STYLE_USAGE(.BOTH.,#27);
#27=SURFACE_SIDE_STYLE('',(#28));
#28=SURFACE_STYLE_FILL_AREA(#29);
#29=FILL_AREA_STYLE('',(#30));
#30=FILL_AREA_STYLE_COLOUR('',#31);
#31=COLOUR_RGB('Medium Gray',0.490196078431373,0.490196078431373,0.490196078431373);
#32=MANIFOLD_SOLID_BREP('NOCUT',#33);
#33=CLOSED_SHELL('',(#52,#53,#54,#55,#56,#57,#58,#59,#60,#61,#62,#63,#64,#65,#66,
     #67,#68,#69,#70,#71));
#34=B_SPLINE_CURVE_WITH_KNOTS('',3,(#417,#418,#419,#420,#421,#422,#423,#424,#425,
     #426,#427,#428,#429,#430,#431,#432,#433,#434),.UNSPECIFIED.,.T.,.F.,(2,2,2,
     2,2,2,2,2,2,2,2),(-0.125,0.0,0.125,0.25,0.375,0.5,0.625,0.75,0.875,1.0,1.125),
     .UNSPECIFIED.);
#35=FACE_OUTER_BOUND('',#139,.T.);
#36=FACE_OUTER_BOUND('',#140,.T.);
#37=TOROIDAL_SURFACE('',#264,22.6,0.6);
#38=TOROIDAL_SURFACE('',#272,11.4070404656526,1.0);
#39=TOROIDAL_SURFACE('',#281,19.9495165039779,5.0);
#40=PLANE('',#252);
#41=PLANE('',#256);
#42=PLANE('',#262);
#43=PLANE('',#273);
#44=PLANE('',#275);
#45=PLANE('',#283);
#46=CONICAL_SURFACE('',#250,31.75,60.0000000000009);
#47=CONICAL_SURFACE('',#258,28.9625471694755,59.9999999999998);
#48=CONICAL_SURFACE('',#268,22.0,29.9999999999988);
#49=CONICAL_SURFACE('',#270,22.3285365033933,8.29722000000014);
#50=CONICAL_SURFACE('',#279,9.6,7.85559964593204);
#51=CONICAL_SURFACE('',#282,18.6554212784653,75.0);
#52=ADVANCED_FACE('',(#77,#78),#72,.T.);
#53=ADVANCED_FACE('',(#79,#80),#46,.T.);
#54=ADVANCED_FACE('',(#81,#82),#40,.F.);
#55=ADVANCED_FACE('',(#83,#84),#73,.T.);
#56=ADVANCED_FACE('',(#85,#86),#41,.F.);
#57=ADVANCED_FACE('',(#87,#88),#47,.T.);
#58=ADVANCED_FACE('',(#89,#90),#74,.T.);
#59=ADVANCED_FACE('',(#91,#92),#42,.F.);
#60=ADVANCED_FACE('',(#93,#94),#37,.F.);
#61=ADVANCED_FACE('',(#95,#96),#75,.T.);
#62=ADVANCED_FACE('',(#97,#98),#48,.T.);
#63=ADVANCED_FACE('',(#99,#100),#49,.T.);
#64=ADVANCED_FACE('',(#101,#102),#38,.T.);
#65=ADVANCED_FACE('',(#35),#43,.F.);
#66=ADVANCED_FACE('',(#36),#44,.F.);
#67=ADVANCED_FACE('',(#103,#104),#76,.T.);
#68=ADVANCED_FACE('',(#105,#106),#50,.T.);
#69=ADVANCED_FACE('',(#107,#108),#39,.F.);
#70=ADVANCED_FACE('',(#109,#110),#51,.T.);
#71=ADVANCED_FACE('',(#111,#112),#45,.F.);
#72=CYLINDRICAL_SURFACE('',#248,31.75);
#73=CYLINDRICAL_SURFACE('',#254,28.0);
#74=CYLINDRICAL_SURFACE('',#260,31.75);
#75=CYLINDRICAL_SURFACE('',#266,22.0);
#76=CYLINDRICAL_SURFACE('',#277,9.6);
#77=FACE_BOUND('',#113,.T.);
#78=FACE_BOUND('',#114,.T.);
#79=FACE_BOUND('',#115,.T.);
#80=FACE_BOUND('',#116,.T.);
#81=FACE_BOUND('',#117,.T.);
#82=FACE_BOUND('',#118,.T.);
#83=FACE_BOUND('',#119,.T.);
#84=FACE_BOUND('',#120,.T.);
#85=FACE_BOUND('',#121,.T.);
#86=FACE_BOUND('',#122,.T.);
#87=FACE_BOUND('',#123,.T.);
#88=FACE_BOUND('',#124,.T.);
#89=FACE_BOUND('',#125,.T.);
#90=FACE_BOUND('',#126,.T.);
#91=FACE_BOUND('',#127,.T.);
#92=FACE_BOUND('',#128,.T.);
#93=FACE_BOUND('',#129,.T.);
#94=FACE_BOUND('',#130,.T.);
#95=FACE_BOUND('',#131,.T.);
#96=FACE_BOUND('',#132,.T.);
#97=FACE_BOUND('',#133,.T.);
#98=FACE_BOUND('',#134,.T.);
#99=FACE_BOUND('',#135,.T.);
#100=FACE_BOUND('',#136,.T.);
#101=FACE_BOUND('',#137,.T.);
#102=FACE_BOUND('',#138,.T.);
#103=FACE_BOUND('',#141,.T.);
#104=FACE_BOUND('',#142,.T.);
#105=FACE_BOUND('',#143,.T.);
#106=FACE_BOUND('',#144,.T.);
#107=FACE_BOUND('',#145,.T.);
#108=FACE_BOUND('',#146,.T.);
#109=FACE_BOUND('',#147,.T.);
#110=FACE_BOUND('',#148,.T.);
#111=FACE_BOUND('',#149,.T.);
#112=FACE_BOUND('',#150,.T.);
#113=EDGE_LOOP('',(#151));
#114=EDGE_LOOP('',(#152));
#115=EDGE_LOOP('',(#153));
#116=EDGE_LOOP('',(#154));
#117=EDGE_LOOP('',(#155));
#118=EDGE_LOOP('',(#156));
#119=EDGE_LOOP('',(#157));
#120=EDGE_LOOP('',(#158));
#121=EDGE_LOOP('',(#159));
#122=EDGE_LOOP('',(#160));
#123=EDGE_LOOP('',(#161));
#124=EDGE_LOOP('',(#162));
#125=EDGE_LOOP('',(#163));
#126=EDGE_LOOP('',(#164));
#127=EDGE_LOOP('',(#165));
#128=EDGE_LOOP('',(#166));
#129=EDGE_LOOP('',(#167));
#130=EDGE_LOOP('',(#168));
#131=EDGE_LOOP('',(#169));
#132=EDGE_LOOP('',(#170));
#133=EDGE_LOOP('',(#171));
#134=EDGE_LOOP('',(#172));
#135=EDGE_LOOP('',(#173));
#136=EDGE_LOOP('',(#174));
#137=EDGE_LOOP('',(#175));
#138=EDGE_LOOP('',(#176));
#139=EDGE_LOOP('',(#177));
#140=EDGE_LOOP('',(#178));
#141=EDGE_LOOP('',(#179));
#142=EDGE_LOOP('',(#180));
#143=EDGE_LOOP('',(#181));
#144=EDGE_LOOP('',(#182));
#145=EDGE_LOOP('',(#183));
#146=EDGE_LOOP('',(#184));
#147=EDGE_LOOP('',(#185));
#148=EDGE_LOOP('',(#186));
#149=EDGE_LOOP('',(#187));
#150=EDGE_LOOP('',(#188));
#151=ORIENTED_EDGE('',*,*,#208,.F.);
#152=ORIENTED_EDGE('',*,*,#209,.T.);
#153=ORIENTED_EDGE('',*,*,#210,.F.);
#154=ORIENTED_EDGE('',*,*,#208,.T.);
#155=ORIENTED_EDGE('',*,*,#211,.F.);
#156=ORIENTED_EDGE('',*,*,#210,.T.);
#157=ORIENTED_EDGE('',*,*,#212,.F.);
#158=ORIENTED_EDGE('',*,*,#211,.T.);
#159=ORIENTED_EDGE('',*,*,#213,.F.);
#160=ORIENTED_EDGE('',*,*,#212,.T.);
#161=ORIENTED_EDGE('',*,*,#214,.F.);
#162=ORIENTED_EDGE('',*,*,#213,.T.);
#163=ORIENTED_EDGE('',*,*,#215,.F.);
#164=ORIENTED_EDGE('',*,*,#214,.T.);
#165=ORIENTED_EDGE('',*,*,#216,.F.);
#166=ORIENTED_EDGE('',*,*,#215,.T.);
#167=ORIENTED_EDGE('',*,*,#217,.F.);
#168=ORIENTED_EDGE('',*,*,#216,.T.);
#169=ORIENTED_EDGE('',*,*,#218,.F.);
#170=ORIENTED_EDGE('',*,*,#217,.T.);
#171=ORIENTED_EDGE('',*,*,#219,.F.);
#172=ORIENTED_EDGE('',*,*,#218,.T.);
#173=ORIENTED_EDGE('',*,*,#220,.F.);
#174=ORIENTED_EDGE('',*,*,#219,.T.);
#175=ORIENTED_EDGE('',*,*,#221,.F.);
#176=ORIENTED_EDGE('',*,*,#220,.T.);
#177=ORIENTED_EDGE('',*,*,#221,.T.);
#178=ORIENTED_EDGE('',*,*,#222,.F.);
#179=ORIENTED_EDGE('',*,*,#223,.F.);
#180=ORIENTED_EDGE('',*,*,#222,.T.);
#181=ORIENTED_EDGE('',*,*,#224,.F.);
#182=ORIENTED_EDGE('',*,*,#223,.T.);
#183=ORIENTED_EDGE('',*,*,#225,.F.);
#184=ORIENTED_EDGE('',*,*,#224,.T.);
#185=ORIENTED_EDGE('',*,*,#226,.F.);
#186=ORIENTED_EDGE('',*,*,#225,.T.);
#187=ORIENTED_EDGE('',*,*,#209,.F.);
#188=ORIENTED_EDGE('',*,*,#226,.T.);
#189=VERTEX_POINT('',#364);
#190=VERTEX_POINT('',#366);
#191=VERTEX_POINT('',#369);
#192=VERTEX_POINT('',#372);
#193=VERTEX_POINT('',#375);
#194=VERTEX_POINT('',#378);
#195=VERTEX_POINT('',#381);
#196=VERTEX_POINT('',#384);
#197=VERTEX_POINT('',#387);
#198=VERTEX_POINT('',#390);
#199=VERTEX_POINT('',#393);
#200=VERTEX_POINT('',#396);
#201=VERTEX_POINT('',#399);
#202=VERTEX_POINT('',#402);
#203=VERTEX_POINT('',#406);
#204=VERTEX_POINT('',#409);
#205=VERTEX_POINT('',#412);
#206=VERTEX_POINT('',#415);
#207=VERTEX_POINT('',#435);
#208=EDGE_CURVE('',#189,#189,#227,.T.);
#209=EDGE_CURVE('',#190,#190,#228,.T.);
#210=EDGE_CURVE('',#191,#191,#229,.T.);
#211=EDGE_CURVE('',#192,#192,#230,.T.);
#212=EDGE_CURVE('',#193,#193,#231,.T.);
#213=EDGE_CURVE('',#194,#194,#232,.T.);
#214=EDGE_CURVE('',#195,#195,#233,.T.);
#215=EDGE_CURVE('',#196,#196,#234,.T.);
#216=EDGE_CURVE('',#197,#197,#235,.T.);
#217=EDGE_CURVE('',#198,#198,#236,.T.);
#218=EDGE_CURVE('',#199,#199,#237,.T.);
#219=EDGE_CURVE('',#200,#200,#238,.T.);
#220=EDGE_CURVE('',#201,#201,#239,.T.);
#221=EDGE_CURVE('',#202,#202,#240,.T.);
#222=EDGE_CURVE('',#203,#203,#241,.T.);
#223=EDGE_CURVE('',#204,#204,#242,.T.);
#224=EDGE_CURVE('',#205,#205,#243,.T.);
#225=EDGE_CURVE('',#206,#206,#244,.T.);
#226=EDGE_CURVE('',#207,#207,#34,.T.);
#227=CIRCLE('',#246,31.75);
#228=CIRCLE('',#247,31.75);
#229=CIRCLE('',#249,28.9625471694754);
#230=CIRCLE('',#251,28.0);
#231=CIRCLE('',#253,28.0);
#232=CIRCLE('',#255,28.9625471694755);
#233=CIRCLE('',#257,31.75);
#234=CIRCLE('',#259,31.75);
#235=CIRCLE('',#261,22.6);
#236=CIRCLE('',#263,22.0);
#237=CIRCLE('',#265,22.0);
#238=CIRCLE('',#267,22.3285365033933);
#239=CIRCLE('',#269,12.3965732577418);
#240=CIRCLE('',#271,11.4070404656526);
#241=CIRCLE('',#274,9.6);
#242=CIRCLE('',#276,9.6);
#243=CIRCLE('',#278,14.9964381237545);
#244=CIRCLE('',#280,18.6554212784654);
#245=AXIS2_PLACEMENT_3D('',#362,#284,#285);
#246=AXIS2_PLACEMENT_3D('',#363,#286,#287);
#247=AXIS2_PLACEMENT_3D('',#365,#288,#289);
#248=AXIS2_PLACEMENT_3D('',#367,#290,#291);
#249=AXIS2_PLACEMENT_3D('',#368,#292,#293);
#250=AXIS2_PLACEMENT_3D('',#370,#294,#295);
#251=AXIS2_PLACEMENT_3D('',#371,#296,#297);
#252=AXIS2_PLACEMENT_3D('',#373,#298,#299);
#253=AXIS2_PLACEMENT_3D('',#374,#300,#301);
#254=AXIS2_PLACEMENT_3D('',#376,#302,#303);
#255=AXIS2_PLACEMENT_3D('',#377,#304,#305);
#256=AXIS2_PLACEMENT_3D('',#379,#306,#307);
#257=AXIS2_PLACEMENT_3D('',#380,#308,#309);
#258=AXIS2_PLACEMENT_3D('',#382,#310,#311);
#259=AXIS2_PLACEMENT_3D('',#383,#312,#313);
#260=AXIS2_PLACEMENT_3D('',#385,#314,#315);
#261=AXIS2_PLACEMENT_3D('',#386,#316,#317);
#262=AXIS2_PLACEMENT_3D('',#388,#318,#319);
#263=AXIS2_PLACEMENT_3D('',#389,#320,#321);
#264=AXIS2_PLACEMENT_3D('',#391,#322,#323);
#265=AXIS2_PLACEMENT_3D('',#392,#324,#325);
#266=AXIS2_PLACEMENT_3D('',#394,#326,#327);
#267=AXIS2_PLACEMENT_3D('',#395,#328,#329);
#268=AXIS2_PLACEMENT_3D('',#397,#330,#331);
#269=AXIS2_PLACEMENT_3D('',#398,#332,#333);
#270=AXIS2_PLACEMENT_3D('',#400,#334,#335);
#271=AXIS2_PLACEMENT_3D('',#401,#336,#337);
#272=AXIS2_PLACEMENT_3D('',#403,#338,#339);
#273=AXIS2_PLACEMENT_3D('',#404,#340,#341);
#274=AXIS2_PLACEMENT_3D('',#405,#342,#343);
#275=AXIS2_PLACEMENT_3D('',#407,#344,#345);
#276=AXIS2_PLACEMENT_3D('',#408,#346,#347);
#277=AXIS2_PLACEMENT_3D('',#410,#348,#349);
#278=AXIS2_PLACEMENT_3D('',#411,#350,#351);
#279=AXIS2_PLACEMENT_3D('',#413,#352,#353);
#280=AXIS2_PLACEMENT_3D('',#414,#354,#355);
#281=AXIS2_PLACEMENT_3D('',#416,#356,#357);
#282=AXIS2_PLACEMENT_3D('',#436,#358,#359);
#283=AXIS2_PLACEMENT_3D('',#437,#360,#361);
#284=DIRECTION('',(0.0,0.0,1.0));
#285=DIRECTION('',(1.0,0.0,0.0));
#286=DIRECTION('',(0.0,0.0,1.0));
#287=DIRECTION('',(1.0,0.0,0.0));
#288=DIRECTION('',(0.0,0.0,1.0));
#289=DIRECTION('',(1.0,0.0,0.0));
#290=DIRECTION('',(0.0,0.0,1.0));
#291=DIRECTION('',(1.0,0.0,0.0));
#292=DIRECTION('',(0.0,0.0,1.0));
#293=DIRECTION('',(1.0,0.0,0.0));
#294=DIRECTION('',(0.0,0.0,-1.0));
#295=DIRECTION('',(-1.0,0.0,-2.36043453686967E-17));
#296=DIRECTION('',(0.0,0.0,1.0));
#297=DIRECTION('',(1.0,0.0,0.0));
#298=DIRECTION('',(0.0,0.0,-1.0));
#299=DIRECTION('',(-1.0,0.0,0.0));
#300=DIRECTION('',(0.0,0.0,1.0));
#301=DIRECTION('',(1.0,0.0,0.0));
#302=DIRECTION('',(0.0,0.0,1.0));
#303=DIRECTION('',(1.0,0.0,0.0));
#304=DIRECTION('',(0.0,0.0,1.0));
#305=DIRECTION('',(1.0,0.0,0.0));
#306=DIRECTION('',(0.0,0.0,1.0));
#307=DIRECTION('',(1.0,0.0,0.0));
#308=DIRECTION('',(0.0,0.0,1.0));
#309=DIRECTION('',(1.0,0.0,0.0));
#310=DIRECTION('',(0.0,0.0,1.0));
#311=DIRECTION('',(1.0,0.0,-7.88056931565775E-18));
#312=DIRECTION('',(0.0,0.0,1.0));
#313=DIRECTION('',(1.0,0.0,0.0));
#314=DIRECTION('',(0.0,0.0,1.0));
#315=DIRECTION('',(1.0,0.0,0.0));
#316=DIRECTION('',(0.0,0.0,1.0));
#317=DIRECTION('',(1.0,0.0,0.0));
#318=DIRECTION('',(0.0,0.0,-1.0));
#319=DIRECTION('',(-1.0,0.0,0.0));
#320=DIRECTION('',(0.0,0.0,1.0));
#321=DIRECTION('',(1.0,0.0,0.0));
#322=DIRECTION('',(0.0,0.0,1.0));
#323=DIRECTION('',(1.0,0.0,0.0));
#324=DIRECTION('',(0.0,0.0,1.0));
#325=DIRECTION('',(1.0,0.0,0.0));
#326=DIRECTION('',(0.0,0.0,1.0));
#327=DIRECTION('',(1.0,0.0,0.0));
#328=DIRECTION('',(0.0,0.0,1.0));
#329=DIRECTION('',(1.0,0.0,0.0));
#330=DIRECTION('',(0.0,0.0,1.0));
#331=DIRECTION('',(1.0,0.0,-4.63094404765316E-17));
#332=DIRECTION('',(0.0,0.0,1.0));
#333=DIRECTION('',(1.0,0.0,0.0));
#334=DIRECTION('',(0.0,0.0,-1.0));
#335=DIRECTION('',(-1.0,0.0,-1.65051416870811E-16));
#336=DIRECTION('',(0.0,0.0,1.0));
#337=DIRECTION('',(1.0,0.0,0.0));
#338=DIRECTION('',(0.0,0.0,1.0));
#339=DIRECTION('',(1.0,0.0,0.0));
#340=DIRECTION('',(0.0,0.0,-1.0));
#341=DIRECTION('',(-1.0,0.0,0.0));
#342=DIRECTION('',(0.0,0.0,1.0));
#343=DIRECTION('',(1.0,0.0,0.0));
#344=DIRECTION('',(0.0,0.0,1.0));
#345=DIRECTION('',(1.0,0.0,0.0));
#346=DIRECTION('',(0.0,0.0,1.0));
#347=DIRECTION('',(1.0,0.0,0.0));
#348=DIRECTION('',(0.0,0.0,1.0));
#349=DIRECTION('',(1.0,0.0,0.0));
#350=DIRECTION('',(0.0,0.0,1.0));
#351=DIRECTION('',(1.0,0.0,0.0));
#352=DIRECTION('',(0.0,0.0,1.0));
#353=DIRECTION('',(1.0,0.0,0.0));
#354=DIRECTION('',(0.0,0.0,1.0));
#355=DIRECTION('',(1.0,0.0,0.0));
#356=DIRECTION('',(0.0,0.0,1.0));
#357=DIRECTION('',(1.0,0.0,0.0));
#358=DIRECTION('',(0.0,0.0,1.0));
#359=DIRECTION('',(1.0,0.0,3.7000465941795E-18));
#360=DIRECTION('',(0.0,0.0,1.0));
#361=DIRECTION('',(1.0,0.0,0.0));
#362=CARTESIAN_POINT('',(0.0,0.0,0.0));
#363=CARTESIAN_POINT('',(0.0,0.0,-14.6218366420567));
#364=CARTESIAN_POINT('',(31.75,0.0,-14.6218366420567));
#365=CARTESIAN_POINT('',(0.0,0.0,-19.05));
#366=CARTESIAN_POINT('',(31.75,0.0,-19.05));
#367=CARTESIAN_POINT('',(0.0,0.0,-84.01));
#368=CARTESIAN_POINT('',(0.0,0.0,-13.0125));
#369=CARTESIAN_POINT('',(28.9625471694754,0.0,-13.0125));
#370=CARTESIAN_POINT('',(0.0,0.0,-14.6218366420567));
#371=CARTESIAN_POINT('',(0.0,0.0,-13.0125));
#372=CARTESIAN_POINT('',(28.0,0.0,-13.0125));
#373=CARTESIAN_POINT('',(0.0,-28.9625471694754,-13.0125));
#374=CARTESIAN_POINT('',(0.0,0.0,-9.1875));
#375=CARTESIAN_POINT('',(28.0,0.0,-9.1875));
#376=CARTESIAN_POINT('',(0.0,0.0,-84.01));
#377=CARTESIAN_POINT('',(0.0,0.0,-9.1875));
#378=CARTESIAN_POINT('',(28.9625471694755,0.0,-9.1875));
#379=CARTESIAN_POINT('',(0.0,-28.0,-9.1875));
#380=CARTESIAN_POINT('',(0.0,0.0,-7.57816335794328));
#381=CARTESIAN_POINT('',(31.75,0.0,-7.57816335794328));
#382=CARTESIAN_POINT('',(0.0,0.0,-9.1875));
#383=CARTESIAN_POINT('',(0.0,0.0,-3.20000000000001));
#384=CARTESIAN_POINT('',(31.75,0.0,-3.20000000000001));
#385=CARTESIAN_POINT('',(0.0,0.0,-84.01));
#386=CARTESIAN_POINT('',(0.0,0.0,-3.19999999999999));
#387=CARTESIAN_POINT('',(22.6,0.0,-3.19999999999999));
#388=CARTESIAN_POINT('',(0.0,-31.75,-3.2));
#389=CARTESIAN_POINT('',(0.0,0.0,-2.60000000000001));
#390=CARTESIAN_POINT('',(22.0,0.0,-2.60000000000001));
#391=CARTESIAN_POINT('',(0.0,0.0,-2.6));
#392=CARTESIAN_POINT('',(0.0,0.0,-1.279));
#393=CARTESIAN_POINT('',(22.0,0.0,-1.279));
#394=CARTESIAN_POINT('',(0.0,0.0,-84.01));
#395=CARTESIAN_POINT('',(0.0,0.0,-0.709958083981749));
#396=CARTESIAN_POINT('',(22.3285365033933,0.0,-0.709958083981749));
#397=CARTESIAN_POINT('',(0.0,0.0,-1.279));
#398=CARTESIAN_POINT('',(0.0,0.0,67.3943081888882));
#399=CARTESIAN_POINT('',(12.3965732577418,0.0,67.3943081888882));
#400=CARTESIAN_POINT('',(0.0,0.0,-0.709958083981749));
#401=CARTESIAN_POINT('',(0.0,0.0,68.25));
#402=CARTESIAN_POINT('',(11.4070404656526,0.0,68.25));
#403=CARTESIAN_POINT('',(0.0,0.0,67.25));
#404=CARTESIAN_POINT('',(0.0,-10.0045,68.25));
#405=CARTESIAN_POINT('',(0.0,0.0,-84.01));
#406=CARTESIAN_POINT('',(9.6,0.0,-84.01));
#407=CARTESIAN_POINT('',(0.0,0.0,-84.01));
#408=CARTESIAN_POINT('',(0.0,0.0,-64.01));
#409=CARTESIAN_POINT('',(9.6,0.0,-64.01));
#410=CARTESIAN_POINT('',(0.0,0.0,-84.01));
#411=CARTESIAN_POINT('',(0.0,0.0,-24.8973544534718));
#412=CARTESIAN_POINT('',(14.9964381237545,0.0,-24.8973544534718));
#413=CARTESIAN_POINT('',(0.0,0.0,-64.01));
#414=CARTESIAN_POINT('',(0.0,0.0,-20.7511099570337));
#415=CARTESIAN_POINT('',(18.6554212784654,0.0,-20.7511099570337));
#416=CARTESIAN_POINT('',(0.0,0.0,-25.5807390884791));
#417=CARTESIAN_POINT('',(-6.56607932968154,-25.0001444537432,-19.05));
#418=CARTESIAN_POINT('',(6.56607932968153,-24.9998555462568,-19.05));
#419=CARTESIAN_POINT('',(13.0356752199997,-22.3194595960968,-19.05));
#420=CARTESIAN_POINT('',(22.3196638393276,-13.0358794632306,-19.05));
#421=CARTESIAN_POINT('',(24.9998555782106,-6.56462688732086,-19.05));
#422=CARTESIAN_POINT('',(25.0001444217895,6.56462688732086,-19.05));
#423=CARTESIAN_POINT('',(22.3194595960135,13.0356752200416,-19.05));
#424=CARTESIAN_POINT('',(13.0358794633139,22.3196638392858,-19.05));
#425=CARTESIAN_POINT('',(6.56469421505766,24.9998555767086,-19.05));
#426=CARTESIAN_POINT('',(-6.56469421505765,25.0001444232914,-19.05));
#427=CARTESIAN_POINT('',(-13.0355902205967,22.3195631593206,-19.05));
#428=CARTESIAN_POINT('',(-22.3197488387306,13.0357759000068,-19.05));
#429=CARTESIAN_POINT('',(-24.9998687048075,6.56476022113762,-19.05));
#430=CARTESIAN_POINT('',(-25.0001312951925,-6.56476022113762,-19.05));
#431=CARTESIAN_POINT('',(-22.3195631591145,-13.0355902207345,-19.05));
#432=CARTESIAN_POINT('',(-13.0357759002128,-22.3197488385929,-19.05));
#433=CARTESIAN_POINT('',(-6.56607932968154,-25.0001444537432,-19.05));
#434=CARTESIAN_POINT('',(6.56607932968153,-24.9998555462568,-19.05));
#435=CARTESIAN_POINT('',(-7.65404249467096E-15,-25.0,-19.0505426061414));
#436=CARTESIAN_POINT('',(0.0,0.0,-20.7511099570337));
#437=CARTESIAN_POINT('',(0.0,-25.0,-19.05));
#438=MECHANICAL_DESIGN_GEOMETRIC_PRESENTATION_REPRESENTATION('',(#24),#439);
#439=(GEOMETRIC_REPRESENTATION_CONTEXT(3)GLOBAL_UNCERTAINTY_ASSIGNED_CONTEXT((#440))
     GLOBAL_UNIT_ASSIGNED_CONTEXT((#446,#442,#441))REPRESENTATION_CONTEXT('392','TOP_LEVEL_ASSEMBLY_PART'));
#440=UNCERTAINTY_MEASURE_WITH_UNIT(LENGTH_MEASURE(0.0508),#446,'DISTANCE_ACCURACY_VALUE',
     'Maximum Tolerance applied to model');
#441=(NAMED_UNIT(*)SI_UNIT($,.STERADIAN.)SOLID_ANGLE_UNIT());
#442=(CONVERSION_BASED_UNIT('DEGREE',#444)NAMED_UNIT(*)PLANE_ANGLE_UNIT());
#443=DIMENSIONAL_EXPONENTS(0.0,0.0,0.0,0.0,0.0,0.0,0.0);
#444=PLANE_ANGLE_MEASURE_WITH_UNIT(PLANE_ANGLE_MEASURE(0.0174532925),#445);
#445=(NAMED_UNIT(*)PLANE_ANGLE_UNIT()SI_UNIT($,.RADIAN.));
#446=(LENGTH_UNIT()NAMED_UNIT(*)SI_UNIT(.MILLI.,.METRE.));
#447=CARTESIAN_POINT('',(0.0,0.0,0.0));
#448=DIRECTION('',(0.0,0.0,1.0));
#449=DIRECTION('',(1.0,0.0,0.0));
#450=AXIS2_PLACEMENT_3D('PCS',#447,#448,#449);
#451=CARTESIAN_POINT('',(0.0,0.0,0.0));
#452=DIRECTION('',(0.0,0.0,1.0));
#453=DIRECTION('',(1.0,0.0,0.0));
#454=AXIS2_PLACEMENT_3D('MCS',#451,#452,#453);
#455=CARTESIAN_POINT('',(0.0,0.0,-84.0));
#456=DIRECTION('',(0.0,0.0,1.0));
#457=DIRECTION('',(1.0,0.0,0.0));
#458=AXIS2_PLACEMENT_3D('CSW',#455,#456,#457);
#459=CONSTRUCTIVE_GEOMETRY_REPRESENTATION('supplemental geometry',(#450,#454,#458),
     #439);
#460=CONSTRUCTIVE_GEOMETRY_REPRESENTATION_RELATIONSHIP('supplemental geometry',$,
     #22,#459);
ENDSEC;
END-ISO-10303-21;
