ISO-10303-21;
HEADER;
/* Generated by software containing ST-Developer
 * from STEP Tools, Inc. (www.steptools.com) 
 */
/* OPTION: using custom schema-name function */

FILE_DESCRIPTION(
/* description */ ('3-D model version:1'),
/* implementation_level */ '2;1');

FILE_NAME(
/* name */ '391.68X-8-23045B',
/* time_stamp */ '2015-09-17T15:14:38+02:00',
/* author */ ('InteractiveCad'),
/* organization */ ('AB Sandvik Coromant'),
/* preprocessor_version */ 'ST-DEVELOPER v15',
/* originating_system */ 'SIEMENS PLM Software NX 8.5',
/* authorisation */ '');

FILE_SCHEMA (('AP203_CONFIGURATION_CONTROLLED_3D_DESIGN_OF_MECHANICAL_PARTS_AND_ASSEMBLIES_MIM_LF { 1 0 10303 403 2 1 2}'));
ENDSEC;

DATA;
#10=SHAPE_REPRESENTATION_RELATIONSHIP('None',
'relationship between 391_68X_8_23045B_SIM-None and 391_68X_8_23045B_S
IM-None',#92,#11);
#11=ADVANCED_BREP_SHAPE_REPRESENTATION('391_68X_8_23045B_SIM-None',(#102),
#458);
#12=CC_DESIGN_APPROVAL(#24,(#82));
#13=CC_DESIGN_APPROVAL(#25,(#84));
#14=CC_DESIGN_APPROVAL(#26,(#31));
#15=APPROVAL_PERSON_ORGANIZATION(#69,#24,#18);
#16=APPROVAL_PERSON_ORGANIZATION(#70,#25,#19);
#17=APPROVAL_PERSON_ORGANIZATION(#71,#26,#20);
#18=APPROVAL_ROLE('approver');
#19=APPROVAL_ROLE('approver');
#20=APPROVAL_ROLE('approver');
#21=APPROVAL_DATE_TIME(#39,#24);
#22=APPROVAL_DATE_TIME(#40,#25);
#23=APPROVAL_DATE_TIME(#41,#26);
#24=APPROVAL(#27,' ');
#25=APPROVAL(#28,' ');
#26=APPROVAL(#29,' ');
#27=APPROVAL_STATUS('not_yet_approved');
#28=APPROVAL_STATUS('not_yet_approved');
#29=APPROVAL_STATUS('not_yet_approved');
#30=CC_DESIGN_SECURITY_CLASSIFICATION(#31,(#84));
#31=SECURITY_CLASSIFICATION(' ',' ',#32);
#32=SECURITY_CLASSIFICATION_LEVEL('confidential');
#33=CC_DESIGN_DATE_AND_TIME_ASSIGNMENT(#37,#35,(#82));
#34=CC_DESIGN_DATE_AND_TIME_ASSIGNMENT(#38,#36,(#31));
#35=DATE_TIME_ROLE('creation_date');
#36=DATE_TIME_ROLE('classification_date');
#37=DATE_AND_TIME(#52,#42);
#38=DATE_AND_TIME(#53,#43);
#39=DATE_AND_TIME(#54,#44);
#40=DATE_AND_TIME(#55,#45);
#41=DATE_AND_TIME(#56,#46);
#42=LOCAL_TIME(0,0,0.,#47);
#43=LOCAL_TIME(0,0,0.,#48);
#44=LOCAL_TIME(0,0,0.,#49);
#45=LOCAL_TIME(0,0,0.,#50);
#46=LOCAL_TIME(0,0,0.,#51);
#47=COORDINATED_UNIVERSAL_TIME_OFFSET(0,0,.BEHIND.);
#48=COORDINATED_UNIVERSAL_TIME_OFFSET(0,0,.BEHIND.);
#49=COORDINATED_UNIVERSAL_TIME_OFFSET(0,0,.BEHIND.);
#50=COORDINATED_UNIVERSAL_TIME_OFFSET(0,0,.BEHIND.);
#51=COORDINATED_UNIVERSAL_TIME_OFFSET(0,0,.BEHIND.);
#52=CALENDAR_DATE(0,1,1);
#53=CALENDAR_DATE(0,1,1);
#54=CALENDAR_DATE(0,1,1);
#55=CALENDAR_DATE(0,1,1);
#56=CALENDAR_DATE(0,1,1);
#57=CC_DESIGN_PERSON_AND_ORGANIZATION_ASSIGNMENT(#65,#61,(#82,#84));
#58=CC_DESIGN_PERSON_AND_ORGANIZATION_ASSIGNMENT(#66,#62,(#86));
#59=CC_DESIGN_PERSON_AND_ORGANIZATION_ASSIGNMENT(#67,#63,(#84));
#60=CC_DESIGN_PERSON_AND_ORGANIZATION_ASSIGNMENT(#68,#64,(#31));
#61=PERSON_AND_ORGANIZATION_ROLE('creator');
#62=PERSON_AND_ORGANIZATION_ROLE('design_owner');
#63=PERSON_AND_ORGANIZATION_ROLE('design_supplier');
#64=PERSON_AND_ORGANIZATION_ROLE('classification_officer');
#65=PERSON_AND_ORGANIZATION(#79,#72);
#66=PERSON_AND_ORGANIZATION(#79,#73);
#67=PERSON_AND_ORGANIZATION(#79,#74);
#68=PERSON_AND_ORGANIZATION(#79,#75);
#69=PERSON_AND_ORGANIZATION(#79,#76);
#70=PERSON_AND_ORGANIZATION(#79,#77);
#71=PERSON_AND_ORGANIZATION(#79,#78);
#72=ORGANIZATION(' ',' ',' ');
#73=ORGANIZATION(' ',' ',' ');
#74=ORGANIZATION(' ',' ',' ');
#75=ORGANIZATION(' ',' ',' ');
#76=ORGANIZATION(' ',' ',' ');
#77=ORGANIZATION(' ',' ',' ');
#78=ORGANIZATION(' ',' ',' ');
#79=PERSON(' ',' ',' ',(' '),$,$);
#80=SHAPE_DEFINITION_REPRESENTATION(#81,#92);
#81=PRODUCT_DEFINITION_SHAPE('','',#82);
#82=PRODUCT_DEFINITION(' ','',#84,#83);
#83=DESIGN_CONTEXT('',#91,'design');
#84=PRODUCT_DEFINITION_FORMATION_WITH_SPECIFIED_SOURCE(' ',' ',#86,
 .NOT_KNOWN.);
#85=PRODUCT_RELATED_PRODUCT_CATEGORY('detail','',(#86));
#86=PRODUCT('391_68X_8_23045B_SIM','391_68X_8_23045B_SIM',' ',(#89));
#87=PRODUCT_CATEGORY('part',' ');
#88=PRODUCT_CATEGORY(' ','');
#89=MECHANICAL_CONTEXT(' ',#91,'mechanical');
#90=APPLICATION_PROTOCOL_DEFINITION('international standard',
'config_control_design',2010,#91);
#91=APPLICATION_CONTEXT(
'configuration controlled 3D designs of mechanical parts and assemblie
s');
#92=SHAPE_REPRESENTATION('391_68X_8_23045B_SIM-None',(#319),#458);
#93=PRESENTATION_LAYER_ASSIGNMENT('1','Layer 1',(#102));
#94=STYLED_ITEM('',(#95),#102);
#95=PRESENTATION_STYLE_ASSIGNMENT((#96));
#96=SURFACE_STYLE_USAGE(.BOTH.,#97);
#97=SURFACE_SIDE_STYLE('',(#98));
#98=SURFACE_STYLE_FILL_AREA(#99);
#99=FILL_AREA_STYLE('',(#100));
#100=FILL_AREA_STYLE_COLOUR('',#101);
#101=COLOUR_RGB('TLS_NOCUT',0.499992370489052,0.499992370489052,0.499992370489052);
#102=MANIFOLD_SOLID_BREP('',#103);
#103=CLOSED_SHELL('',(#108,#109,#110,#111,#112,#113,#114,#115,#116,#117,
#118,#119));
#104=CYLINDRICAL_SURFACE('',#326,55.);
#105=CIRCLE('',#323,55.);
#106=CIRCLE('',#324,55.);
#107=CIRCLE('',#325,55.);
#108=ADVANCED_FACE('',(#131),#120,.F.);
#109=ADVANCED_FACE('',(#132),#121,.F.);
#110=ADVANCED_FACE('',(#133),#122,.F.);
#111=ADVANCED_FACE('',(#134),#104,.T.);
#112=ADVANCED_FACE('',(#135),#123,.F.);
#113=ADVANCED_FACE('',(#136),#124,.F.);
#114=ADVANCED_FACE('',(#137),#125,.F.);
#115=ADVANCED_FACE('',(#138),#126,.F.);
#116=ADVANCED_FACE('',(#139),#127,.F.);
#117=ADVANCED_FACE('',(#140),#128,.F.);
#118=ADVANCED_FACE('',(#141),#129,.F.);
#119=ADVANCED_FACE('',(#142),#130,.T.);
#120=PLANE('',#320);
#121=PLANE('',#321);
#122=PLANE('',#322);
#123=PLANE('',#327);
#124=PLANE('',#328);
#125=PLANE('',#329);
#126=PLANE('',#330);
#127=PLANE('',#331);
#128=PLANE('',#332);
#129=PLANE('',#333);
#130=PLANE('',#334);
#131=FACE_OUTER_BOUND('',#143,.T.);
#132=FACE_OUTER_BOUND('',#144,.T.);
#133=FACE_OUTER_BOUND('',#145,.T.);
#134=FACE_OUTER_BOUND('',#146,.T.);
#135=FACE_OUTER_BOUND('',#147,.T.);
#136=FACE_OUTER_BOUND('',#148,.T.);
#137=FACE_OUTER_BOUND('',#149,.T.);
#138=FACE_OUTER_BOUND('',#150,.T.);
#139=FACE_OUTER_BOUND('',#151,.T.);
#140=FACE_OUTER_BOUND('',#152,.T.);
#141=FACE_OUTER_BOUND('',#153,.T.);
#142=FACE_OUTER_BOUND('',#154,.T.);
#143=EDGE_LOOP('',(#155,#156,#157,#158));
#144=EDGE_LOOP('',(#159,#160,#161,#162,#163,#164));
#145=EDGE_LOOP('',(#165,#166,#167,#168,#169,#170));
#146=EDGE_LOOP('',(#171,#172,#173,#174,#175,#176));
#147=EDGE_LOOP('',(#177,#178,#179,#180,#181,#182));
#148=EDGE_LOOP('',(#183,#184,#185,#186));
#149=EDGE_LOOP('',(#187,#188,#189,#190));
#150=EDGE_LOOP('',(#191,#192,#193,#194));
#151=EDGE_LOOP('',(#195,#196,#197,#198,#199,#200));
#152=EDGE_LOOP('',(#201,#202,#203,#204,#205,#206));
#153=EDGE_LOOP('',(#207,#208,#209,#210));
#154=EDGE_LOOP('',(#211,#212,#213,#214));
#155=ORIENTED_EDGE('',*,*,#235,.F.);
#156=ORIENTED_EDGE('',*,*,#236,.T.);
#157=ORIENTED_EDGE('',*,*,#237,.T.);
#158=ORIENTED_EDGE('',*,*,#238,.F.);
#159=ORIENTED_EDGE('',*,*,#239,.F.);
#160=ORIENTED_EDGE('',*,*,#240,.F.);
#161=ORIENTED_EDGE('',*,*,#238,.T.);
#162=ORIENTED_EDGE('',*,*,#241,.T.);
#163=ORIENTED_EDGE('',*,*,#242,.F.);
#164=ORIENTED_EDGE('',*,*,#243,.F.);
#165=ORIENTED_EDGE('',*,*,#244,.F.);
#166=ORIENTED_EDGE('',*,*,#245,.T.);
#167=ORIENTED_EDGE('',*,*,#246,.T.);
#168=ORIENTED_EDGE('',*,*,#247,.F.);
#169=ORIENTED_EDGE('',*,*,#236,.F.);
#170=ORIENTED_EDGE('',*,*,#248,.F.);
#171=ORIENTED_EDGE('',*,*,#245,.F.);
#172=ORIENTED_EDGE('',*,*,#249,.F.);
#173=ORIENTED_EDGE('',*,*,#250,.T.);
#174=ORIENTED_EDGE('',*,*,#251,.F.);
#175=ORIENTED_EDGE('',*,*,#252,.F.);
#176=ORIENTED_EDGE('',*,*,#253,.F.);
#177=ORIENTED_EDGE('',*,*,#249,.T.);
#178=ORIENTED_EDGE('',*,*,#244,.T.);
#179=ORIENTED_EDGE('',*,*,#254,.F.);
#180=ORIENTED_EDGE('',*,*,#239,.T.);
#181=ORIENTED_EDGE('',*,*,#255,.T.);
#182=ORIENTED_EDGE('',*,*,#256,.F.);
#183=ORIENTED_EDGE('',*,*,#256,.T.);
#184=ORIENTED_EDGE('',*,*,#257,.T.);
#185=ORIENTED_EDGE('',*,*,#258,.F.);
#186=ORIENTED_EDGE('',*,*,#250,.F.);
#187=ORIENTED_EDGE('',*,*,#258,.T.);
#188=ORIENTED_EDGE('',*,*,#259,.T.);
#189=ORIENTED_EDGE('',*,*,#260,.F.);
#190=ORIENTED_EDGE('',*,*,#251,.T.);
#191=ORIENTED_EDGE('',*,*,#260,.T.);
#192=ORIENTED_EDGE('',*,*,#261,.T.);
#193=ORIENTED_EDGE('',*,*,#262,.F.);
#194=ORIENTED_EDGE('',*,*,#252,.T.);
#195=ORIENTED_EDGE('',*,*,#242,.T.);
#196=ORIENTED_EDGE('',*,*,#263,.T.);
#197=ORIENTED_EDGE('',*,*,#246,.F.);
#198=ORIENTED_EDGE('',*,*,#253,.T.);
#199=ORIENTED_EDGE('',*,*,#262,.T.);
#200=ORIENTED_EDGE('',*,*,#264,.T.);
#201=ORIENTED_EDGE('',*,*,#255,.F.);
#202=ORIENTED_EDGE('',*,*,#243,.T.);
#203=ORIENTED_EDGE('',*,*,#264,.F.);
#204=ORIENTED_EDGE('',*,*,#261,.F.);
#205=ORIENTED_EDGE('',*,*,#259,.F.);
#206=ORIENTED_EDGE('',*,*,#257,.F.);
#207=ORIENTED_EDGE('',*,*,#237,.F.);
#208=ORIENTED_EDGE('',*,*,#247,.T.);
#209=ORIENTED_EDGE('',*,*,#263,.F.);
#210=ORIENTED_EDGE('',*,*,#241,.F.);
#211=ORIENTED_EDGE('',*,*,#240,.T.);
#212=ORIENTED_EDGE('',*,*,#254,.T.);
#213=ORIENTED_EDGE('',*,*,#248,.T.);
#214=ORIENTED_EDGE('',*,*,#235,.T.);
#215=VERTEX_POINT('',#396);
#216=VERTEX_POINT('',#397);
#217=VERTEX_POINT('',#399);
#218=VERTEX_POINT('',#401);
#219=VERTEX_POINT('',#405);
#220=VERTEX_POINT('',#406);
#221=VERTEX_POINT('',#409);
#222=VERTEX_POINT('',#411);
#223=VERTEX_POINT('',#415);
#224=VERTEX_POINT('',#416);
#225=VERTEX_POINT('',#418);
#226=VERTEX_POINT('',#420);
#227=VERTEX_POINT('',#425);
#228=VERTEX_POINT('',#427);
#229=VERTEX_POINT('',#429);
#230=VERTEX_POINT('',#431);
#231=VERTEX_POINT('',#436);
#232=VERTEX_POINT('',#440);
#233=VERTEX_POINT('',#444);
#234=VERTEX_POINT('',#448);
#235=EDGE_CURVE('',#215,#216,#265,.T.);
#236=EDGE_CURVE('',#215,#217,#266,.T.);
#237=EDGE_CURVE('',#217,#218,#267,.T.);
#238=EDGE_CURVE('',#216,#218,#268,.T.);
#239=EDGE_CURVE('',#219,#220,#269,.T.);
#240=EDGE_CURVE('',#216,#219,#270,.T.);
#241=EDGE_CURVE('',#218,#221,#271,.T.);
#242=EDGE_CURVE('',#222,#221,#272,.T.);
#243=EDGE_CURVE('',#220,#222,#273,.T.);
#244=EDGE_CURVE('',#223,#224,#274,.T.);
#245=EDGE_CURVE('',#223,#225,#275,.T.);
#246=EDGE_CURVE('',#225,#226,#276,.T.);
#247=EDGE_CURVE('',#217,#226,#277,.T.);
#248=EDGE_CURVE('',#224,#215,#278,.T.);
#249=EDGE_CURVE('',#227,#223,#105,.T.);
#250=EDGE_CURVE('',#227,#228,#279,.T.);
#251=EDGE_CURVE('',#229,#228,#106,.T.);
#252=EDGE_CURVE('',#230,#229,#280,.T.);
#253=EDGE_CURVE('',#225,#230,#107,.T.);
#254=EDGE_CURVE('',#219,#224,#281,.T.);
#255=EDGE_CURVE('',#220,#231,#282,.T.);
#256=EDGE_CURVE('',#227,#231,#283,.T.);
#257=EDGE_CURVE('',#231,#232,#284,.T.);
#258=EDGE_CURVE('',#228,#232,#285,.T.);
#259=EDGE_CURVE('',#232,#233,#286,.T.);
#260=EDGE_CURVE('',#229,#233,#287,.T.);
#261=EDGE_CURVE('',#233,#234,#288,.T.);
#262=EDGE_CURVE('',#230,#234,#289,.T.);
#263=EDGE_CURVE('',#221,#226,#290,.T.);
#264=EDGE_CURVE('',#234,#222,#291,.T.);
#265=LINE('',#395,#292);
#266=LINE('',#398,#293);
#267=LINE('',#400,#294);
#268=LINE('',#402,#295);
#269=LINE('',#404,#296);
#270=LINE('',#407,#297);
#271=LINE('',#408,#298);
#272=LINE('',#410,#299);
#273=LINE('',#412,#300);
#274=LINE('',#414,#301);
#275=LINE('',#417,#302);
#276=LINE('',#419,#303);
#277=LINE('',#421,#304);
#278=LINE('',#422,#305);
#279=LINE('',#426,#306);
#280=LINE('',#430,#307);
#281=LINE('',#434,#308);
#282=LINE('',#435,#309);
#283=LINE('',#437,#310);
#284=LINE('',#439,#311);
#285=LINE('',#441,#312);
#286=LINE('',#443,#313);
#287=LINE('',#445,#314);
#288=LINE('',#447,#315);
#289=LINE('',#449,#316);
#290=LINE('',#451,#317);
#291=LINE('',#452,#318);
#292=VECTOR('',#337,1.);
#293=VECTOR('',#338,1.);
#294=VECTOR('',#339,1.);
#295=VECTOR('',#340,1.);
#296=VECTOR('',#343,1.);
#297=VECTOR('',#344,1.);
#298=VECTOR('',#345,1.);
#299=VECTOR('',#346,1.);
#300=VECTOR('',#347,1.);
#301=VECTOR('',#350,1.);
#302=VECTOR('',#351,1.);
#303=VECTOR('',#352,1.);
#304=VECTOR('',#353,1.);
#305=VECTOR('',#354,1.);
#306=VECTOR('',#359,1.);
#307=VECTOR('',#362,1.);
#308=VECTOR('',#367,1.);
#309=VECTOR('',#368,1.);
#310=VECTOR('',#369,1.);
#311=VECTOR('',#372,1.);
#312=VECTOR('',#373,1.);
#313=VECTOR('',#376,1.);
#314=VECTOR('',#377,1.);
#315=VECTOR('',#380,1.);
#316=VECTOR('',#381,1.);
#317=VECTOR('',#384,1.);
#318=VECTOR('',#385,1.);
#319=AXIS2_PLACEMENT_3D('',#394,#335,#336);
#320=AXIS2_PLACEMENT_3D('',#403,#341,#342);
#321=AXIS2_PLACEMENT_3D('',#413,#348,#349);
#322=AXIS2_PLACEMENT_3D('',#423,#355,#356);
#323=AXIS2_PLACEMENT_3D('',#424,#357,#358);
#324=AXIS2_PLACEMENT_3D('',#428,#360,#361);
#325=AXIS2_PLACEMENT_3D('',#432,#363,#364);
#326=AXIS2_PLACEMENT_3D('',#433,#365,#366);
#327=AXIS2_PLACEMENT_3D('',#438,#370,#371);
#328=AXIS2_PLACEMENT_3D('',#442,#374,#375);
#329=AXIS2_PLACEMENT_3D('',#446,#378,#379);
#330=AXIS2_PLACEMENT_3D('',#450,#382,#383);
#331=AXIS2_PLACEMENT_3D('',#453,#386,#387);
#332=AXIS2_PLACEMENT_3D('',#454,#388,#389);
#333=AXIS2_PLACEMENT_3D('',#455,#390,#391);
#334=AXIS2_PLACEMENT_3D('',#456,#392,#393);
#335=DIRECTION('',(0.,0.,1.));
#336=DIRECTION('',(1.,0.,0.));
#337=DIRECTION('',(2.52323414687536E-016,1.,0.));
#338=DIRECTION('',(-1.,0.,0.));
#339=DIRECTION('',(-0.374606593415913,0.927183854566787,0.));
#340=DIRECTION('',(-1.,0.,0.));
#341=DIRECTION('',(0.,0.,1.));
#342=DIRECTION('',(0.,-1.,0.));
#343=DIRECTION('',(1.,0.,0.));
#344=DIRECTION('',(-5.83615134662799E-032,0.,1.));
#345=DIRECTION('',(0.,0.,1.));
#346=DIRECTION('',(-1.,1.78837471750186E-016,0.));
#347=DIRECTION('',(0.,0.,1.));
#348=DIRECTION('',(0.,-1.,0.));
#349=DIRECTION('',(0.,0.,-1.));
#350=DIRECTION('',(-1.,0.,0.));
#351=DIRECTION('',(0.,0.,1.));
#352=DIRECTION('',(-1.,0.,0.));
#353=DIRECTION('',(0.,0.,1.));
#354=DIRECTION('',(9.90788484427542E-032,1.61369625672261E-016,-1.));
#355=DIRECTION('',(0.,1.,1.61369625672261E-016));
#356=DIRECTION('',(0.,-1.59594559789866E-016,1.));
#357=DIRECTION('',(0.,-3.46944695195361E-016,-1.));
#358=DIRECTION('',(0.,-1.,3.78485122031303E-016));
#359=DIRECTION('',(0.,0.,1.));
#360=DIRECTION('',(0.,0.,1.));
#361=DIRECTION('',(0.,1.,0.));
#362=DIRECTION('',(0.,0.,1.));
#363=DIRECTION('',(0.,0.,1.));
#364=DIRECTION('',(0.,1.,0.));
#365=DIRECTION('',(0.,0.,1.));
#366=DIRECTION('',(0.,-1.,0.));
#367=DIRECTION('',(-2.52323414687536E-016,-1.,1.26161707343768E-016));
#368=DIRECTION('',(0.,1.,-3.46944695195362E-016));
#369=DIRECTION('',(-1.,0.,0.));
#370=DIRECTION('',(0.,3.46944695195361E-016,1.));
#371=DIRECTION('',(0.,-1.,3.46944695195361E-016));
#372=DIRECTION('',(0.,0.,1.));
#373=DIRECTION('',(-1.,0.,0.));
#374=DIRECTION('',(0.,-1.,8.83109340353171E-034));
#375=DIRECTION('',(0.,-8.83109340353172E-034,-1.));
#376=DIRECTION('',(0.,-1.,0.));
#377=DIRECTION('',(-1.,0.,0.));
#378=DIRECTION('',(0.,0.,-1.));
#379=DIRECTION('',(0.,1.,0.));
#380=DIRECTION('',(0.,0.,-1.));
#381=DIRECTION('',(-1.,0.,0.));
#382=DIRECTION('',(0.,1.,0.));
#383=DIRECTION('',(0.,0.,1.));
#384=DIRECTION('',(0.374606593415913,-0.927183854566787,0.));
#385=DIRECTION('',(0.,-1.,0.));
#386=DIRECTION('',(0.,0.,-1.));
#387=DIRECTION('',(0.,1.,0.));
#388=DIRECTION('',(1.,0.,0.));
#389=DIRECTION('',(0.,0.,-1.));
#390=DIRECTION('',(0.927183854566787,0.374606593415912,0.));
#391=DIRECTION('',(0.374606593415912,-0.927183854566787,0.));
#392=DIRECTION('',(1.,-2.52323414687536E-016,5.83615134662799E-032));
#393=DIRECTION('',(-2.4980018054066E-016,-1.,0.));
#394=CARTESIAN_POINT('',(0.,0.,0.));
#395=CARTESIAN_POINT('',(-68.9999901529026,-45.,-43.));
#396=CARTESIAN_POINT('',(-68.9999901529026,-45.,-43.));
#397=CARTESIAN_POINT('',(-68.9999901529026,-20.,-43.));
#398=CARTESIAN_POINT('',(80.,-45.,-43.));
#399=CARTESIAN_POINT('',(-77.2993345070236,-45.,-43.));
#400=CARTESIAN_POINT('',(-55.2255031923543,-99.6346496914669,-43.));
#401=CARTESIAN_POINT('',(-87.3999901529026,-20.,-43.));
#402=CARTESIAN_POINT('',(80.,-20.,-43.));
#403=CARTESIAN_POINT('',(80.,-45.,-43.));
#404=CARTESIAN_POINT('',(80.,-20.,-33.));
#405=CARTESIAN_POINT('',(-68.9999901529026,-20.,-33.));
#406=CARTESIAN_POINT('',(-67.9999901529026,-20.,-33.));
#407=CARTESIAN_POINT('',(-68.9999901529026,-20.,-43.));
#408=CARTESIAN_POINT('',(-87.3999901529026,-20.,-50.));
#409=CARTESIAN_POINT('',(-87.3999901529026,-20.,0.));
#410=CARTESIAN_POINT('',(80.,-20.,0.));
#411=CARTESIAN_POINT('',(-67.9999901529026,-20.,0.));
#412=CARTESIAN_POINT('',(-67.9999901529026,-20.,-50.));
#413=CARTESIAN_POINT('',(80.,-20.,-43.));
#414=CARTESIAN_POINT('',(80.,-45.,-33.));
#415=CARTESIAN_POINT('',(31.6227864487811,-45.,-33.));
#416=CARTESIAN_POINT('',(-68.9999901529026,-45.,-33.));
#417=CARTESIAN_POINT('',(31.6227864487812,-45.,-50.));
#418=CARTESIAN_POINT('',(31.6227864487812,-45.,0.));
#419=CARTESIAN_POINT('',(80.,-45.,0.));
#420=CARTESIAN_POINT('',(-77.2993345070237,-45.,0.));
#421=CARTESIAN_POINT('',(-77.2993345070237,-45.,-50.));
#422=CARTESIAN_POINT('',(-68.9999901529026,-45.,-1.47627474423313E-029));
#423=CARTESIAN_POINT('',(80.,-45.,0.));
#424=CARTESIAN_POINT('',(9.84709736684408E-006,-6.02940792093966E-022,-33.));
#425=CARTESIAN_POINT('',(55.0000098470974,1.07802627983108E-013,-33.));
#426=CARTESIAN_POINT('',(55.0000098470974,1.07802627983108E-013,-50.));
#427=CARTESIAN_POINT('',(55.0000098470974,1.07802627983108E-013,8.));
#428=CARTESIAN_POINT('',(9.84709736684408E-006,-6.02940792093966E-022,8.));
#429=CARTESIAN_POINT('',(54.0832789790572,-10.,8.));
#430=CARTESIAN_POINT('',(54.0832789790572,-10.,-50.));
#431=CARTESIAN_POINT('',(54.0832789790572,-10.,0.));
#432=CARTESIAN_POINT('',(9.84709736684408E-006,-6.02940792093966E-022,0.));
#433=CARTESIAN_POINT('',(9.84709736684408E-006,-6.02940792093966E-022,-50.));
#434=CARTESIAN_POINT('',(-68.9999901529026,5.00000000000002,-33.));
#435=CARTESIAN_POINT('',(-67.9999901529026,-20.,-33.));
#436=CARTESIAN_POINT('',(-67.9999901529026,5.32907051820075E-015,-33.));
#437=CARTESIAN_POINT('',(80.,-3.620748295448E-032,-33.));
#438=CARTESIAN_POINT('',(80.,-20.,-33.));
#439=CARTESIAN_POINT('',(-67.9999901529026,5.32907051820075E-015,-50.));
#440=CARTESIAN_POINT('',(-67.9999901529026,5.32907051820075E-015,8.));
#441=CARTESIAN_POINT('',(80.,0.,8.));
#442=CARTESIAN_POINT('',(80.,-3.620748295448E-032,-33.));
#443=CARTESIAN_POINT('',(-67.9999901529026,0.,8.));
#444=CARTESIAN_POINT('',(-67.9999901529026,-10.,8.));
#445=CARTESIAN_POINT('',(80.,-10.,8.));
#446=CARTESIAN_POINT('',(80.,0.,8.));
#447=CARTESIAN_POINT('',(-67.9999901529026,-10.,8.));
#448=CARTESIAN_POINT('',(-67.9999901529026,-10.,0.));
#449=CARTESIAN_POINT('',(80.,-10.,0.));
#450=CARTESIAN_POINT('',(80.,-10.,8.));
#451=CARTESIAN_POINT('',(-67.3820246753868,-69.5462031855406,0.));
#452=CARTESIAN_POINT('',(-67.9999901529026,-10.,0.));
#453=CARTESIAN_POINT('',(80.,-10.,0.));
#454=CARTESIAN_POINT('',(-67.9999901529026,-20.,-50.));
#455=CARTESIAN_POINT('',(-77.2993345070237,-45.,-50.));
#456=CARTESIAN_POINT('',(-68.9999901529026,5.00000000000002,-33.));
#457=MECHANICAL_DESIGN_GEOMETRIC_PRESENTATION_REPRESENTATION('',(#94),#458);
#458=(
GEOMETRIC_REPRESENTATION_CONTEXT(3)
GLOBAL_UNCERTAINTY_ASSIGNED_CONTEXT((#459))
GLOBAL_UNIT_ASSIGNED_CONTEXT((#465,#461,#460))
REPRESENTATION_CONTEXT('391_68X_8_23045B_SIM','TOP_LEVEL_ASSEMBLY_PART')
);
#459=UNCERTAINTY_MEASURE_WITH_UNIT(LENGTH_MEASURE(2.E-005),#465,
'DISTANCE_ACCURACY_VALUE','Maximum Tolerance applied to model');
#460=(
NAMED_UNIT(*)
SI_UNIT($,.STERADIAN.)
SOLID_ANGLE_UNIT()
);
#461=(
CONVERSION_BASED_UNIT('DEGREE',#463)
NAMED_UNIT(#462)
PLANE_ANGLE_UNIT()
);
#462=DIMENSIONAL_EXPONENTS(0.,0.,0.,0.,0.,0.,0.);
#463=PLANE_ANGLE_MEASURE_WITH_UNIT(PLANE_ANGLE_MEASURE(0.0174532925),#464);
#464=(
NAMED_UNIT(*)
PLANE_ANGLE_UNIT()
SI_UNIT($,.RADIAN.)
);
#465=(
LENGTH_UNIT()
NAMED_UNIT(*)
SI_UNIT(.MILLI.,.METRE.)
);
ENDSEC;
END-ISO-10303-21;
