ISO-10303-21;
HEADER;
FILE_DESCRIPTION(('STEP'), '1');
FILE_NAME('C:\\Users\\ds2002\\OneDrive - Sandvik\\HomeShare\\Documents\\Batchrepair\\CorSRT2\\NEW_MILBN_SLD\\Output3\\MOD000000000000000020082339800000.stp', '2018-11-27T13:11:50', (''), (''), 'Express v3.0.0.0', 'Express Tool', 'Unknown');
FILE_SCHEMA(('AUTOMOTIVE_DESIGN'));
ENDSEC;

DATA;
#1 = MANIFOLD_SOLID_BREP('NOCUT', #2);
#2 = CLOSED_SHELL('', (#3, #50, #70, #117, #164, #173, #185, #216));
#3 = ADVANCED_FACE('', (#4), #31, .T.);
#4 = FACE_OUTER_BOUND('', #5, .T.);
#5 = EDGE_LOOP('', (#6, #16, #23, #24));
#6 = ORIENTED_EDGE('', *, *, #7, .F.);
#7 = EDGE_CURVE('', #8, #10, #12, .T.);
#8 = VERTEX_POINT('', #9);
#9 = CARTESIAN_POINT('', (-4.85, 2.96976848793233E-16, -5.47382212626882E-48));
#10 = VERTEX_POINT('', #11);
#11 = CARTESIAN_POINT('', (-4.85, 7.1947999449907E-16, -6.9));
#12 = LINE('', #13, #14);
#13 = CARTESIAN_POINT('', (-4.85, 2.96976848793233E-16, -5.47382212626882E-48));
#14 = VECTOR('', #15, 6.9);
#15 = DIRECTION('', (0., 4.22503145705837E-16, -6.9));
#16 = ORIENTED_EDGE('', *, *, #17, .T.);
#17 = EDGE_CURVE('', #8, #8, #18, .T.);
#18 = CIRCLE('', #19, 4.85);
#19 = AXIS2_PLACEMENT_3D('', #20, #21, #22);
#20 = CARTESIAN_POINT('', (6.52256026967279E-16, 3.44169137633799E-15, 2.1570415377137E-31));
#21 = DIRECTION('', (4.77235561894381E-33, 6.12323399573676E-17, -1.));
#22 = DIRECTION('', (-1., -8.93324107776842E-16, -5.94726810784475E-32));
#23 = ORIENTED_EDGE('', *, *, #7, .T.);
#24 = ORIENTED_EDGE('', *, *, #25, .F.);
#25 = EDGE_CURVE('', #10, #10, #26, .T.);
#26 = CIRCLE('', #27, 4.85);
#27 = AXIS2_PLACEMENT_3D('', #28, #29, #30);
#28 = CARTESIAN_POINT('', (-2.35922392732846E-16, 3.77475828372553E-15, -6.9));
#29 = DIRECTION('', (0., 0., -1.));
#30 = DIRECTION('', (-1., -8.74883646267917E-16, 0.));
#31 = (
   BOUNDED_SURFACE ()
   B_SPLINE_SURFACE (2, 1, ((#32, #33), (#34, #35), (#36, #37), (#38, #39), (#40, #41), (#42, #43), (#44, #45), (#46, #47), (#48, #49)), .UNSPECIFIED., .T., .F., .U.)
   B_SPLINE_SURFACE_WITH_KNOTS ((3, 2, 2, 2, 3), (2, 2), (0., 7.61836218495525, 15.2367243699105, 22.8550865548658, 30.473448739821), (0., 1.), .UNSPECIFIED.)
   GEOMETRIC_REPRESENTATION_ITEM ()
   RATIONAL_B_SPLINE_SURFACE (((1., 1.), (0.707106781186548, 0.707106781186548), (1., 1.), (0.707106781186548, 0.707106781186548), (1., 1.), (0.707106781186548, 0.707106781186548), (1., 1.), (0.707106781186548, 0.707106781186548), (1., 1.)))
   REPRESENTATION_ITEM ('')
   SURFACE ()
);
#32 = CARTESIAN_POINT('', (-4.85, 2.96976848793233E-16, -5.47382212626882E-48));
#33 = CARTESIAN_POINT('', (-4.85, 5.19021453718264E-16, -6.9));
#34 = CARTESIAN_POINT('', (-4.85, 4.85, 1.56074830998029E-16));
#35 = CARTESIAN_POINT('', (-4.85, 4.85, -6.9));
#36 = CARTESIAN_POINT('', (1.52655665885959E-16, 4.85, 1.56074830998029E-16));
#37 = CARTESIAN_POINT('', (1.52655665885959E-16, 4.85, -6.9));
#38 = CARTESIAN_POINT('', (4.85, 4.85, 1.56074830998029E-16));
#39 = CARTESIAN_POINT('', (4.85, 4.85, -6.9));
#40 = CARTESIAN_POINT('', (4.85, -3.69156965981861E-16, -4.25161039994715E-32));
#41 = CARTESIAN_POINT('', (4.85, -1.47112361056829E-16, -6.9));
#42 = CARTESIAN_POINT('', (4.85, -4.85, -1.56074830998029E-16));
#43 = CARTESIAN_POINT('', (4.85, -4.85, -6.9));
#44 = CARTESIAN_POINT('', (8.04755486973314E-17, -4.85, -1.56074830998029E-16));
#45 = CARTESIAN_POINT('', (8.04755486973314E-17, -4.85, -6.9));
#46 = CARTESIAN_POINT('', (-4.85, -4.85, -1.56074830998029E-16));
#47 = CARTESIAN_POINT('', (-4.85, -4.85, -6.9));
#48 = CARTESIAN_POINT('', (-4.85, 2.96976848793233E-16, -5.47382212626882E-48));
#49 = CARTESIAN_POINT('', (-4.85, 5.19021453718264E-16, -6.9));
#50 = ADVANCED_FACE('', (#51, #54), #65, .T.);
#51 = FACE_OUTER_BOUND('', #52, .T.);
#52 = EDGE_LOOP('', (#53));
#53 = ORIENTED_EDGE('', *, *, #17, .F.);
#54 = FACE_BOUND('', #55, .T.);
#55 = EDGE_LOOP('', (#56));
#56 = ORIENTED_EDGE('', *, *, #57, .T.);
#57 = EDGE_CURVE('', #58, #58, #60, .T.);
#58 = VERTEX_POINT('', #59);
#59 = CARTESIAN_POINT('', (-3.625, 2.21967232345458E-16, -5.47382212626882E-48));
#60 = CIRCLE('', #61, 3.625);
#61 = AXIS2_PLACEMENT_3D('', #62, #63, #64);
#62 = CARTESIAN_POINT('', (-3.88578058618805E-16, -7.7715611723761E-16, -7.39557098644699E-32));
#63 = DIRECTION('', (-3.5247032450912E-33, 6.12323399573678E-17, -1.));
#64 = DIRECTION('', (-1., 3.06908745382722E-17, 5.4039773084076E-33));
#65 = B_SPLINE_SURFACE_WITH_KNOTS('', 1, 1, ((#66, #67), (#68, #69)), .UNSPECIFIED., .F., .F., .U., (2, 2), (2, 2), (2.69482935526046, 12.3948293552605), (2.69482935526046, 12.3948293552605), .UNSPECIFIED.);
#66 = CARTESIAN_POINT('', (4.85, -4.85, -2.96976848793233E-16));
#67 = CARTESIAN_POINT('', (-4.85, -4.85, -2.96976848793233E-16));
#68 = CARTESIAN_POINT('', (4.85, 4.85, 2.96976848793233E-16));
#69 = CARTESIAN_POINT('', (-4.85, 4.85, 2.96976848793233E-16));
#70 = ADVANCED_FACE('', (#71), #98, .T.);
#71 = FACE_OUTER_BOUND('', #72, .T.);
#72 = EDGE_LOOP('', (#73, #83, #90, #91));
#73 = ORIENTED_EDGE('', *, *, #74, .T.);
#74 = EDGE_CURVE('', #75, #77, #79, .T.);
#75 = VERTEX_POINT('', #76);
#76 = CARTESIAN_POINT('', (-3.545, 8.84807312383963E-17, 2.1));
#77 = VERTEX_POINT('', #78);
#78 = CARTESIAN_POINT('', (-2.955, -2.90547453097709E-16, 7.7));
#79 = LINE('', #80, #81);
#80 = CARTESIAN_POINT('', (-3.545, 8.84807312383963E-17, 2.1));
#81 = VECTOR('', #82, 5.63099458355271);
#82 = DIRECTION('', (0.59, -3.79028184336105E-16, 5.6));
#83 = ORIENTED_EDGE('', *, *, #84, .T.);
#84 = EDGE_CURVE('', #77, #77, #85, .T.);
#85 = CIRCLE('', #86, 2.955);
#86 = AXIS2_PLACEMENT_3D('', #87, #88, #89);
#87 = CARTESIAN_POINT('', (5.13478148889135E-16, -4.44089209850063E-16, 7.7));
#88 = DIRECTION('', (0., 0., -1.));
#89 = DIRECTION('', (-1., 5.19599853645867E-17, 0.));
#90 = ORIENTED_EDGE('', *, *, #74, .F.);
#91 = ORIENTED_EDGE('', *, *, #92, .F.);
#92 = EDGE_CURVE('', #75, #75, #93, .T.);
#93 = CIRCLE('', #94, 3.545);
#94 = AXIS2_PLACEMENT_3D('', #95, #96, #97);
#95 = CARTESIAN_POINT('', (1.52655665885959E-16, -2.1094237467878E-15, 2.1));
#96 = DIRECTION('', (0., 0., -1.));
#97 = DIRECTION('', (-1., 6.20001263194977E-16, 0.));
#98 = (
   BOUNDED_SURFACE ()
   B_SPLINE_SURFACE (1, 2, ((#99, #100, #101, #102, #103, #104, #105, #106, #107), (#108, #109, #110, #111, #112, #113, #114, #115, #116)), .UNSPECIFIED., .F., .T., .U.)
   B_SPLINE_SURFACE_WITH_KNOTS ((2, 2), (3, 2, 2, 2, 3), (0., 1.), (0., 0.25, 0.5, 0.75, 1.), .UNSPECIFIED.)
   GEOMETRIC_REPRESENTATION_ITEM ()
   RATIONAL_B_SPLINE_SURFACE (((1., 0.707106781186548, 1., 0.707106781186548, 1., 0.707106781186548, 1., 0.707106781186548, 1.), (1., 0.707106781186548, 1., 0.707106781186548, 1., 0.707106781186548, 1., 0.707106781186548, 1.)))
   REPRESENTATION_ITEM ('')
   SURFACE ()
);
#99 = CARTESIAN_POINT('', (-3.545, -2.76888238438803E-15, 2.1));
#100 = CARTESIAN_POINT('', (-3.545, 3.545, 2.1));
#101 = CARTESIAN_POINT('', (-1.94908538073512E-15, 3.545, 2.1));
#102 = CARTESIAN_POINT('', (3.545, 3.545, 2.1));
#103 = CARTESIAN_POINT('', (3.545, -1.90400623858995E-15, 2.1));
#104 = CARTESIAN_POINT('', (3.545, -3.545, 2.1));
#105 = CARTESIAN_POINT('', (-6.50071944639296E-16, -3.545, 2.1));
#106 = CARTESIAN_POINT('', (-3.545, -3.545, 2.1));
#107 = CARTESIAN_POINT('', (-3.545, -2.76888238438803E-15, 2.1));
#108 = CARTESIAN_POINT('', (-2.955, -2.90547453097709E-16, 7.7));
#109 = CARTESIAN_POINT('', (-2.955, 2.955, 7.7));
#110 = CARTESIAN_POINT('', (-1.93933261515442E-16, 2.955, 7.7));
#111 = CARTESIAN_POINT('', (2.955, 2.955, 7.7));
#112 = CARTESIAN_POINT('', (2.955, 4.30385977320721E-16, 7.7));
#113 = CARTESIAN_POINT('', (2.955, -2.955, 7.7));
#114 = CARTESIAN_POINT('', (8.88883298051032E-16, -2.955, 7.7));
#115 = CARTESIAN_POINT('', (-2.955, -2.955, 7.7));
#116 = CARTESIAN_POINT('', (-2.955, -2.90547453097709E-16, 7.7));
#117 = ADVANCED_FACE('', (#118), #145, .T.);
#118 = FACE_OUTER_BOUND('', #119, .T.);
#119 = EDGE_LOOP('', (#120, #130, #137, #138));
#120 = ORIENTED_EDGE('', *, *, #121, .T.);
#121 = EDGE_CURVE('', #122, #124, #126, .T.);
#122 = VERTEX_POINT('', #123);
#123 = CARTESIAN_POINT('', (-2.2, -3.36777869765522E-16, 7.7));
#124 = VERTEX_POINT('', #125);
#125 = CARTESIAN_POINT('', (-2.2, -5.51091059616309E-16, 11.2));
#126 = LINE('', #127, #128);
#127 = CARTESIAN_POINT('', (-2.2, -3.36777869765522E-16, 7.7));
#128 = VECTOR('', #129, 3.5);
#129 = DIRECTION('', (0., -2.14313189850787E-16, 3.5));
#130 = ORIENTED_EDGE('', *, *, #131, .T.);
#131 = EDGE_CURVE('', #124, #124, #132, .T.);
#132 = CIRCLE('', #133, 2.2);
#133 = AXIS2_PLACEMENT_3D('', #134, #135, #136);
#134 = CARTESIAN_POINT('', (5.759281940243E-16, -4.9960036108132E-16, 11.2));
#135 = DIRECTION('', (0., 0., -1.));
#136 = DIRECTION('', (-1., -2.34048629704493E-17, 0.));
#137 = ORIENTED_EDGE('', *, *, #121, .F.);
#138 = ORIENTED_EDGE('', *, *, #139, .F.);
#139 = EDGE_CURVE('', #122, #122, #140, .T.);
#140 = CIRCLE('', #141, 2.2);
#141 = AXIS2_PLACEMENT_3D('', #142, #143, #144);
#142 = CARTESIAN_POINT('', (5.62050406216485E-16, -3.33066907387547E-16, 7.7));
#143 = DIRECTION('', (0., 0., -1.));
#144 = DIRECTION('', (-1., -1.68680108089775E-18, 0.));
#145 = (
   BOUNDED_SURFACE ()
   B_SPLINE_SURFACE (1, 2, ((#146, #147, #148, #149, #150, #151, #152, #153, #154), (#155, #156, #157, #158, #159, #160, #161, #162, #163)), .UNSPECIFIED., .F., .T., .U.)
   B_SPLINE_SURFACE_WITH_KNOTS ((2, 2), (3, 2, 2, 2, 3), (0., 1.), (0., 3.45575191894878, 6.91150383789755, 10.3672557568463, 13.8230076757951), .UNSPECIFIED.)
   GEOMETRIC_REPRESENTATION_ITEM ()
   RATIONAL_B_SPLINE_SURFACE (((1., 0.707106781186548, 1., 0.707106781186548, 1., 0.707106781186548, 1., 0.707106781186548, 1.), (1., 0.707106781186548, 1., 0.707106781186548, 1., 0.707106781186548, 1., 0.707106781186548, 1.)))
   REPRESENTATION_ITEM ('')
   SURFACE ()
);
#146 = CARTESIAN_POINT('', (-2.2, -3.84557605922536E-16, 7.7));
#147 = CARTESIAN_POINT('', (-2.2, 2.2, 7.7));
#148 = CARTESIAN_POINT('', (-1.48377500647185E-15, 2.2, 7.7));
#149 = CARTESIAN_POINT('', (2.2, 2.2, 7.7));
#150 = CARTESIAN_POINT('', (2.2, 3.20912994347406E-16, 7.7));
#151 = CARTESIAN_POINT('', (2.2, -2.2, 7.7));
#152 = CARTESIAN_POINT('', (-5.0888211038949E-16, -2.2, 7.7));
#153 = CARTESIAN_POINT('', (-2.2, -2.2, 7.7));
#154 = CARTESIAN_POINT('', (-2.2, -3.84557605922536E-16, 7.7));
#155 = CARTESIAN_POINT('', (-2.2, -5.51091059616309E-16, 11.2));
#156 = CARTESIAN_POINT('', (-2.2, 2.2, 11.2));
#157 = CARTESIAN_POINT('', (-1.48377500647185E-15, 2.2, 11.2));
#158 = CARTESIAN_POINT('', (2.2, 2.2, 11.2));
#159 = CARTESIAN_POINT('', (2.2, 1.54379540653633E-16, 11.2));
#160 = CARTESIAN_POINT('', (2.2, -2.2, 11.2));
#161 = CARTESIAN_POINT('', (-5.0888211038949E-16, -2.2, 11.2));
#162 = CARTESIAN_POINT('', (-2.2, -2.2, 11.2));
#163 = CARTESIAN_POINT('', (-2.2, -5.51091059616309E-16, 11.2));
#164 = ADVANCED_FACE('', (#165), #168, .T.);
#165 = FACE_OUTER_BOUND('', #166, .T.);
#166 = EDGE_LOOP('', (#167));
#167 = ORIENTED_EDGE('', *, *, #131, .F.);
#168 = B_SPLINE_SURFACE_WITH_KNOTS('', 1, 1, ((#169, #170), (#171, #172)), .UNSPECIFIED., .F., .F., .U., (2, 2), (2, 2), (1.22239682094289, 5.62239682094289), (1.22239682094289, 5.62239682094289), .UNSPECIFIED.);
#169 = CARTESIAN_POINT('', (2.2, -2.2, 11.2));
#170 = CARTESIAN_POINT('', (-2.2, -2.2, 11.2));
#171 = CARTESIAN_POINT('', (2.2, 2.2, 11.2));
#172 = CARTESIAN_POINT('', (-2.2, 2.2, 11.2));
#173 = ADVANCED_FACE('', (#174, #177), #180, .T.);
#174 = FACE_OUTER_BOUND('', #175, .T.);
#175 = EDGE_LOOP('', (#176));
#176 = ORIENTED_EDGE('', *, *, #84, .F.);
#177 = FACE_BOUND('', #178, .T.);
#178 = EDGE_LOOP('', (#179));
#179 = ORIENTED_EDGE('', *, *, #139, .T.);
#180 = B_SPLINE_SURFACE_WITH_KNOTS('', 1, 1, ((#181, #182), (#183, #184)), .UNSPECIFIED., .F., .F., .U., (2, 2), (2, 2), (1.64190118449375, 7.55190118449375), (1.64190118449375, 7.55190118449375), .UNSPECIFIED.);
#181 = CARTESIAN_POINT('', (2.955, -2.955, 7.7));
#182 = CARTESIAN_POINT('', (-2.955, -2.955, 7.7));
#183 = CARTESIAN_POINT('', (2.955, 2.955, 7.7));
#184 = CARTESIAN_POINT('', (-2.955, 2.955, 7.7));
#185 = ADVANCED_FACE('', (#186), #197, .T.);
#186 = FACE_OUTER_BOUND('', #187, .T.);
#187 = EDGE_LOOP('', (#188, #194, #195, #196));
#188 = ORIENTED_EDGE('', *, *, #189, .T.);
#189 = EDGE_CURVE('', #58, #75, #190, .T.);
#190 = LINE('', #191, #192);
#191 = CARTESIAN_POINT('', (-3.625, 2.21967232345458E-16, -5.47382212626882E-48));
#192 = VECTOR('', #193, 2.10152325706855);
#193 = DIRECTION('', (0.0800000000000001, -1.33486501107062E-16, 2.1));
#194 = ORIENTED_EDGE('', *, *, #92, .T.);
#195 = ORIENTED_EDGE('', *, *, #189, .F.);
#196 = ORIENTED_EDGE('', *, *, #57, .F.);
#197 = (
   BOUNDED_SURFACE ()
   B_SPLINE_SURFACE (1, 2, ((#198, #199, #200, #201, #202, #203, #204, #205, #206), (#207, #208, #209, #210, #211, #212, #213, #214, #215)), .UNSPECIFIED., .F., .T., .U.)
   B_SPLINE_SURFACE_WITH_KNOTS ((2, 2), (3, 2, 2, 2, 3), (0., 1.), (0., 0.25, 0.5, 0.75, 1.), .UNSPECIFIED.)
   GEOMETRIC_REPRESENTATION_ITEM ()
   RATIONAL_B_SPLINE_SURFACE (((1., 0.707106781186548, 1., 0.707106781186548, 1., 0.707106781186548, 1., 0.707106781186548, 1.), (1., 0.707106781186548, 1., 0.707106781186548, 1., 0.707106781186548, 1., 0.707106781186548, 1.)))
   REPRESENTATION_ITEM ('')
   SURFACE ()
);
#198 = CARTESIAN_POINT('', (-3.625, 2.81263785071398E-15, -4.44089209850063E-16));
#199 = CARTESIAN_POINT('', (-3.625, 3.625, 4.15540617788273E-15));
#200 = CARTESIAN_POINT('', (3.17353770629673E-15, 3.625, 4.15540617788273E-15));
#201 = CARTESIAN_POINT('', (3.625, 3.625, 4.15540617788273E-15));
#202 = CARTESIAN_POINT('', (3.625, -2.14665878109803E-15, -4.44089209850062E-16));
#203 = CARTESIAN_POINT('', (3.625, -3.625, -5.04358459758285E-15));
#204 = CARTESIAN_POINT('', (-1.34182446082436E-15, -3.625, -5.04358459758285E-15));
#205 = CARTESIAN_POINT('', (-3.625, -3.625, -5.04358459758285E-15));
#206 = CARTESIAN_POINT('', (-3.625, 2.81263785071398E-15, -4.44089209850063E-16));
#207 = CARTESIAN_POINT('', (-3.545, 8.84807312383957E-17, 2.1));
#208 = CARTESIAN_POINT('', (-3.545, 3.545, 2.1));
#209 = CARTESIAN_POINT('', (3.11881443311811E-15, 3.545, 2.1));
#210 = CARTESIAN_POINT('', (3.545, 3.545, 2.1));
#211 = CARTESIAN_POINT('', (3.545, -4.76136935421638E-15, 2.1));
#212 = CARTESIAN_POINT('', (3.545, -3.54500000000001, 2.1));
#213 = CARTESIAN_POINT('', (-1.29689836203893E-15, -3.545, 2.1));
#214 = CARTESIAN_POINT('', (-3.545, -3.545, 2.1));
#215 = CARTESIAN_POINT('', (-3.545, 8.84807312383957E-17, 2.1));
#216 = ADVANCED_FACE('', (#217), #220, .T.);
#217 = FACE_OUTER_BOUND('', #218, .T.);
#218 = EDGE_LOOP('', (#219));
#219 = ORIENTED_EDGE('', *, *, #25, .T.);
#220 = B_SPLINE_SURFACE_WITH_KNOTS('', 1, 1, ((#221, #222), (#223, #224)), .UNSPECIFIED., .F., .F., .U., (2, 2), (2, 2), (25.332404009235, 35.032404009235), (19.9934190777499, 29.6934190777499), .UNSPECIFIED.);
#221 = CARTESIAN_POINT('', (-4.85, 4.85, -6.9));
#222 = CARTESIAN_POINT('', (-4.85, -4.85, -6.9));
#223 = CARTESIAN_POINT('', (4.85, 4.85, -6.9));
#224 = CARTESIAN_POINT('', (4.85, -4.85, -6.9));
#225 = DRAUGHTING_MODEL('', (#233, #341, #389, #394, #399, #404, #409, #414), #428);
#226 = PRESENTATION_STYLE_ASSIGNMENT((#227));
#227 = SURFACE_STYLE_USAGE(.POSITIVE., #228);
#228 = SURFACE_SIDE_STYLE('', (#229));
#229 = SURFACE_STYLE_FILL_AREA(#230);
#230 = FILL_AREA_STYLE('', (#231));
#231 = FILL_AREA_STYLE_COLOUR('', #232);
#232 = COLOUR_RGB('', 0.50196078431373, 0.50196078431373, 0.50196078431373);
#233 = STYLED_ITEM('', (#226), #1);
#234 = MANIFOLD_SOLID_BREP('CUT', #235);
#235 = CLOSED_SHELL('', (#236, #253, #292));
#236 = ADVANCED_FACE('', (#237), #248, .T.);
#237 = FACE_OUTER_BOUND('', #238, .T.);
#238 = EDGE_LOOP('', (#239));
#239 = ORIENTED_EDGE('', *, *, #240, .F.);
#240 = EDGE_CURVE('', #241, #241, #243, .T.);
#241 = VERTEX_POINT('', #242);
#242 = CARTESIAN_POINT('', (-5., 7.28664845492675E-16, -6.9));
#243 = CIRCLE('', #244, 5.);
#244 = AXIS2_PLACEMENT_3D('', #245, #246, #247);
#245 = CARTESIAN_POINT('', (-4.16333634234434E-17, 6.66133814775094E-16, -6.9));
#246 = DIRECTION('', (0., 0., -1.));
#247 = DIRECTION('', (-1., 1.25062061435162E-17, 0.));
#248 = B_SPLINE_SURFACE_WITH_KNOTS('', 1, 1, ((#249, #250), (#251, #252)), .UNSPECIFIED., .F., .F., .U., (2, 2), (2, 2), (2.77817459305202, 12.778174593052), (2.77817459305202, 12.778174593052), .UNSPECIFIED.);
#249 = CARTESIAN_POINT('', (5., -5., -6.9));
#250 = CARTESIAN_POINT('', (-5., -5., -6.9));
#251 = CARTESIAN_POINT('', (5., 5., -6.9));
#252 = CARTESIAN_POINT('', (-5., 5., -6.9));
#253 = ADVANCED_FACE('', (#254), #273, .T.);
#254 = FACE_OUTER_BOUND('', #255, .T.);
#255 = EDGE_LOOP('', (#256, #264, #265, #266));
#256 = ORIENTED_EDGE('', *, *, #257, .F.);
#257 = EDGE_CURVE('', #241, #258, #260, .T.);
#258 = VERTEX_POINT('', #259);
#259 = CARTESIAN_POINT('', (-5., 7.59281015471359E-16, -7.4));
#260 = LINE('', #261, #262);
#261 = CARTESIAN_POINT('', (-5., 7.28664845492675E-16, -6.9));
#262 = VECTOR('', #263, 0.5);
#263 = DIRECTION('', (0., 3.0616169978684E-17, -0.5));
#264 = ORIENTED_EDGE('', *, *, #240, .T.);
#265 = ORIENTED_EDGE('', *, *, #257, .T.);
#266 = ORIENTED_EDGE('', *, *, #267, .F.);
#267 = EDGE_CURVE('', #258, #258, #268, .T.);
#268 = CIRCLE('', #269, 5.);
#269 = AXIS2_PLACEMENT_3D('', #270, #271, #272);
#270 = CARTESIAN_POINT('', (-4.16333634234434E-17, 6.66133814775094E-16, -7.4));
#271 = DIRECTION('', (1.12631684278412E-32, 6.04589743097498E-16, -1.));
#272 = DIRECTION('', (-1., 1.8629440139253E-17, 0.));
#273 = (
   BOUNDED_SURFACE ()
   B_SPLINE_SURFACE (2, 1, ((#274, #275), (#276, #277), (#278, #279), (#280, #281), (#282, #283), (#284, #285), (#286, #287), (#288, #289), (#290, #291)), .UNSPECIFIED., .T., .F., .U.)
   B_SPLINE_SURFACE_WITH_KNOTS ((3, 2, 2, 2, 3), (2, 2), (0., 7.85398163397447, 15.707963267949, 23.5619449019234, 31.4159265358979), (0., 1.), .UNSPECIFIED.)
   GEOMETRIC_REPRESENTATION_ITEM ()
   RATIONAL_B_SPLINE_SURFACE (((1., 1.), (0.707106781186548, 0.707106781186548), (1., 1.), (0.707106781186548, 0.707106781186548), (1., 1.), (0.707106781186548, 0.707106781186548), (1., 1.), (0.707106781186548, 0.707106781186548), (1., 1.)))
   REPRESENTATION_ITEM ('')
   SURFACE ()
);
#274 = CARTESIAN_POINT('', (-5., 7.28664845492675E-16, -6.9));
#275 = CARTESIAN_POINT('', (-5., 7.28664845492675E-16, -7.4));
#276 = CARTESIAN_POINT('', (-5., 5., -6.9));
#277 = CARTESIAN_POINT('', (-5., 5., -7.4));
#278 = CARTESIAN_POINT('', (2.86499379988118E-15, 5., -6.9));
#279 = CARTESIAN_POINT('', (2.86499379988118E-15, 5., -7.4));
#280 = CARTESIAN_POINT('', (5., 5., -6.9));
#281 = CARTESIAN_POINT('', (5., 5., -7.4));
#282 = CARTESIAN_POINT('', (5., -3.22496591486944E-15, -6.9));
#283 = CARTESIAN_POINT('', (5., -3.22496591486944E-15, -7.4));
#284 = CARTESIAN_POINT('', (5., -5., -6.9));
#285 = CARTESIAN_POINT('', (5., -5., -7.4));
#286 = CARTESIAN_POINT('', (-4.76313560907254E-16, -5., -6.9));
#287 = CARTESIAN_POINT('', (-4.76313560907254E-16, -5., -7.4));
#288 = CARTESIAN_POINT('', (-5., -5., -6.9));
#289 = CARTESIAN_POINT('', (-5., -5., -7.4));
#290 = CARTESIAN_POINT('', (-5., 7.28664845492675E-16, -6.9));
#291 = CARTESIAN_POINT('', (-5., 7.28664845492675E-16, -7.4));
#292 = ADVANCED_FACE('', (#293), #306, .T.);
#293 = FACE_OUTER_BOUND('', #294, .T.);
#294 = EDGE_LOOP('', (#295, #304, #305));
#295 = ORIENTED_EDGE('', *, *, #296, .F.);
#296 = EDGE_CURVE('', #258, #297, #299, .T.);
#297 = VERTEX_POINT('', #298);
#298 = CARTESIAN_POINT('', (2.69484193876077E-15, 7.59281015471359E-16, -12.4));
#299 = CIRCLE('', #300, 5.);
#300 = AXIS2_PLACEMENT_3D('', #301, #302, #303);
#301 = CARTESIAN_POINT('', (5.32907051820075E-15, 4.53119315684518E-16, -7.4));
#302 = DIRECTION('', (-6.12323399573682E-17, -1., -6.12323399573682E-17));
#303 = DIRECTION('', (-1., 6.12323399573682E-17, -7.10542735760099E-16));
#304 = ORIENTED_EDGE('', *, *, #267, .T.);
#305 = ORIENTED_EDGE('', *, *, #296, .T.);
#306 = (
   BOUNDED_SURFACE ()
   B_SPLINE_SURFACE (2, 2, ((#307, #308, #309), (#310, #311, #312), (#313, #314, #315), (#316, #317, #318), (#319, #320, #321), (#322, #323, #324), (#325, #326, #327), (#328, #329, #330), (#331, #332, #333)), .UNSPECIFIED., .T., .F., .U.)
   B_SPLINE_SURFACE_WITH_KNOTS ((3, 2, 2, 2, 3), (3, 3), (0., 0.25, 0.5, 0.75, 1.), (0., 1.), .UNSPECIFIED.)
   GEOMETRIC_REPRESENTATION_ITEM ()
   RATIONAL_B_SPLINE_SURFACE (((1., 0.707106781186548, 1.), (0.707106781186548, 0.5, 0.707106781186548), (1., 0.707106781186548, 1.), (0.707106781186548, 0.5, 0.707106781186548), (1., 0.707106781186548, 1.), (0.707106781186548, 0.5, 0.707106781186548), (1., 0.707106781186548, 1.), (0.707106781186548, 0.5, 0.707106781186548), (1., 0.707106781186548, 1.)))
   REPRESENTATION_ITEM ('')
   SURFACE ()
);
#307 = CARTESIAN_POINT('', (-5., 7.59281015471359E-16, -7.4));
#308 = CARTESIAN_POINT('', (-5., 1.0654427152582E-15, -12.4));
#309 = CARTESIAN_POINT('', (2.69484193876077E-15, 7.59281015471359E-16, -12.4));
#310 = CARTESIAN_POINT('', (-5., 4.99999999999999, -7.4));
#311 = CARTESIAN_POINT('', (-5., 4.99999999999999, -12.4));
#312 = CARTESIAN_POINT('', (2.69484193876077E-15, 7.59281015471359E-16, -12.4));
#313 = CARTESIAN_POINT('', (-6.21724893790088E-15, 4.99999999999999, -7.4));
#314 = CARTESIAN_POINT('', (-5.91108723811403E-15, 4.99999999999999, -12.4));
#315 = CARTESIAN_POINT('', (2.69484193876077E-15, 7.59281015471359E-16, -12.4));
#316 = CARTESIAN_POINT('', (4.99999999999999, 4.99999999999999, -7.4));
#317 = CARTESIAN_POINT('', (4.99999999999999, 4.99999999999999, -12.4));
#318 = CARTESIAN_POINT('', (2.69484193876077E-15, 7.59281015471359E-16, -12.4));
#319 = CARTESIAN_POINT('', (4.99999999999999, 7.59281015471355E-16, -7.4));
#320 = CARTESIAN_POINT('', (4.99999999999999, 4.53119315684514E-16, -12.4));
#321 = CARTESIAN_POINT('', (2.69484193876077E-15, 7.59281015471359E-16, -12.4));
#322 = CARTESIAN_POINT('', (4.99999999999999, -4.99999999999999, -7.4));
#323 = CARTESIAN_POINT('', (4.99999999999999, -4.99999999999999, -12.4));
#324 = CARTESIAN_POINT('', (2.69484193876077E-15, 7.59281015471359E-16, -12.4));
#325 = CARTESIAN_POINT('', (-5.6049255383272E-15, -4.99999999999999, -7.4));
#326 = CARTESIAN_POINT('', (-5.91108723811404E-15, -4.99999999999999, -12.4));
#327 = CARTESIAN_POINT('', (2.69484193876077E-15, 7.59281015471359E-16, -12.4));
#328 = CARTESIAN_POINT('', (-5., -4.99999999999999, -7.4));
#329 = CARTESIAN_POINT('', (-5., -4.99999999999999, -12.4));
#330 = CARTESIAN_POINT('', (2.69484193876077E-15, 7.59281015471359E-16, -12.4));
#331 = CARTESIAN_POINT('', (-5., 7.59281015471359E-16, -7.4));
#332 = CARTESIAN_POINT('', (-5., 1.0654427152582E-15, -12.4));
#333 = CARTESIAN_POINT('', (2.69484193876077E-15, 7.59281015471359E-16, -12.4));
#334 = PRESENTATION_STYLE_ASSIGNMENT((#335));
#335 = SURFACE_STYLE_USAGE(.POSITIVE., #336);
#336 = SURFACE_SIDE_STYLE('', (#337));
#337 = SURFACE_STYLE_FILL_AREA(#338);
#338 = FILL_AREA_STYLE('', (#339));
#339 = FILL_AREA_STYLE_COLOUR('', #340);
#340 = COLOUR_RGB('', 0.8, 0.8, 0.8);
#341 = STYLED_ITEM('', (#334), #234);
#342 = TRIMMED_CURVE('cutting part line', #343, (#347), (#348), .T., .CARTESIAN.);
#343 = LINE('', #344, #345);
#344 = CARTESIAN_POINT('', (-7.76125687527511E-32, -4.22503145705837E-16, -6.9));
#345 = VECTOR('', #346, 4.85);
#346 = DIRECTION('', (4.85, -8.90930546379699E-16, 0.));
#347 = CARTESIAN_POINT('', (-7.76125687527511E-32, -4.22503145705837E-16, -6.9));
#348 = CARTESIAN_POINT('', (4.85, -1.31343369208554E-15, -6.9));
#349 = TRIMMED_CURVE('cutting part line', #350, (#354), (#355), .T., .CARTESIAN.);
#350 = LINE('', #351, #352);
#351 = CARTESIAN_POINT('', (4.85, -1.31343369208554E-15, -6.9));
#352 = VECTOR('', #353, 0.15);
#353 = DIRECTION('', (0.15, -2.75545529808153E-17, 0.));
#354 = CARTESIAN_POINT('', (4.85, -1.31343369208554E-15, -6.9));
#355 = CARTESIAN_POINT('', (5., -1.34098824506635E-15, -6.9));
#356 = TRIMMED_CURVE('cutting part line', #357, (#361), (#362), .T., .CARTESIAN.);
#357 = LINE('', #358, #359);
#358 = CARTESIAN_POINT('', (5., -1.34098824506635E-15, -6.9));
#359 = VECTOR('', #360, 0.5);
#360 = DIRECTION('', (0., -3.06161699786842E-17, -0.5));
#361 = CARTESIAN_POINT('', (5., -1.34098824506635E-15, -6.9));
#362 = CARTESIAN_POINT('', (5., -1.37160441504504E-15, -7.4));
#363 = TRIMMED_CURVE('cutting part line', #364, (#369), (#370), .T., .CARTESIAN.);
#364 = CIRCLE('', #365, 5.00000000000001);
#365 = AXIS2_PLACEMENT_3D('', #366, #367, #368);
#366 = CARTESIAN_POINT('', (-7.99360577730113E-15, -4.53119315684516E-16, -7.4));
#367 = DIRECTION('', (1.83697019872103E-16, 1., -6.12323399573682E-17));
#368 = DIRECTION('', (1., -1.83697019872104E-16, -1.06581410364015E-15));
#369 = CARTESIAN_POINT('', (5., -1.37160441504504E-15, -7.4));
#370 = CARTESIAN_POINT('', (-4.13473039871377E-15, -7.59281015471359E-16, -12.4));
#371 = TRIMMED_CURVE('cutting part line', #372, (#376), (#377), .T., .CARTESIAN.);
#372 = LINE('', #373, #374);
#373 = CARTESIAN_POINT('', (-1.39477659787553E-31, -7.59281015471359E-16, -12.4));
#374 = VECTOR('', #375, 5.5);
#375 = DIRECTION('', (6.18650910348017E-32, 3.36777869765522E-16, 5.5));
#376 = CARTESIAN_POINT('', (-1.39477659787553E-31, -7.59281015471359E-16, -12.4));
#377 = CARTESIAN_POINT('', (-7.76125687527511E-32, -4.22503145705837E-16, -6.9));
#378 = COMPOSITE_CURVE('cutting part line', (#379, #380, #381, #382, #383), .U.);
#379 = COMPOSITE_CURVE_SEGMENT(.CONTINUOUS., .T., #342);
#380 = COMPOSITE_CURVE_SEGMENT(.CONTINUOUS., .T., #349);
#381 = COMPOSITE_CURVE_SEGMENT(.CONTINUOUS., .T., #356);
#382 = COMPOSITE_CURVE_SEGMENT(.CONTINUOUS., .T., #363);
#383 = COMPOSITE_CURVE_SEGMENT(.CONTINUOUS., .T., #371);
#384 = GEOMETRIC_SET('', (#378, #427));
#385 = PRESENTATION_STYLE_ASSIGNMENT((#386));
#386 = CURVE_STYLE('', #388, POSITIVE_LENGTH_MEASURE(1.E-6), #387);
#387 = COLOUR_RGB('', 0., 0., 1.);
#388 = DRAUGHTING_PRE_DEFINED_CURVE_FONT('continuous');
#389 = STYLED_ITEM('', (#385), #378);
#390 = PRESENTATION_STYLE_ASSIGNMENT((#391));
#391 = CURVE_STYLE('', #393, POSITIVE_LENGTH_MEASURE(1.E-6), #392);
#392 = COLOUR_RGB('', 0., 0., 1.);
#393 = DRAUGHTING_PRE_DEFINED_CURVE_FONT('continuous');
#394 = OVER_RIDING_STYLED_ITEM('', (#390), #342, #389);
#395 = PRESENTATION_STYLE_ASSIGNMENT((#396));
#396 = CURVE_STYLE('', #398, POSITIVE_LENGTH_MEASURE(1.E-6), #397);
#397 = COLOUR_RGB('', 0., 0., 1.);
#398 = DRAUGHTING_PRE_DEFINED_CURVE_FONT('continuous');
#399 = OVER_RIDING_STYLED_ITEM('', (#395), #349, #389);
#400 = PRESENTATION_STYLE_ASSIGNMENT((#401));
#401 = CURVE_STYLE('', #403, POSITIVE_LENGTH_MEASURE(1.E-6), #402);
#402 = COLOUR_RGB('', 0., 0., 1.);
#403 = DRAUGHTING_PRE_DEFINED_CURVE_FONT('continuous');
#404 = OVER_RIDING_STYLED_ITEM('', (#400), #356, #389);
#405 = PRESENTATION_STYLE_ASSIGNMENT((#406));
#406 = CURVE_STYLE('', #408, POSITIVE_LENGTH_MEASURE(1.E-6), #407);
#407 = COLOUR_RGB('', 0., 0., 1.);
#408 = DRAUGHTING_PRE_DEFINED_CURVE_FONT('continuous');
#409 = OVER_RIDING_STYLED_ITEM('', (#405), #363, #389);
#410 = PRESENTATION_STYLE_ASSIGNMENT((#411));
#411 = CURVE_STYLE('', #413, POSITIVE_LENGTH_MEASURE(1.E-6), #412);
#412 = COLOUR_RGB('', 0., 0., 1.);
#413 = DRAUGHTING_PRE_DEFINED_CURVE_FONT('continuous');
#414 = OVER_RIDING_STYLED_ITEM('', (#410), #371, #389);
#415 = AXIS2_PLACEMENT_3D('CIP', #416, #417, #418);
#416 = CARTESIAN_POINT('', (4.64925532625176E-32, 7.59281015471359E-16, -12.4));
#417 = DIRECTION('', (-3.74939945665465E-33, -6.12323399573677E-17, 1.));
#418 = DIRECTION('', (1., -6.12323399573677E-17, 0.));
#419 = AXIS2_PLACEMENT_3D('MCS', #420, #421, #422);
#420 = CARTESIAN_POINT('', (0., 0., 0.));
#421 = DIRECTION('', (0., 0., 1.));
#422 = DIRECTION('', (1., 0., 0.));
#423 = AXIS2_PLACEMENT_3D('PCS', #424, #425, #426);
#424 = CARTESIAN_POINT('', (0., 0., 0.));
#425 = DIRECTION('', (0., 0., 1.));
#426 = DIRECTION('', (1., 0., 0.));
#427 = CARTESIAN_POINT('CRP', (5., 0., -12.4));
#428 = (
   GEOMETRIC_REPRESENTATION_CONTEXT (3)
   GLOBAL_UNCERTAINTY_ASSIGNED_CONTEXT ((#430))
   GLOBAL_UNIT_ASSIGNED_CONTEXT ((#429, #431, #432))
   REPRESENTATION_CONTEXT ('', '3D')
);
#429 = (
   LENGTH_UNIT ()
   NAMED_UNIT (*)
   SI_UNIT (.MILLI., .METRE.)
);
#430 = UNCERTAINTY_MEASURE_WITH_UNIT(LENGTH_MEASURE(1.E-6), #429, 'DISTANCE_ACCURACY_VALUE', '');
#431 = (
   NAMED_UNIT (*)
   SI_UNIT ($, .STERADIAN.)
   SOLID_ANGLE_UNIT ()
);
#432 = (
   NAMED_UNIT (*)
   PLANE_ANGLE_UNIT ()
   SI_UNIT ($, .RADIAN.)
);
#433 = SHAPE_REPRESENTATION('', (), #428);
#434 = PRODUCT_DEFINITION_SHAPE('', '', #435);
#435 = PRODUCT_DEFINITION('', '', #438, #442);
#436 = APPLICATION_CONTEXT('configuration controlled 3D designs of mechanical parts and assemblies');
#437 = APPLICATION_PROTOCOL_DEFINITION('International Standard', 'automotive_design', 2002, #436);
#438 = PRODUCT_DEFINITION_FORMATION_WITH_SPECIFIED_SOURCE('', '', #439, .NOT_KNOWN.);
#439 = PRODUCT('EmptyName', 'EmptyName', '', (#440));
#440 = PRODUCT_CONTEXT('', #436, 'mechanical');
#441 = PRODUCT_RELATED_PRODUCT_CATEGORY('detail', '', (#439));
#442 = PRODUCT_DEFINITION_CONTEXT('part definition', #436, 'design');
#443 = SHAPE_DEFINITION_REPRESENTATION(#434, #433);
#444 = CONSTRUCTIVE_GEOMETRY_REPRESENTATION('supplemental geometry', (#415, #419, #423), #428);
#445 = CONSTRUCTIVE_GEOMETRY_REPRESENTATION_RELATIONSHIP('', '', #433, #444);
#446 = SHAPE_REPRESENTATION_RELATIONSHIP('', '', #433, #447);
#447 = SHAPE_REPRESENTATION('', (#384), #428);
#448 = SHAPE_REPRESENTATION_RELATIONSHIP('', '', #433, #449);
#449 = ADVANCED_BREP_SHAPE_REPRESENTATION('', (#1, #234), #428);
ENDSEC;
END-ISO-10303-21;
