ISO-10303-21;
HEADER;
/* Generated by software containing ST-Developer
 * from STEP Tools, Inc. (www.steptools.com) 
 */
/* OPTION: using custom schema-name function */

FILE_DESCRIPTION(
/* description */ (''),
/* implementation_level */ '2;1');

FILE_NAME(
/* name */ '1576154011455.stp',
/* time_stamp */ '2019-12-12T13:33:37+01:00',
/* author */ (''),
/* organization */ ('SMS'),
/* preprocessor_version */ 'ST-DEVELOPER v16.7',
/* originating_system */ 'SIEMENS PLM Software NX 12.0',
/* authorisation */ '');

FILE_SCHEMA (('AUTOMOTIVE_DESIGN { 1 0 10303 214 3 1 1 1 }'));
ENDSEC;

DATA;
#10=CONSTRUCTIVE_GEOMETRY_REPRESENTATION_RELATIONSHIP(
'supplemental geometry','',#26,#11);
#11=CONSTRUCTIVE_GEOMETRY_REPRESENTATION('supplemental geometry',(#309,
#310,#311),#530);
#12=GEOMETRICALLY_BOUNDED_WIREFRAME_SHAPE_REPRESENTATION(
'112029290mod000_01-None',(#27),#530);
#13=SHAPE_REPRESENTATION_RELATIONSHIP('None',
'relationship between 112029290mod000_01-None and 112029290mod000_01-N
one',#26,#15);
#14=SHAPE_REPRESENTATION_RELATIONSHIP('None',
'relationship between 112029290mod000_01-None and 112029290mod000_01-N
one',#26,#12);
#15=ADVANCED_BREP_SHAPE_REPRESENTATION('112029290mod000_01-None',(#33),
#530);
#16=SHAPE_DEFINITION_REPRESENTATION(#17,#26);
#17=PRODUCT_DEFINITION_SHAPE('','',#18);
#18=PRODUCT_DEFINITION(' ','',#20,#19);
#19=PRODUCT_DEFINITION_CONTEXT('part definition',#25,'design');
#20=PRODUCT_DEFINITION_FORMATION_WITH_SPECIFIED_SOURCE(' ',' ',#22,
 .NOT_KNOWN.);
#21=PRODUCT_RELATED_PRODUCT_CATEGORY('part','',(#22));
#22=PRODUCT('112029290mod000_01','112029290mod000_01',' ',(#23));
#23=PRODUCT_CONTEXT(' ',#25,'mechanical');
#24=APPLICATION_PROTOCOL_DEFINITION('international standard',
'automotive_design',2010,#25);
#25=APPLICATION_CONTEXT(
'core data for automotive mechanical design processes');
#26=SHAPE_REPRESENTATION('112029290mod000_01-None',(#308),#530);
#27=GEOMETRIC_CURVE_SET('None',(#456,#457,#458));
#28=SURFACE_STYLE_USAGE(.BOTH.,#29);
#29=SURFACE_SIDE_STYLE('',(#30));
#30=SURFACE_STYLE_FILL_AREA(#31);
#31=FILL_AREA_STYLE('',(#32));
#32=FILL_AREA_STYLE_COLOUR('',#307);
#33=MANIFOLD_SOLID_BREP('NOCUT',#34);
#34=CLOSED_SHELL('',(#54,#55,#56,#57,#58,#59,#60,#61,#62,#63,#64,#65,#66,
#67,#68,#69,#70,#71,#72,#73,#74,#75,#76));
#35=TOROIDAL_SURFACE('',#355,38.,1.);
#36=FACE_OUTER_BOUND('',#155,.T.);
#37=FACE_OUTER_BOUND('',#160,.T.);
#38=PLANE('',#318);
#39=PLANE('',#326);
#40=PLANE('',#329);
#41=PLANE('',#337);
#42=PLANE('',#344);
#43=PLANE('',#349);
#44=PLANE('',#356);
#45=CONICAL_SURFACE('',#316,31.9094667149865,60.0000047726806);
#46=CONICAL_SURFACE('',#321,37.9576631560151,45.0000041501556);
#47=CONICAL_SURFACE('',#324,36.9416630081552,45.0000041691833);
#48=CONICAL_SURFACE('',#331,39.9974104301849,45.0000037602418);
#49=CONICAL_SURFACE('',#334,39.5181123683045,45.0000036986231);
#50=CONICAL_SURFACE('',#339,42.9984461862776,45.0000035306489);
#51=CONICAL_SURFACE('',#342,38.3837736156978,45.0000035421632);
#52=CONICAL_SURFACE('',#347,19.,44.9999999999999);
#53=CONICAL_SURFACE('',#351,39.,60.);
#54=ADVANCED_FACE('',(#83,#84),#77,.T.);
#55=ADVANCED_FACE('',(#85,#86),#45,.T.);
#56=ADVANCED_FACE('',(#87,#88),#38,.T.);
#57=ADVANCED_FACE('',(#89,#90),#46,.T.);
#58=ADVANCED_FACE('',(#91,#92),#78,.T.);
#59=ADVANCED_FACE('',(#93,#94),#47,.T.);
#60=ADVANCED_FACE('',(#95,#96),#39,.T.);
#61=ADVANCED_FACE('',(#97,#98),#40,.F.);
#62=ADVANCED_FACE('',(#99,#100),#48,.T.);
#63=ADVANCED_FACE('',(#101,#102),#79,.T.);
#64=ADVANCED_FACE('',(#103,#104),#49,.T.);
#65=ADVANCED_FACE('',(#105,#106),#41,.F.);
#66=ADVANCED_FACE('',(#107,#108),#50,.T.);
#67=ADVANCED_FACE('',(#109,#110),#80,.T.);
#68=ADVANCED_FACE('',(#111,#112),#51,.T.);
#69=ADVANCED_FACE('',(#36),#42,.T.);
#70=ADVANCED_FACE('',(#113,#114),#81,.T.);
#71=ADVANCED_FACE('',(#115,#116),#52,.T.);
#72=ADVANCED_FACE('',(#37),#43,.F.);
#73=ADVANCED_FACE('',(#117,#118),#53,.T.);
#74=ADVANCED_FACE('',(#119,#120),#82,.T.);
#75=ADVANCED_FACE('',(#121,#122),#35,.T.);
#76=ADVANCED_FACE('',(#123,#124),#44,.F.);
#77=CYLINDRICAL_SURFACE('',#314,31.9094667149865);
#78=CYLINDRICAL_SURFACE('',#323,37.9576631560151);
#79=CYLINDRICAL_SURFACE('',#333,39.9974104301849);
#80=CYLINDRICAL_SURFACE('',#341,42.9984461862776);
#81=CYLINDRICAL_SURFACE('',#346,20.);
#82=CYLINDRICAL_SURFACE('',#353,39.);
#83=FACE_BOUND('',#125,.T.);
#84=FACE_BOUND('',#126,.T.);
#85=FACE_BOUND('',#127,.T.);
#86=FACE_BOUND('',#128,.T.);
#87=FACE_BOUND('',#129,.T.);
#88=FACE_BOUND('',#130,.T.);
#89=FACE_BOUND('',#131,.T.);
#90=FACE_BOUND('',#132,.T.);
#91=FACE_BOUND('',#133,.T.);
#92=FACE_BOUND('',#134,.T.);
#93=FACE_BOUND('',#135,.T.);
#94=FACE_BOUND('',#136,.T.);
#95=FACE_BOUND('',#137,.T.);
#96=FACE_BOUND('',#138,.T.);
#97=FACE_BOUND('',#139,.T.);
#98=FACE_BOUND('',#140,.T.);
#99=FACE_BOUND('',#141,.T.);
#100=FACE_BOUND('',#142,.T.);
#101=FACE_BOUND('',#143,.T.);
#102=FACE_BOUND('',#144,.T.);
#103=FACE_BOUND('',#145,.T.);
#104=FACE_BOUND('',#146,.T.);
#105=FACE_BOUND('',#147,.T.);
#106=FACE_BOUND('',#148,.T.);
#107=FACE_BOUND('',#149,.T.);
#108=FACE_BOUND('',#150,.T.);
#109=FACE_BOUND('',#151,.T.);
#110=FACE_BOUND('',#152,.T.);
#111=FACE_BOUND('',#153,.T.);
#112=FACE_BOUND('',#154,.T.);
#113=FACE_BOUND('',#156,.T.);
#114=FACE_BOUND('',#157,.T.);
#115=FACE_BOUND('',#158,.T.);
#116=FACE_BOUND('',#159,.T.);
#117=FACE_BOUND('',#161,.T.);
#118=FACE_BOUND('',#162,.T.);
#119=FACE_BOUND('',#163,.T.);
#120=FACE_BOUND('',#164,.T.);
#121=FACE_BOUND('',#165,.T.);
#122=FACE_BOUND('',#166,.T.);
#123=FACE_BOUND('',#167,.T.);
#124=FACE_BOUND('',#168,.T.);
#125=EDGE_LOOP('',(#169));
#126=EDGE_LOOP('',(#170));
#127=EDGE_LOOP('',(#171));
#128=EDGE_LOOP('',(#172));
#129=EDGE_LOOP('',(#173));
#130=EDGE_LOOP('',(#174));
#131=EDGE_LOOP('',(#175));
#132=EDGE_LOOP('',(#176));
#133=EDGE_LOOP('',(#177));
#134=EDGE_LOOP('',(#178));
#135=EDGE_LOOP('',(#179));
#136=EDGE_LOOP('',(#180));
#137=EDGE_LOOP('',(#181));
#138=EDGE_LOOP('',(#182));
#139=EDGE_LOOP('',(#183));
#140=EDGE_LOOP('',(#184));
#141=EDGE_LOOP('',(#185));
#142=EDGE_LOOP('',(#186));
#143=EDGE_LOOP('',(#187));
#144=EDGE_LOOP('',(#188));
#145=EDGE_LOOP('',(#189));
#146=EDGE_LOOP('',(#190));
#147=EDGE_LOOP('',(#191));
#148=EDGE_LOOP('',(#192));
#149=EDGE_LOOP('',(#193));
#150=EDGE_LOOP('',(#194));
#151=EDGE_LOOP('',(#195));
#152=EDGE_LOOP('',(#196));
#153=EDGE_LOOP('',(#197));
#154=EDGE_LOOP('',(#198));
#155=EDGE_LOOP('',(#199));
#156=EDGE_LOOP('',(#200));
#157=EDGE_LOOP('',(#201));
#158=EDGE_LOOP('',(#202));
#159=EDGE_LOOP('',(#203));
#160=EDGE_LOOP('',(#204));
#161=EDGE_LOOP('',(#205));
#162=EDGE_LOOP('',(#206));
#163=EDGE_LOOP('',(#207));
#164=EDGE_LOOP('',(#208));
#165=EDGE_LOOP('',(#209));
#166=EDGE_LOOP('',(#210));
#167=EDGE_LOOP('',(#211));
#168=EDGE_LOOP('',(#212));
#169=ORIENTED_EDGE('',*,*,#235,.T.);
#170=ORIENTED_EDGE('',*,*,#236,.T.);
#171=ORIENTED_EDGE('',*,*,#237,.F.);
#172=ORIENTED_EDGE('',*,*,#235,.F.);
#173=ORIENTED_EDGE('',*,*,#237,.T.);
#174=ORIENTED_EDGE('',*,*,#238,.T.);
#175=ORIENTED_EDGE('',*,*,#239,.F.);
#176=ORIENTED_EDGE('',*,*,#240,.F.);
#177=ORIENTED_EDGE('',*,*,#240,.T.);
#178=ORIENTED_EDGE('',*,*,#241,.F.);
#179=ORIENTED_EDGE('',*,*,#241,.T.);
#180=ORIENTED_EDGE('',*,*,#238,.F.);
#181=ORIENTED_EDGE('',*,*,#239,.T.);
#182=ORIENTED_EDGE('',*,*,#242,.T.);
#183=ORIENTED_EDGE('',*,*,#243,.T.);
#184=ORIENTED_EDGE('',*,*,#244,.F.);
#185=ORIENTED_EDGE('',*,*,#244,.T.);
#186=ORIENTED_EDGE('',*,*,#245,.F.);
#187=ORIENTED_EDGE('',*,*,#245,.T.);
#188=ORIENTED_EDGE('',*,*,#246,.F.);
#189=ORIENTED_EDGE('',*,*,#246,.T.);
#190=ORIENTED_EDGE('',*,*,#242,.F.);
#191=ORIENTED_EDGE('',*,*,#247,.F.);
#192=ORIENTED_EDGE('',*,*,#248,.F.);
#193=ORIENTED_EDGE('',*,*,#248,.T.);
#194=ORIENTED_EDGE('',*,*,#249,.F.);
#195=ORIENTED_EDGE('',*,*,#249,.T.);
#196=ORIENTED_EDGE('',*,*,#250,.F.);
#197=ORIENTED_EDGE('',*,*,#250,.T.);
#198=ORIENTED_EDGE('',*,*,#243,.F.);
#199=ORIENTED_EDGE('',*,*,#251,.T.);
#200=ORIENTED_EDGE('',*,*,#252,.T.);
#201=ORIENTED_EDGE('',*,*,#247,.T.);
#202=ORIENTED_EDGE('',*,*,#252,.F.);
#203=ORIENTED_EDGE('',*,*,#251,.F.);
#204=ORIENTED_EDGE('',*,*,#253,.T.);
#205=ORIENTED_EDGE('',*,*,#253,.F.);
#206=ORIENTED_EDGE('',*,*,#254,.T.);
#207=ORIENTED_EDGE('',*,*,#254,.F.);
#208=ORIENTED_EDGE('',*,*,#255,.T.);
#209=ORIENTED_EDGE('',*,*,#256,.T.);
#210=ORIENTED_EDGE('',*,*,#255,.F.);
#211=ORIENTED_EDGE('',*,*,#236,.F.);
#212=ORIENTED_EDGE('',*,*,#256,.F.);
#213=VERTEX_POINT('',#463);
#214=VERTEX_POINT('',#465);
#215=VERTEX_POINT('',#468);
#216=VERTEX_POINT('',#471);
#217=VERTEX_POINT('',#474);
#218=VERTEX_POINT('',#476);
#219=VERTEX_POINT('',#479);
#220=VERTEX_POINT('',#483);
#221=VERTEX_POINT('',#486);
#222=VERTEX_POINT('',#488);
#223=VERTEX_POINT('',#491);
#224=VERTEX_POINT('',#494);
#225=VERTEX_POINT('',#498);
#226=VERTEX_POINT('',#500);
#227=VERTEX_POINT('',#503);
#228=VERTEX_POINT('',#506);
#229=VERTEX_POINT('',#510);
#230=VERTEX_POINT('',#513);
#231=VERTEX_POINT('',#517);
#232=VERTEX_POINT('',#520);
#233=VERTEX_POINT('',#523);
#234=VERTEX_POINT('',#526);
#235=EDGE_CURVE('',#213,#213,#257,.T.);
#236=EDGE_CURVE('',#214,#214,#258,.T.);
#237=EDGE_CURVE('',#215,#215,#259,.T.);
#238=EDGE_CURVE('',#216,#216,#260,.T.);
#239=EDGE_CURVE('',#217,#217,#261,.T.);
#240=EDGE_CURVE('',#218,#218,#262,.T.);
#241=EDGE_CURVE('',#219,#219,#263,.T.);
#242=EDGE_CURVE('',#220,#220,#264,.T.);
#243=EDGE_CURVE('',#221,#221,#265,.T.);
#244=EDGE_CURVE('',#222,#222,#266,.T.);
#245=EDGE_CURVE('',#223,#223,#267,.T.);
#246=EDGE_CURVE('',#224,#224,#268,.T.);
#247=EDGE_CURVE('',#225,#225,#269,.T.);
#248=EDGE_CURVE('',#226,#226,#270,.T.);
#249=EDGE_CURVE('',#227,#227,#271,.T.);
#250=EDGE_CURVE('',#228,#228,#272,.T.);
#251=EDGE_CURVE('',#229,#229,#273,.T.);
#252=EDGE_CURVE('',#230,#230,#274,.T.);
#253=EDGE_CURVE('',#231,#231,#275,.T.);
#254=EDGE_CURVE('',#232,#232,#276,.T.);
#255=EDGE_CURVE('',#233,#233,#277,.T.);
#256=EDGE_CURVE('',#234,#234,#278,.T.);
#257=CIRCLE('',#312,31.9094667149865);
#258=CIRCLE('',#313,31.9094667149865);
#259=CIRCLE('',#315,33.0753524247505);
#260=CIRCLE('',#317,36.9416630081552);
#261=CIRCLE('',#319,37.0825941365657);
#262=CIRCLE('',#320,37.9576631560151);
#263=CIRCLE('',#322,37.9576631560151);
#264=CIRCLE('',#325,39.5181123683045);
#265=CIRCLE('',#327,38.3837736156978);
#266=CIRCLE('',#328,38.8687493443948);
#267=CIRCLE('',#330,39.9974104301849);
#268=CIRCLE('',#332,39.9974104301849);
#269=CIRCLE('',#335,20.);
#270=CIRCLE('',#336,38.5590210391499);
#271=CIRCLE('',#338,42.9984461862776);
#272=CIRCLE('',#340,42.9984461862776);
#273=CIRCLE('',#343,19.);
#274=CIRCLE('',#345,20.);
#275=CIRCLE('',#348,32.0717967697245);
#276=CIRCLE('',#350,39.);
#277=CIRCLE('',#352,39.);
#278=CIRCLE('',#354,38.);
#279=CURVE_STYLE('',#282,POSITIVE_LENGTH_MEASURE(0.18),#306);
#280=CURVE_STYLE('',#283,POSITIVE_LENGTH_MEASURE(0.18),#306);
#281=CURVE_STYLE('',#284,POSITIVE_LENGTH_MEASURE(0.18),#306);
#282=DRAUGHTING_PRE_DEFINED_CURVE_FONT('continuous');
#283=DRAUGHTING_PRE_DEFINED_CURVE_FONT('continuous');
#284=DRAUGHTING_PRE_DEFINED_CURVE_FONT('continuous');
#285=PRESENTATION_LAYER_ASSIGNMENT('1','Layer 1',(#456,#457,#458,#309,#310,
#311,#33));
#286=STYLED_ITEM('',(#293),#456);
#287=STYLED_ITEM('',(#294),#457);
#288=STYLED_ITEM('',(#295),#458);
#289=STYLED_ITEM('',(#296),#309);
#290=STYLED_ITEM('',(#297),#310);
#291=STYLED_ITEM('',(#298),#311);
#292=STYLED_ITEM('',(#299),#33);
#293=PRESENTATION_STYLE_ASSIGNMENT((#300));
#294=PRESENTATION_STYLE_ASSIGNMENT((#301));
#295=PRESENTATION_STYLE_ASSIGNMENT((#302));
#296=PRESENTATION_STYLE_ASSIGNMENT((#279));
#297=PRESENTATION_STYLE_ASSIGNMENT((#280));
#298=PRESENTATION_STYLE_ASSIGNMENT((#281));
#299=PRESENTATION_STYLE_ASSIGNMENT((#28));
#300=POINT_STYLE('',#303,POSITIVE_LENGTH_MEASURE(3.),#306);
#301=POINT_STYLE('',#304,POSITIVE_LENGTH_MEASURE(3.),#306);
#302=POINT_STYLE('',#305,POSITIVE_LENGTH_MEASURE(3.),#306);
#303=PRE_DEFINED_POINT_MARKER_SYMBOL('plus');
#304=PRE_DEFINED_POINT_MARKER_SYMBOL('plus');
#305=PRE_DEFINED_POINT_MARKER_SYMBOL('plus');
#306=COLOUR_RGB('Medium Maroon',0.6,0.4,0.4);
#307=COLOUR_RGB('TLS_NOCUT',0.501960784313725,0.501960784313725,0.501960784313725);
#308=AXIS2_PLACEMENT_3D('',#455,#357,#358);
#309=AXIS2_PLACEMENT_3D('PCS',#459,#359,#360);
#310=AXIS2_PLACEMENT_3D('MCS',#460,#361,#362);
#311=AXIS2_PLACEMENT_3D('CSW',#461,#363,#364);
#312=AXIS2_PLACEMENT_3D('',#462,#365,#366);
#313=AXIS2_PLACEMENT_3D('',#464,#367,#368);
#314=AXIS2_PLACEMENT_3D('',#466,#369,#370);
#315=AXIS2_PLACEMENT_3D('',#467,#371,#372);
#316=AXIS2_PLACEMENT_3D('',#469,#373,#374);
#317=AXIS2_PLACEMENT_3D('',#470,#375,#376);
#318=AXIS2_PLACEMENT_3D('',#472,#377,#378);
#319=AXIS2_PLACEMENT_3D('',#473,#379,#380);
#320=AXIS2_PLACEMENT_3D('',#475,#381,#382);
#321=AXIS2_PLACEMENT_3D('',#477,#383,#384);
#322=AXIS2_PLACEMENT_3D('',#478,#385,#386);
#323=AXIS2_PLACEMENT_3D('',#480,#387,#388);
#324=AXIS2_PLACEMENT_3D('',#481,#389,#390);
#325=AXIS2_PLACEMENT_3D('',#482,#391,#392);
#326=AXIS2_PLACEMENT_3D('',#484,#393,#394);
#327=AXIS2_PLACEMENT_3D('',#485,#395,#396);
#328=AXIS2_PLACEMENT_3D('',#487,#397,#398);
#329=AXIS2_PLACEMENT_3D('',#489,#399,#400);
#330=AXIS2_PLACEMENT_3D('',#490,#401,#402);
#331=AXIS2_PLACEMENT_3D('',#492,#403,#404);
#332=AXIS2_PLACEMENT_3D('',#493,#405,#406);
#333=AXIS2_PLACEMENT_3D('',#495,#407,#408);
#334=AXIS2_PLACEMENT_3D('',#496,#409,#410);
#335=AXIS2_PLACEMENT_3D('',#497,#411,#412);
#336=AXIS2_PLACEMENT_3D('',#499,#413,#414);
#337=AXIS2_PLACEMENT_3D('',#501,#415,#416);
#338=AXIS2_PLACEMENT_3D('',#502,#417,#418);
#339=AXIS2_PLACEMENT_3D('',#504,#419,#420);
#340=AXIS2_PLACEMENT_3D('',#505,#421,#422);
#341=AXIS2_PLACEMENT_3D('',#507,#423,#424);
#342=AXIS2_PLACEMENT_3D('',#508,#425,#426);
#343=AXIS2_PLACEMENT_3D('',#509,#427,#428);
#344=AXIS2_PLACEMENT_3D('',#511,#429,#430);
#345=AXIS2_PLACEMENT_3D('',#512,#431,#432);
#346=AXIS2_PLACEMENT_3D('',#514,#433,#434);
#347=AXIS2_PLACEMENT_3D('',#515,#435,#436);
#348=AXIS2_PLACEMENT_3D('',#516,#437,#438);
#349=AXIS2_PLACEMENT_3D('',#518,#439,#440);
#350=AXIS2_PLACEMENT_3D('',#519,#441,#442);
#351=AXIS2_PLACEMENT_3D('',#521,#443,#444);
#352=AXIS2_PLACEMENT_3D('',#522,#445,#446);
#353=AXIS2_PLACEMENT_3D('',#524,#447,#448);
#354=AXIS2_PLACEMENT_3D('',#525,#449,#450);
#355=AXIS2_PLACEMENT_3D('',#527,#451,#452);
#356=AXIS2_PLACEMENT_3D('',#528,#453,#454);
#357=DIRECTION('',(0.,0.,1.));
#358=DIRECTION('',(1.,0.,0.));
#359=DIRECTION('',(0.,0.,1.));
#360=DIRECTION('',(1.,0.,0.));
#361=DIRECTION('',(0.,0.,1.));
#362=DIRECTION('',(1.,0.,0.));
#363=DIRECTION('',(0.,0.,1.));
#364=DIRECTION('',(1.,0.,0.));
#365=DIRECTION('',(0.,0.,-1.));
#366=DIRECTION('',(-1.,0.,0.));
#367=DIRECTION('',(0.,0.,1.));
#368=DIRECTION('',(-1.,0.,0.));
#369=DIRECTION('',(0.,0.,-1.));
#370=DIRECTION('',(-1.,0.,0.));
#371=DIRECTION('',(0.,0.,1.));
#372=DIRECTION('',(-1.,0.,0.));
#373=DIRECTION('',(0.,0.,1.));
#374=DIRECTION('',(1.,0.,0.));
#375=DIRECTION('',(0.,0.,-1.));
#376=DIRECTION('',(-1.,0.,0.));
#377=DIRECTION('',(0.,0.,-1.));
#378=DIRECTION('',(-1.,0.,0.));
#379=DIRECTION('',(0.,0.,1.));
#380=DIRECTION('',(-1.,0.,0.));
#381=DIRECTION('',(0.,0.,-1.));
#382=DIRECTION('',(-1.,0.,0.));
#383=DIRECTION('',(0.,0.,-1.));
#384=DIRECTION('',(-1.,0.,0.));
#385=DIRECTION('',(0.,0.,-1.));
#386=DIRECTION('',(-1.,0.,0.));
#387=DIRECTION('',(0.,0.,-1.));
#388=DIRECTION('',(-1.,0.,0.));
#389=DIRECTION('',(0.,0.,1.));
#390=DIRECTION('',(1.,0.,-5.35335259645963E-17));
#391=DIRECTION('',(0.,0.,-1.));
#392=DIRECTION('',(-1.,0.,0.));
#393=DIRECTION('',(0.,0.,-1.));
#394=DIRECTION('',(-1.,0.,0.));
#395=DIRECTION('',(0.,0.,-1.));
#396=DIRECTION('',(-1.,0.,0.));
#397=DIRECTION('',(0.,0.,-1.));
#398=DIRECTION('',(-1.,0.,0.));
#399=DIRECTION('',(0.,0.,-1.));
#400=DIRECTION('',(-1.,0.,0.));
#401=DIRECTION('',(0.,0.,-1.));
#402=DIRECTION('',(-1.,0.,0.));
#403=DIRECTION('',(0.,0.,-1.));
#404=DIRECTION('',(-1.,0.,-9.34084079632384E-17));
#405=DIRECTION('',(0.,0.,-1.));
#406=DIRECTION('',(-1.,0.,0.));
#407=DIRECTION('',(0.,0.,-1.));
#408=DIRECTION('',(-1.,0.,0.));
#409=DIRECTION('',(0.,0.,1.));
#410=DIRECTION('',(1.,0.,2.67004218956813E-17));
#411=DIRECTION('',(0.,0.,1.));
#412=DIRECTION('',(1.,0.,0.));
#413=DIRECTION('',(0.,0.,-1.));
#414=DIRECTION('',(-1.,0.,0.));
#415=DIRECTION('',(0.,0.,-1.));
#416=DIRECTION('',(-1.,0.,0.));
#417=DIRECTION('',(0.,0.,-1.));
#418=DIRECTION('',(-1.,0.,0.));
#419=DIRECTION('',(0.,0.,-1.));
#420=DIRECTION('',(-1.,0.,0.));
#421=DIRECTION('',(0.,0.,-1.));
#422=DIRECTION('',(-1.,0.,0.));
#423=DIRECTION('',(0.,0.,-1.));
#424=DIRECTION('',(-1.,0.,0.));
#425=DIRECTION('',(0.,0.,1.));
#426=DIRECTION('',(1.,0.,1.33647948937064E-17));
#427=DIRECTION('',(0.,0.,1.));
#428=DIRECTION('',(1.,0.,0.));
#429=DIRECTION('',(0.,0.,1.));
#430=DIRECTION('',(1.,0.,0.));
#431=DIRECTION('',(0.,0.,-1.));
#432=DIRECTION('',(1.,0.,0.));
#433=DIRECTION('',(0.,0.,1.));
#434=DIRECTION('',(1.,0.,0.));
#435=DIRECTION('',(0.,0.,-1.));
#436=DIRECTION('',(-1.,0.,0.));
#437=DIRECTION('',(0.,0.,-1.));
#438=DIRECTION('',(0.,1.,0.));
#439=DIRECTION('',(0.,0.,1.));
#440=DIRECTION('',(0.,-1.,0.));
#441=DIRECTION('',(0.,0.,-1.));
#442=DIRECTION('',(0.,1.,0.));
#443=DIRECTION('',(0.,0.,1.));
#444=DIRECTION('',(0.,-1.,3.13436243579358E-17));
#445=DIRECTION('',(0.,0.,-1.));
#446=DIRECTION('',(0.,1.,0.));
#447=DIRECTION('',(0.,0.,-1.));
#448=DIRECTION('',(0.,1.,0.));
#449=DIRECTION('',(0.,0.,-1.));
#450=DIRECTION('',(0.,1.,0.));
#451=DIRECTION('',(0.,0.,-1.));
#452=DIRECTION('',(0.,1.,0.));
#453=DIRECTION('',(0.,0.,-1.));
#454=DIRECTION('',(0.,1.,0.));
#455=CARTESIAN_POINT('',(0.,0.,0.));
#456=CARTESIAN_POINT('PCS',(0.,0.,0.));
#457=CARTESIAN_POINT('MCS',(0.,0.,-70.));
#458=CARTESIAN_POINT('CSW',(0.,0.,-211.8));
#459=CARTESIAN_POINT('',(0.,0.,0.));
#460=CARTESIAN_POINT('',(0.,0.,-70.));
#461=CARTESIAN_POINT('',(0.,0.,-211.8));
#462=CARTESIAN_POINT('',(1.7347234759768E-15,0.,-165.033167898888));
#463=CARTESIAN_POINT('',(-31.9094667149865,0.,-165.033167898888));
#464=CARTESIAN_POINT('',(1.7347234759768E-15,0.,-197.));
#465=CARTESIAN_POINT('',(-31.9094667149865,0.,-197.));
#466=CARTESIAN_POINT('',(1.7347234759768E-15,0.,-24.25));
#467=CARTESIAN_POINT('',(1.7347234759768E-15,0.,-164.3600436));
#468=CARTESIAN_POINT('',(-33.0753524247505,0.,-164.3600436));
#469=CARTESIAN_POINT('',(1.7347234759768E-15,0.,-165.033167898888));
#470=CARTESIAN_POINT('',(1.7347234759768E-15,0.,-164.3600436));
#471=CARTESIAN_POINT('',(-36.9416630081552,0.,-164.3600436));
#472=CARTESIAN_POINT('',(1.7347234759768E-15,0.,-164.3600436));
#473=CARTESIAN_POINT('',(1.7347234759768E-15,0.,-155.781078507321));
#474=CARTESIAN_POINT('',(-37.0825941365657,0.,-155.781078507321));
#475=CARTESIAN_POINT('',(1.7347234759768E-15,0.,-156.656147400001));
#476=CARTESIAN_POINT('',(-37.9576631560151,0.,-156.656147400001));
#477=CARTESIAN_POINT('',(1.7347234759768E-15,0.,-156.656147400001));
#478=CARTESIAN_POINT('',(1.7347234759768E-15,0.,-163.344043600001));
#479=CARTESIAN_POINT('',(-37.9576631560151,0.,-163.344043600001));
#480=CARTESIAN_POINT('',(1.7347234759768E-15,0.,-24.25));
#481=CARTESIAN_POINT('',(1.7347234759768E-15,0.,-164.3600436));
#482=CARTESIAN_POINT('',(1.7347234759768E-15,0.,-155.781078507321));
#483=CARTESIAN_POINT('',(-39.5181123683045,0.,-155.781078507321));
#484=CARTESIAN_POINT('',(1.7347234759768E-15,0.,-155.781078507321));
#485=CARTESIAN_POINT('',(1.7347234759768E-15,0.,-99.4630436000006));
#486=CARTESIAN_POINT('',(-38.3837736156978,0.,-99.4630436000006));
#487=CARTESIAN_POINT('',(1.7347234759768E-15,0.,-99.4630435995738));
#488=CARTESIAN_POINT('',(-38.8687493443948,0.,-99.4630435995738));
#489=CARTESIAN_POINT('',(1.7347234759768E-15,0.,-99.4630435995738));
#490=CARTESIAN_POINT('',(1.7347234759768E-15,0.,-100.591704537219));
#491=CARTESIAN_POINT('',(-39.9974104301849,0.,-100.591704537219));
#492=CARTESIAN_POINT('',(1.7347234759768E-15,0.,-100.591704537219));
#493=CARTESIAN_POINT('',(1.7347234759768E-15,0.,-155.301780507321));
#494=CARTESIAN_POINT('',(-39.9974104301849,0.,-155.301780507321));
#495=CARTESIAN_POINT('',(1.7347234759768E-15,0.,-24.25));
#496=CARTESIAN_POINT('',(1.7347234759768E-15,0.,-155.781078507321));
#497=CARTESIAN_POINT('',(0.,0.,-70.));
#498=CARTESIAN_POINT('',(20.,0.,-70.));
#499=CARTESIAN_POINT('',(1.7347234759768E-15,0.,-70.));
#500=CARTESIAN_POINT('',(-38.5590210391499,0.,-70.));
#501=CARTESIAN_POINT('',(1.7347234759768E-15,0.,-70.));
#502=CARTESIAN_POINT('',(1.7347234759768E-15,0.,-74.4394246000002));
#503=CARTESIAN_POINT('',(-42.9984461862776,0.,-74.4394246000002));
#504=CARTESIAN_POINT('',(1.7347234759768E-15,0.,-74.4394246000002));
#505=CARTESIAN_POINT('',(1.7347234759768E-15,0.,-94.8483716000011));
#506=CARTESIAN_POINT('',(-42.9984461862776,0.,-94.8483716000011));
#507=CARTESIAN_POINT('',(1.7347234759768E-15,0.,-24.25));
#508=CARTESIAN_POINT('',(1.7347234759768E-15,0.,-99.4630436000006));
#509=CARTESIAN_POINT('',(0.,0.,0.));
#510=CARTESIAN_POINT('',(19.,0.,0.));
#511=CARTESIAN_POINT('',(0.,0.,0.));
#512=CARTESIAN_POINT('',(0.,0.,-1.));
#513=CARTESIAN_POINT('',(20.,0.,-1.));
#514=CARTESIAN_POINT('',(0.,0.,-70.));
#515=CARTESIAN_POINT('',(0.,0.,0.));
#516=CARTESIAN_POINT('',(0.,0.,-232.3));
#517=CARTESIAN_POINT('',(0.,32.0717967697245,-232.3));
#518=CARTESIAN_POINT('',(-32.0717967697245,0.,-232.3));
#519=CARTESIAN_POINT('',(0.,0.,-228.3));
#520=CARTESIAN_POINT('',(0.,39.,-228.3));
#521=CARTESIAN_POINT('',(0.,0.,-228.3));
#522=CARTESIAN_POINT('',(0.,0.,-198.));
#523=CARTESIAN_POINT('',(0.,39.,-198.));
#524=CARTESIAN_POINT('',(0.,0.,-190.5));
#525=CARTESIAN_POINT('',(0.,0.,-197.));
#526=CARTESIAN_POINT('',(0.,38.,-197.));
#527=CARTESIAN_POINT('',(0.,0.,-198.));
#528=CARTESIAN_POINT('',(-31.,0.,-197.));
#529=MECHANICAL_DESIGN_GEOMETRIC_PRESENTATION_REPRESENTATION('',(#286,#287,
#288,#289,#290,#291,#292),#530);
#530=(
GEOMETRIC_REPRESENTATION_CONTEXT(3)
GLOBAL_UNCERTAINTY_ASSIGNED_CONTEXT((#531))
GLOBAL_UNIT_ASSIGNED_CONTEXT((#537,#533,#532))
REPRESENTATION_CONTEXT('1576154011455','TOP_LEVEL_ASSEMBLY_PART')
);
#531=UNCERTAINTY_MEASURE_WITH_UNIT(LENGTH_MEASURE(2.E-5),#537,
'DISTANCE_ACCURACY_VALUE','Maximum Tolerance applied to model');
#532=(
NAMED_UNIT(*)
SI_UNIT($,.STERADIAN.)
SOLID_ANGLE_UNIT()
);
#533=(
CONVERSION_BASED_UNIT('DEGREE',#535)
NAMED_UNIT(#534)
PLANE_ANGLE_UNIT()
);
#534=DIMENSIONAL_EXPONENTS(0.,0.,0.,0.,0.,0.,0.);
#535=PLANE_ANGLE_MEASURE_WITH_UNIT(PLANE_ANGLE_MEASURE(0.0174532925),#536);
#536=(
NAMED_UNIT(*)
PLANE_ANGLE_UNIT()
SI_UNIT($,.RADIAN.)
);
#537=(
LENGTH_UNIT()
NAMED_UNIT(*)
SI_UNIT(.MILLI.,.METRE.)
);
ENDSEC;
END-ISO-10303-21;
