ISO-10303-21;
HEADER;
/* Generated by software containing ST-Developer
 * from STEP Tools, Inc. (www.steptools.com) 
 */
/* OPTION: using custom schema-name function */

FILE_DESCRIPTION(
/* description */ (''),
/* implementation_level */ '2;1');

FILE_NAME(
/* name */ '1525692341996.stp',
/* time_stamp */ '2018-05-07T13:25:50+02:00',
/* author */ (''),
/* organization */ ('SMS'),
/* preprocessor_version */ 'ST-DEVELOPER v15',
/* originating_system */ 'SIEMENS PLM Software NX 8.5',
/* authorisation */ '');

FILE_SCHEMA (('AUTOMOTIVE_DESIGN { 1 0 10303 214 3 1 1 1 }'));
ENDSEC;

DATA;
#10=CONSTRUCTIVE_GEOMETRY_REPRESENTATION_RELATIONSHIP(
'supplemental geometry','',#26,#11);
#11=CONSTRUCTIVE_GEOMETRY_REPRESENTATION('supplemental geometry',(#353,
#354,#355),#610);
#12=GEOMETRICALLY_BOUNDED_WIREFRAME_SHAPE_REPRESENTATION(
'112029285mod000_00-None',(#27),#610);
#13=SHAPE_REPRESENTATION_RELATIONSHIP('None',
'relationship between 112029285mod000_00-None and 112029285mod000_00-N
one',#26,#15);
#14=SHAPE_REPRESENTATION_RELATIONSHIP('None',
'relationship between 112029285mod000_00-None and 112029285mod000_00-N
one',#26,#12);
#15=ADVANCED_BREP_SHAPE_REPRESENTATION('112029285mod000_00-None',(#33),
#610);
#16=SHAPE_DEFINITION_REPRESENTATION(#17,#26);
#17=PRODUCT_DEFINITION_SHAPE('','',#18);
#18=PRODUCT_DEFINITION(' ','',#20,#19);
#19=PRODUCT_DEFINITION_CONTEXT('part definition',#25,'design');
#20=PRODUCT_DEFINITION_FORMATION_WITH_SPECIFIED_SOURCE(' ',' ',#22,
 .NOT_KNOWN.);
#21=PRODUCT_RELATED_PRODUCT_CATEGORY('part','',(#22));
#22=PRODUCT('112029285mod000_00','112029285mod000_00',' ',(#23));
#23=PRODUCT_CONTEXT(' ',#25,'mechanical');
#24=APPLICATION_PROTOCOL_DEFINITION('international standard',
'automotive_design',2010,#25);
#25=APPLICATION_CONTEXT(
'core data for automotive mechanical design processes');
#26=SHAPE_REPRESENTATION('112029285mod000_00-None',(#352),#610);
#27=GEOMETRIC_CURVE_SET('None',(#524,#525,#526));
#28=SURFACE_STYLE_USAGE(.BOTH.,#29);
#29=SURFACE_SIDE_STYLE('',(#30));
#30=SURFACE_STYLE_FILL_AREA(#31);
#31=FILL_AREA_STYLE('',(#32));
#32=FILL_AREA_STYLE_COLOUR('',#351);
#33=MANIFOLD_SOLID_BREP('NOCUT',#34);
#34=CLOSED_SHELL('',(#55,#56,#57,#58,#59,#60,#61,#62,#63,#64,#65,#66,#67,
#68,#69,#70,#71,#72,#73,#74,#75,#76,#77,#78,#79,#80,#81));
#35=CONICAL_SURFACE('',#361,12.827,44.9999999999998);
#36=CONICAL_SURFACE('',#365,7.1374,60.);
#37=CONICAL_SURFACE('',#369,9.3599,45.0000000000007);
#38=CONICAL_SURFACE('',#375,6.9976999999995,45.0000000000018);
#39=CONICAL_SURFACE('',#381,7.37489,45.0000000000003);
#40=CONICAL_SURFACE('',#387,9.398,45.0000000000012);
#41=CONICAL_SURFACE('',#393,11.3001336117619,44.9999999985075);
#42=CONICAL_SURFACE('',#399,13.6144,44.9999999999999);
#43=CONICAL_SURFACE('',#403,14.2494,45.0000000000002);
#44=CONICAL_SURFACE('',#408,12.192,45.0000000000005);
#45=PLANE('',#360);
#46=PLANE('',#363);
#47=PLANE('',#371);
#48=PLANE('',#379);
#49=PLANE('',#385);
#50=PLANE('',#391);
#51=PLANE('',#397);
#52=PLANE('',#405);
#53=FACE_OUTER_BOUND('',#143,.T.);
#54=FACE_OUTER_BOUND('',#146,.T.);
#55=ADVANCED_FACE('',(#91,#92),#82,.T.);
#56=ADVANCED_FACE('',(#53),#45,.T.);
#57=ADVANCED_FACE('',(#93,#94),#35,.T.);
#58=ADVANCED_FACE('',(#54),#46,.T.);
#59=ADVANCED_FACE('',(#95,#96),#36,.T.);
#60=ADVANCED_FACE('',(#97,#98),#83,.T.);
#61=ADVANCED_FACE('',(#99,#100),#37,.T.);
#62=ADVANCED_FACE('',(#101,#102),#47,.T.);
#63=ADVANCED_FACE('',(#103,#104),#84,.T.);
#64=ADVANCED_FACE('',(#105,#106),#38,.T.);
#65=ADVANCED_FACE('',(#107,#108),#85,.T.);
#66=ADVANCED_FACE('',(#109,#110),#48,.T.);
#67=ADVANCED_FACE('',(#111,#112),#39,.T.);
#68=ADVANCED_FACE('',(#113,#114),#86,.T.);
#69=ADVANCED_FACE('',(#115,#116),#49,.T.);
#70=ADVANCED_FACE('',(#117,#118),#40,.T.);
#71=ADVANCED_FACE('',(#119,#120),#87,.T.);
#72=ADVANCED_FACE('',(#121,#122),#50,.T.);
#73=ADVANCED_FACE('',(#123,#124),#41,.T.);
#74=ADVANCED_FACE('',(#125,#126),#88,.T.);
#75=ADVANCED_FACE('',(#127,#128),#51,.T.);
#76=ADVANCED_FACE('',(#129,#130),#42,.T.);
#77=ADVANCED_FACE('',(#131,#132),#89,.T.);
#78=ADVANCED_FACE('',(#133,#134),#43,.T.);
#79=ADVANCED_FACE('',(#135,#136),#52,.T.);
#80=ADVANCED_FACE('',(#137,#138),#90,.T.);
#81=ADVANCED_FACE('',(#139,#140),#44,.T.);
#82=CYLINDRICAL_SURFACE('',#358,12.49807);
#83=CYLINDRICAL_SURFACE('',#367,9.3599);
#84=CYLINDRICAL_SURFACE('',#373,6.9976999999995);
#85=CYLINDRICAL_SURFACE('',#377,6.34999999999947);
#86=CYLINDRICAL_SURFACE('',#383,7.88289);
#87=CYLINDRICAL_SURFACE('',#389,9.93257180151466);
#88=CYLINDRICAL_SURFACE('',#395,11.7537518014934);
#89=CYLINDRICAL_SURFACE('',#401,14.2494);
#90=CYLINDRICAL_SURFACE('',#407,12.192);
#91=FACE_BOUND('',#141,.T.);
#92=FACE_BOUND('',#142,.T.);
#93=FACE_BOUND('',#144,.T.);
#94=FACE_BOUND('',#145,.T.);
#95=FACE_BOUND('',#147,.T.);
#96=FACE_BOUND('',#148,.T.);
#97=FACE_BOUND('',#149,.T.);
#98=FACE_BOUND('',#150,.T.);
#99=FACE_BOUND('',#151,.T.);
#100=FACE_BOUND('',#152,.T.);
#101=FACE_BOUND('',#153,.T.);
#102=FACE_BOUND('',#154,.T.);
#103=FACE_BOUND('',#155,.T.);
#104=FACE_BOUND('',#156,.T.);
#105=FACE_BOUND('',#157,.T.);
#106=FACE_BOUND('',#158,.T.);
#107=FACE_BOUND('',#159,.T.);
#108=FACE_BOUND('',#160,.T.);
#109=FACE_BOUND('',#161,.T.);
#110=FACE_BOUND('',#162,.T.);
#111=FACE_BOUND('',#163,.T.);
#112=FACE_BOUND('',#164,.T.);
#113=FACE_BOUND('',#165,.T.);
#114=FACE_BOUND('',#166,.T.);
#115=FACE_BOUND('',#167,.T.);
#116=FACE_BOUND('',#168,.T.);
#117=FACE_BOUND('',#169,.T.);
#118=FACE_BOUND('',#170,.T.);
#119=FACE_BOUND('',#171,.T.);
#120=FACE_BOUND('',#172,.T.);
#121=FACE_BOUND('',#173,.T.);
#122=FACE_BOUND('',#174,.T.);
#123=FACE_BOUND('',#175,.T.);
#124=FACE_BOUND('',#176,.T.);
#125=FACE_BOUND('',#177,.T.);
#126=FACE_BOUND('',#178,.T.);
#127=FACE_BOUND('',#179,.T.);
#128=FACE_BOUND('',#180,.T.);
#129=FACE_BOUND('',#181,.T.);
#130=FACE_BOUND('',#182,.T.);
#131=FACE_BOUND('',#183,.T.);
#132=FACE_BOUND('',#184,.T.);
#133=FACE_BOUND('',#185,.T.);
#134=FACE_BOUND('',#186,.T.);
#135=FACE_BOUND('',#187,.T.);
#136=FACE_BOUND('',#188,.T.);
#137=FACE_BOUND('',#189,.T.);
#138=FACE_BOUND('',#190,.T.);
#139=FACE_BOUND('',#191,.T.);
#140=FACE_BOUND('',#192,.T.);
#141=EDGE_LOOP('',(#193));
#142=EDGE_LOOP('',(#194));
#143=EDGE_LOOP('',(#195));
#144=EDGE_LOOP('',(#196));
#145=EDGE_LOOP('',(#197));
#146=EDGE_LOOP('',(#198));
#147=EDGE_LOOP('',(#199));
#148=EDGE_LOOP('',(#200));
#149=EDGE_LOOP('',(#201));
#150=EDGE_LOOP('',(#202));
#151=EDGE_LOOP('',(#203));
#152=EDGE_LOOP('',(#204));
#153=EDGE_LOOP('',(#205));
#154=EDGE_LOOP('',(#206));
#155=EDGE_LOOP('',(#207));
#156=EDGE_LOOP('',(#208));
#157=EDGE_LOOP('',(#209));
#158=EDGE_LOOP('',(#210));
#159=EDGE_LOOP('',(#211));
#160=EDGE_LOOP('',(#212));
#161=EDGE_LOOP('',(#213));
#162=EDGE_LOOP('',(#214));
#163=EDGE_LOOP('',(#215));
#164=EDGE_LOOP('',(#216));
#165=EDGE_LOOP('',(#217));
#166=EDGE_LOOP('',(#218));
#167=EDGE_LOOP('',(#219));
#168=EDGE_LOOP('',(#220));
#169=EDGE_LOOP('',(#221));
#170=EDGE_LOOP('',(#222));
#171=EDGE_LOOP('',(#223));
#172=EDGE_LOOP('',(#224));
#173=EDGE_LOOP('',(#225));
#174=EDGE_LOOP('',(#226));
#175=EDGE_LOOP('',(#227));
#176=EDGE_LOOP('',(#228));
#177=EDGE_LOOP('',(#229));
#178=EDGE_LOOP('',(#230));
#179=EDGE_LOOP('',(#231));
#180=EDGE_LOOP('',(#232));
#181=EDGE_LOOP('',(#233));
#182=EDGE_LOOP('',(#234));
#183=EDGE_LOOP('',(#235));
#184=EDGE_LOOP('',(#236));
#185=EDGE_LOOP('',(#237));
#186=EDGE_LOOP('',(#238));
#187=EDGE_LOOP('',(#239));
#188=EDGE_LOOP('',(#240));
#189=EDGE_LOOP('',(#241));
#190=EDGE_LOOP('',(#242));
#191=EDGE_LOOP('',(#243));
#192=EDGE_LOOP('',(#244));
#193=ORIENTED_EDGE('',*,*,#271,.T.);
#194=ORIENTED_EDGE('',*,*,#272,.T.);
#195=ORIENTED_EDGE('',*,*,#273,.F.);
#196=ORIENTED_EDGE('',*,*,#273,.T.);
#197=ORIENTED_EDGE('',*,*,#271,.F.);
#198=ORIENTED_EDGE('',*,*,#274,.T.);
#199=ORIENTED_EDGE('',*,*,#275,.T.);
#200=ORIENTED_EDGE('',*,*,#274,.F.);
#201=ORIENTED_EDGE('',*,*,#276,.T.);
#202=ORIENTED_EDGE('',*,*,#275,.F.);
#203=ORIENTED_EDGE('',*,*,#277,.T.);
#204=ORIENTED_EDGE('',*,*,#276,.F.);
#205=ORIENTED_EDGE('',*,*,#278,.T.);
#206=ORIENTED_EDGE('',*,*,#277,.F.);
#207=ORIENTED_EDGE('',*,*,#279,.T.);
#208=ORIENTED_EDGE('',*,*,#278,.F.);
#209=ORIENTED_EDGE('',*,*,#280,.T.);
#210=ORIENTED_EDGE('',*,*,#279,.F.);
#211=ORIENTED_EDGE('',*,*,#281,.T.);
#212=ORIENTED_EDGE('',*,*,#280,.F.);
#213=ORIENTED_EDGE('',*,*,#282,.T.);
#214=ORIENTED_EDGE('',*,*,#281,.F.);
#215=ORIENTED_EDGE('',*,*,#283,.T.);
#216=ORIENTED_EDGE('',*,*,#282,.F.);
#217=ORIENTED_EDGE('',*,*,#284,.T.);
#218=ORIENTED_EDGE('',*,*,#283,.F.);
#219=ORIENTED_EDGE('',*,*,#285,.T.);
#220=ORIENTED_EDGE('',*,*,#284,.F.);
#221=ORIENTED_EDGE('',*,*,#286,.T.);
#222=ORIENTED_EDGE('',*,*,#285,.F.);
#223=ORIENTED_EDGE('',*,*,#287,.T.);
#224=ORIENTED_EDGE('',*,*,#286,.F.);
#225=ORIENTED_EDGE('',*,*,#288,.T.);
#226=ORIENTED_EDGE('',*,*,#287,.F.);
#227=ORIENTED_EDGE('',*,*,#289,.T.);
#228=ORIENTED_EDGE('',*,*,#288,.F.);
#229=ORIENTED_EDGE('',*,*,#290,.T.);
#230=ORIENTED_EDGE('',*,*,#289,.F.);
#231=ORIENTED_EDGE('',*,*,#291,.T.);
#232=ORIENTED_EDGE('',*,*,#290,.F.);
#233=ORIENTED_EDGE('',*,*,#292,.T.);
#234=ORIENTED_EDGE('',*,*,#291,.F.);
#235=ORIENTED_EDGE('',*,*,#293,.T.);
#236=ORIENTED_EDGE('',*,*,#292,.F.);
#237=ORIENTED_EDGE('',*,*,#294,.T.);
#238=ORIENTED_EDGE('',*,*,#293,.F.);
#239=ORIENTED_EDGE('',*,*,#295,.T.);
#240=ORIENTED_EDGE('',*,*,#294,.F.);
#241=ORIENTED_EDGE('',*,*,#296,.T.);
#242=ORIENTED_EDGE('',*,*,#295,.F.);
#243=ORIENTED_EDGE('',*,*,#272,.F.);
#244=ORIENTED_EDGE('',*,*,#296,.F.);
#245=VERTEX_POINT('',#531);
#246=VERTEX_POINT('',#533);
#247=VERTEX_POINT('',#536);
#248=VERTEX_POINT('',#540);
#249=VERTEX_POINT('',#543);
#250=VERTEX_POINT('',#546);
#251=VERTEX_POINT('',#549);
#252=VERTEX_POINT('',#552);
#253=VERTEX_POINT('',#555);
#254=VERTEX_POINT('',#558);
#255=VERTEX_POINT('',#561);
#256=VERTEX_POINT('',#564);
#257=VERTEX_POINT('',#567);
#258=VERTEX_POINT('',#570);
#259=VERTEX_POINT('',#573);
#260=VERTEX_POINT('',#576);
#261=VERTEX_POINT('',#579);
#262=VERTEX_POINT('',#582);
#263=VERTEX_POINT('',#585);
#264=VERTEX_POINT('',#588);
#265=VERTEX_POINT('',#591);
#266=VERTEX_POINT('',#594);
#267=VERTEX_POINT('',#597);
#268=VERTEX_POINT('',#600);
#269=VERTEX_POINT('',#603);
#270=VERTEX_POINT('',#606);
#271=EDGE_CURVE('',#245,#245,#297,.T.);
#272=EDGE_CURVE('',#246,#246,#298,.T.);
#273=EDGE_CURVE('',#247,#247,#299,.T.);
#274=EDGE_CURVE('',#248,#248,#300,.T.);
#275=EDGE_CURVE('',#249,#249,#301,.T.);
#276=EDGE_CURVE('',#250,#250,#302,.T.);
#277=EDGE_CURVE('',#251,#251,#303,.T.);
#278=EDGE_CURVE('',#252,#252,#304,.T.);
#279=EDGE_CURVE('',#253,#253,#305,.T.);
#280=EDGE_CURVE('',#254,#254,#306,.T.);
#281=EDGE_CURVE('',#255,#255,#307,.T.);
#282=EDGE_CURVE('',#256,#256,#308,.T.);
#283=EDGE_CURVE('',#257,#257,#309,.T.);
#284=EDGE_CURVE('',#258,#258,#310,.T.);
#285=EDGE_CURVE('',#259,#259,#311,.T.);
#286=EDGE_CURVE('',#260,#260,#312,.T.);
#287=EDGE_CURVE('',#261,#261,#313,.T.);
#288=EDGE_CURVE('',#262,#262,#314,.T.);
#289=EDGE_CURVE('',#263,#263,#315,.T.);
#290=EDGE_CURVE('',#264,#264,#316,.T.);
#291=EDGE_CURVE('',#265,#265,#317,.T.);
#292=EDGE_CURVE('',#266,#266,#318,.T.);
#293=EDGE_CURVE('',#267,#267,#319,.T.);
#294=EDGE_CURVE('',#268,#268,#320,.T.);
#295=EDGE_CURVE('',#269,#269,#321,.T.);
#296=EDGE_CURVE('',#270,#270,#322,.T.);
#297=CIRCLE('',#356,12.49807);
#298=CIRCLE('',#357,12.49807);
#299=CIRCLE('',#359,11.811);
#300=CIRCLE('',#362,7.1374);
#301=CIRCLE('',#364,9.3599);
#302=CIRCLE('',#366,9.3599);
#303=CIRCLE('',#368,8.5979);
#304=CIRCLE('',#370,6.9976999999995);
#305=CIRCLE('',#372,6.9976999999995);
#306=CIRCLE('',#374,6.34999999999947);
#307=CIRCLE('',#376,6.34999999999947);
#308=CIRCLE('',#378,7.37489);
#309=CIRCLE('',#380,7.88289);
#310=CIRCLE('',#382,7.88289);
#311=CIRCLE('',#384,9.398);
#312=CIRCLE('',#386,9.93257180151466);
#313=CIRCLE('',#388,9.93257180151466);
#314=CIRCLE('',#390,11.6001336117463);
#315=CIRCLE('',#392,11.7537518014934);
#316=CIRCLE('',#394,11.7537518014934);
#317=CIRCLE('',#396,13.6144);
#318=CIRCLE('',#398,14.2494);
#319=CIRCLE('',#400,14.2494);
#320=CIRCLE('',#402,13.6144);
#321=CIRCLE('',#404,12.192);
#322=CIRCLE('',#406,12.192);
#323=CURVE_STYLE('',#326,POSITIVE_LENGTH_MEASURE(0.18),#350);
#324=CURVE_STYLE('',#327,POSITIVE_LENGTH_MEASURE(0.18),#350);
#325=CURVE_STYLE('',#328,POSITIVE_LENGTH_MEASURE(0.18),#350);
#326=DRAUGHTING_PRE_DEFINED_CURVE_FONT('continuous');
#327=DRAUGHTING_PRE_DEFINED_CURVE_FONT('continuous');
#328=DRAUGHTING_PRE_DEFINED_CURVE_FONT('continuous');
#329=PRESENTATION_LAYER_ASSIGNMENT('1','Layer 1',(#524,#525,#526,#353,#354,
#355,#33));
#330=STYLED_ITEM('',(#337),#524);
#331=STYLED_ITEM('',(#338),#525);
#332=STYLED_ITEM('',(#339),#526);
#333=STYLED_ITEM('',(#340),#353);
#334=STYLED_ITEM('',(#341),#354);
#335=STYLED_ITEM('',(#342),#355);
#336=STYLED_ITEM('',(#343),#33);
#337=PRESENTATION_STYLE_ASSIGNMENT((#344));
#338=PRESENTATION_STYLE_ASSIGNMENT((#345));
#339=PRESENTATION_STYLE_ASSIGNMENT((#346));
#340=PRESENTATION_STYLE_ASSIGNMENT((#323));
#341=PRESENTATION_STYLE_ASSIGNMENT((#324));
#342=PRESENTATION_STYLE_ASSIGNMENT((#325));
#343=PRESENTATION_STYLE_ASSIGNMENT((#28));
#344=POINT_STYLE('',#347,POSITIVE_LENGTH_MEASURE(3.),#350);
#345=POINT_STYLE('',#348,POSITIVE_LENGTH_MEASURE(3.),#350);
#346=POINT_STYLE('',#349,POSITIVE_LENGTH_MEASURE(3.),#350);
#347=PRE_DEFINED_POINT_MARKER_SYMBOL('plus');
#348=PRE_DEFINED_POINT_MARKER_SYMBOL('plus');
#349=PRE_DEFINED_POINT_MARKER_SYMBOL('plus');
#350=COLOUR_RGB('Strong Stone',0.576470588235294,0.54508278019379,0.392156862745098);
#351=COLOUR_RGB('TLS_NOCUT',0.501960784313725,0.501960784313725,0.501960784313725);
#352=AXIS2_PLACEMENT_3D('',#523,#409,#410);
#353=AXIS2_PLACEMENT_3D('PCS',#527,#411,#412);
#354=AXIS2_PLACEMENT_3D('MCS',#528,#413,#414);
#355=AXIS2_PLACEMENT_3D('CSW',#529,#415,#416);
#356=AXIS2_PLACEMENT_3D('',#530,#417,#418);
#357=AXIS2_PLACEMENT_3D('',#532,#419,#420);
#358=AXIS2_PLACEMENT_3D('',#534,#421,#422);
#359=AXIS2_PLACEMENT_3D('',#535,#423,#424);
#360=AXIS2_PLACEMENT_3D('',#537,#425,#426);
#361=AXIS2_PLACEMENT_3D('',#538,#427,#428);
#362=AXIS2_PLACEMENT_3D('',#539,#429,#430);
#363=AXIS2_PLACEMENT_3D('',#541,#431,#432);
#364=AXIS2_PLACEMENT_3D('',#542,#433,#434);
#365=AXIS2_PLACEMENT_3D('',#544,#435,#436);
#366=AXIS2_PLACEMENT_3D('',#545,#437,#438);
#367=AXIS2_PLACEMENT_3D('',#547,#439,#440);
#368=AXIS2_PLACEMENT_3D('',#548,#441,#442);
#369=AXIS2_PLACEMENT_3D('',#550,#443,#444);
#370=AXIS2_PLACEMENT_3D('',#551,#445,#446);
#371=AXIS2_PLACEMENT_3D('',#553,#447,#448);
#372=AXIS2_PLACEMENT_3D('',#554,#449,#450);
#373=AXIS2_PLACEMENT_3D('',#556,#451,#452);
#374=AXIS2_PLACEMENT_3D('',#557,#453,#454);
#375=AXIS2_PLACEMENT_3D('',#559,#455,#456);
#376=AXIS2_PLACEMENT_3D('',#560,#457,#458);
#377=AXIS2_PLACEMENT_3D('',#562,#459,#460);
#378=AXIS2_PLACEMENT_3D('',#563,#461,#462);
#379=AXIS2_PLACEMENT_3D('',#565,#463,#464);
#380=AXIS2_PLACEMENT_3D('',#566,#465,#466);
#381=AXIS2_PLACEMENT_3D('',#568,#467,#468);
#382=AXIS2_PLACEMENT_3D('',#569,#469,#470);
#383=AXIS2_PLACEMENT_3D('',#571,#471,#472);
#384=AXIS2_PLACEMENT_3D('',#572,#473,#474);
#385=AXIS2_PLACEMENT_3D('',#574,#475,#476);
#386=AXIS2_PLACEMENT_3D('',#575,#477,#478);
#387=AXIS2_PLACEMENT_3D('',#577,#479,#480);
#388=AXIS2_PLACEMENT_3D('',#578,#481,#482);
#389=AXIS2_PLACEMENT_3D('',#580,#483,#484);
#390=AXIS2_PLACEMENT_3D('',#581,#485,#486);
#391=AXIS2_PLACEMENT_3D('',#583,#487,#488);
#392=AXIS2_PLACEMENT_3D('',#584,#489,#490);
#393=AXIS2_PLACEMENT_3D('',#586,#491,#492);
#394=AXIS2_PLACEMENT_3D('',#587,#493,#494);
#395=AXIS2_PLACEMENT_3D('',#589,#495,#496);
#396=AXIS2_PLACEMENT_3D('',#590,#497,#498);
#397=AXIS2_PLACEMENT_3D('',#592,#499,#500);
#398=AXIS2_PLACEMENT_3D('',#593,#501,#502);
#399=AXIS2_PLACEMENT_3D('',#595,#503,#504);
#400=AXIS2_PLACEMENT_3D('',#596,#505,#506);
#401=AXIS2_PLACEMENT_3D('',#598,#507,#508);
#402=AXIS2_PLACEMENT_3D('',#599,#509,#510);
#403=AXIS2_PLACEMENT_3D('',#601,#511,#512);
#404=AXIS2_PLACEMENT_3D('',#602,#513,#514);
#405=AXIS2_PLACEMENT_3D('',#604,#515,#516);
#406=AXIS2_PLACEMENT_3D('',#605,#517,#518);
#407=AXIS2_PLACEMENT_3D('',#607,#519,#520);
#408=AXIS2_PLACEMENT_3D('',#608,#521,#522);
#409=DIRECTION('',(0.,0.,1.));
#410=DIRECTION('',(1.,0.,0.));
#411=DIRECTION('',(0.,0.,1.));
#412=DIRECTION('',(1.,0.,0.));
#413=DIRECTION('',(0.,0.,1.));
#414=DIRECTION('',(1.,0.,0.));
#415=DIRECTION('',(0.,0.,1.));
#416=DIRECTION('',(1.,0.,0.));
#417=DIRECTION('',(0.,0.,-1.));
#418=DIRECTION('',(-1.,0.,0.));
#419=DIRECTION('',(0.,0.,1.));
#420=DIRECTION('',(1.,0.,0.));
#421=DIRECTION('',(0.,0.,-1.));
#422=DIRECTION('',(-1.,0.,0.));
#423=DIRECTION('',(0.,0.,-1.));
#424=DIRECTION('',(-1.,0.,0.));
#425=DIRECTION('',(0.,0.,1.));
#426=DIRECTION('',(1.,0.,0.));
#427=DIRECTION('',(0.,0.,-1.));
#428=DIRECTION('',(-1.,0.,9.29169034511742E-017));
#429=DIRECTION('',(0.,0.,-1.));
#430=DIRECTION('',(-1.,0.,0.));
#431=DIRECTION('',(0.,0.,-1.));
#432=DIRECTION('',(-1.,0.,0.));
#433=DIRECTION('',(0.,0.,-1.));
#434=DIRECTION('',(-1.,0.,0.));
#435=DIRECTION('',(0.,0.,1.));
#436=DIRECTION('',(1.,0.,-7.97946291690506E-018));
#437=DIRECTION('',(0.,0.,-1.));
#438=DIRECTION('',(-1.,0.,0.));
#439=DIRECTION('',(0.,0.,-1.));
#440=DIRECTION('',(-1.,0.,0.));
#441=DIRECTION('',(0.,0.,-1.));
#442=DIRECTION('',(-1.,0.,0.));
#443=DIRECTION('',(0.,0.,-1.));
#444=DIRECTION('',(-1.,0.,6.87454881445861E-017));
#445=DIRECTION('',(0.,0.,-1.));
#446=DIRECTION('',(-1.,0.,0.));
#447=DIRECTION('',(0.,0.,1.));
#448=DIRECTION('',(1.,0.,0.));
#449=DIRECTION('',(0.,0.,-1.));
#450=DIRECTION('',(-1.,0.,0.));
#451=DIRECTION('',(0.,0.,-1.));
#452=DIRECTION('',(-1.,0.,0.));
#453=DIRECTION('',(0.,0.,-1.));
#454=DIRECTION('',(-1.,0.,0.));
#455=DIRECTION('',(0.,0.,-1.));
#456=DIRECTION('',(-1.,0.,5.51254002181478E-017));
#457=DIRECTION('',(0.,0.,-1.));
#458=DIRECTION('',(-1.,0.,0.));
#459=DIRECTION('',(0.,0.,-1.));
#460=DIRECTION('',(-1.,0.,0.));
#461=DIRECTION('',(0.,0.,-1.));
#462=DIRECTION('',(-1.,0.,0.));
#463=DIRECTION('',(0.,0.,-1.));
#464=DIRECTION('',(-1.,0.,0.));
#465=DIRECTION('',(0.,0.,-1.));
#466=DIRECTION('',(-1.,0.,0.));
#467=DIRECTION('',(0.,0.,1.));
#468=DIRECTION('',(1.,0.,-1.37761899225167E-017));
#469=DIRECTION('',(0.,0.,-1.));
#470=DIRECTION('',(-1.,0.,0.));
#471=DIRECTION('',(0.,0.,-1.));
#472=DIRECTION('',(-1.,0.,0.));
#473=DIRECTION('',(0.,0.,-1.));
#474=DIRECTION('',(-1.,0.,0.));
#475=DIRECTION('',(0.,0.,-1.));
#476=DIRECTION('',(-1.,0.,0.));
#477=DIRECTION('',(0.,0.,-1.));
#478=DIRECTION('',(-1.,0.,0.));
#479=DIRECTION('',(0.,0.,1.));
#480=DIRECTION('',(1.,0.,4.12457359965461E-017));
#481=DIRECTION('',(0.,0.,-1.));
#482=DIRECTION('',(-1.,0.,0.));
#483=DIRECTION('',(0.,0.,-1.));
#484=DIRECTION('',(-1.,0.,0.));
#485=DIRECTION('',(0.,0.,-1.));
#486=DIRECTION('',(-1.,0.,0.));
#487=DIRECTION('',(0.,0.,-1.));
#488=DIRECTION('',(-1.,0.,0.));
#489=DIRECTION('',(0.,0.,-1.));
#490=DIRECTION('',(-1.,0.,0.));
#491=DIRECTION('',(0.,0.,1.));
#492=DIRECTION('',(1.,0.,2.74454384950315E-017));
#493=DIRECTION('',(0.,0.,-1.));
#494=DIRECTION('',(-1.,0.,0.));
#495=DIRECTION('',(0.,0.,-1.));
#496=DIRECTION('',(-1.,0.,0.));
#497=DIRECTION('',(0.,0.,-1.));
#498=DIRECTION('',(-1.,0.,0.));
#499=DIRECTION('',(0.,0.,-1.));
#500=DIRECTION('',(-1.,0.,0.));
#501=DIRECTION('',(0.,0.,-1.));
#502=DIRECTION('',(-1.,0.,0.));
#503=DIRECTION('',(0.,0.,1.));
#504=DIRECTION('',(1.,0.,-5.47655511121962E-017));
#505=DIRECTION('',(0.,0.,-1.));
#506=DIRECTION('',(-1.,0.,0.));
#507=DIRECTION('',(0.,0.,-1.));
#508=DIRECTION('',(-1.,0.,0.));
#509=DIRECTION('',(0.,0.,-1.));
#510=DIRECTION('',(-1.,0.,0.));
#511=DIRECTION('',(0.,0.,-1.));
#512=DIRECTION('',(-1.,0.,1.02621119182923E-016));
#513=DIRECTION('',(0.,0.,-1.));
#514=DIRECTION('',(-1.,0.,0.));
#515=DIRECTION('',(0.,0.,1.));
#516=DIRECTION('',(1.,0.,0.));
#517=DIRECTION('',(0.,0.,-1.));
#518=DIRECTION('',(-1.,0.,0.));
#519=DIRECTION('',(0.,0.,-1.));
#520=DIRECTION('',(-1.,0.,0.));
#521=DIRECTION('',(0.,0.,1.));
#522=DIRECTION('',(1.,0.,-6.85531391663548E-018));
#523=CARTESIAN_POINT('',(0.,0.,0.));
#524=CARTESIAN_POINT('PCS',(0.,0.,0.));
#525=CARTESIAN_POINT('MCS',(0.,0.,-50.8));
#526=CARTESIAN_POINT('CSW',(0.,0.,-97.8));
#527=CARTESIAN_POINT('',(0.,0.,0.));
#528=CARTESIAN_POINT('',(0.,0.,-50.8));
#529=CARTESIAN_POINT('',(0.,0.,-97.8));
#530=CARTESIAN_POINT('',(-1.77635683940025E-015,-1.77635683940025E-015,
-0.68707));
#531=CARTESIAN_POINT('',(-12.49807,-1.77635683940025E-015,-0.68707));
#532=CARTESIAN_POINT('',(-1.77635683940025E-015,-1.77635683940025E-015,
-48.71593));
#533=CARTESIAN_POINT('',(12.49807,-1.77635683940025E-015,-48.71593));
#534=CARTESIAN_POINT('',(-1.77635683940025E-015,-1.77635683940025E-015,
0.));
#535=CARTESIAN_POINT('',(-1.77635683940025E-015,-1.77635683940025E-015,
0.));
#536=CARTESIAN_POINT('',(-11.811,-1.77635683940025E-015,0.));
#537=CARTESIAN_POINT('',(10.1240029885927,6.08311470276263,0.));
#538=CARTESIAN_POINT('',(-1.77635683940025E-015,-1.77635683940025E-015,
-1.016));
#539=CARTESIAN_POINT('',(-1.77635683940025E-015,-1.77635683940025E-015,
-102.7294462));
#540=CARTESIAN_POINT('',(-7.1374,-1.77635683940025E-015,-102.7294462));
#541=CARTESIAN_POINT('',(-1.77635683940025E-015,-3.10862446895044E-015,
-102.7294462));
#542=CARTESIAN_POINT('',(-1.77635683940025E-015,-1.77635683940025E-015,
-101.446285226726));
#543=CARTESIAN_POINT('',(-9.3599,-1.77635683940025E-015,-101.446285226726));
#544=CARTESIAN_POINT('',(-1.77635683940025E-015,-1.77635683940025E-015,
-102.7294462));
#545=CARTESIAN_POINT('',(-1.77635683940025E-015,-1.77635683940025E-015,
-91.9852462));
#546=CARTESIAN_POINT('',(-9.3599,-1.77635683940025E-015,-91.9852462));
#547=CARTESIAN_POINT('',(-1.77635683940025E-015,-1.77635683940025E-015,
0.));
#548=CARTESIAN_POINT('',(-1.77635683940025E-015,-1.77635683940025E-015,
-91.2232462));
#549=CARTESIAN_POINT('',(-8.5979,-1.77635683940025E-015,-91.2232462));
#550=CARTESIAN_POINT('',(-1.77635683940025E-015,-1.77635683940025E-015,
-91.9852462));
#551=CARTESIAN_POINT('',(-1.77635683940025E-015,-1.77635683940025E-015,
-91.2232462));
#552=CARTESIAN_POINT('',(-6.9976999999995,-1.77635683940025E-015,-91.2232462));
#553=CARTESIAN_POINT('',(7.3698387347067,4.42824586426914,-91.2232462));
#554=CARTESIAN_POINT('',(-1.77635683940025E-015,-1.77635683940025E-015,
-89.4220462));
#555=CARTESIAN_POINT('',(-6.9976999999995,-1.77635683940025E-015,-89.4220462));
#556=CARTESIAN_POINT('',(-1.77635683940025E-015,-1.77635683940025E-015,
0.));
#557=CARTESIAN_POINT('',(-1.77635683940025E-015,-1.77635683940025E-015,
-88.7743462));
#558=CARTESIAN_POINT('',(-6.34999999999947,-1.77635683940025E-015,-88.7743462));
#559=CARTESIAN_POINT('',(-1.77635683940025E-015,-1.77635683940025E-015,
-89.4220462));
#560=CARTESIAN_POINT('',(-1.77635683940025E-015,-1.77635683940025E-015,
-86.7296462));
#561=CARTESIAN_POINT('',(-6.34999999999947,-1.77635683940025E-015,-86.7296462));
#562=CARTESIAN_POINT('',(-1.77635683940025E-015,-1.77635683940025E-015,
0.));
#563=CARTESIAN_POINT('',(-1.77635683940025E-015,-1.77635683940025E-015,
-86.7296462));
#564=CARTESIAN_POINT('',(-7.37489,-1.77635683940025E-015,-86.7296462));
#565=CARTESIAN_POINT('',(5.44301235945796,3.27049177567855,-86.7296462));
#566=CARTESIAN_POINT('',(-1.77635683940025E-015,-1.77635683940025E-015,
-86.2216462));
#567=CARTESIAN_POINT('',(-7.88289,-1.77635683940025E-015,-86.2216462));
#568=CARTESIAN_POINT('',(-1.77635683940025E-015,-1.77635683940025E-015,
-86.7296462));
#569=CARTESIAN_POINT('',(-1.77635683940025E-015,-1.77635683940025E-015,
-81.6736745999999));
#570=CARTESIAN_POINT('',(-7.88289,-1.77635683940025E-015,-81.6736745999999));
#571=CARTESIAN_POINT('',(-1.77635683940025E-015,-1.77635683940025E-015,
0.));
#572=CARTESIAN_POINT('',(-1.77635683940025E-015,-1.77635683940025E-015,
-81.6736745999999));
#573=CARTESIAN_POINT('',(-9.398,-1.77635683940025E-015,-81.6736745999999));
#574=CARTESIAN_POINT('',(6.75695554303168,4.0599884903277,-81.6736745999999));
#575=CARTESIAN_POINT('',(-1.77635683940025E-015,-1.77635683940025E-015,
-81.1391027984854));
#576=CARTESIAN_POINT('',(-9.93257180151466,-1.77635683940025E-015,-81.1391027984854));
#577=CARTESIAN_POINT('',(-1.77635683940025E-015,-1.77635683940025E-015,
-81.6736745999999));
#578=CARTESIAN_POINT('',(-1.77635683940025E-015,-1.77635683940025E-015,
-77.5220853858316));
#579=CARTESIAN_POINT('',(-9.93257180151466,-1.77635683940025E-015,-77.5220853858316));
#580=CARTESIAN_POINT('',(-1.77635683940025E-015,-1.77635683940025E-015,
0.));
#581=CARTESIAN_POINT('',(-1.77635683940025E-015,-1.77635683940025E-015,
-77.5220853858316));
#582=CARTESIAN_POINT('',(-11.6001336117463,-1.77635683940025E-015,-77.5220853858316));
#583=CARTESIAN_POINT('',(8.51387576013424,5.11565265955798,-77.5220853858316));
#584=CARTESIAN_POINT('',(-1.77635683940025E-015,-1.77635683940025E-015,
-77.3684671960765));
#585=CARTESIAN_POINT('',(-11.7537518014934,-1.77635683940025E-015,-77.3684671960765));
#586=CARTESIAN_POINT('',(-1.77635683940025E-015,-1.77635683940025E-015,
-77.8220853858316));
#587=CARTESIAN_POINT('',(-1.77635683940025E-015,-1.77635683940025E-015,
-53.5813));
#588=CARTESIAN_POINT('',(-11.7537518014934,-1.77635683940025E-015,-53.5813));
#589=CARTESIAN_POINT('',(-1.77635683940025E-015,-1.77635683940025E-015,
0.));
#590=CARTESIAN_POINT('',(-1.77635683940025E-015,-1.77635683940025E-015,
-53.5813));
#591=CARTESIAN_POINT('',(-13.6144,-1.77635683940025E-015,-53.5813));
#592=CARTESIAN_POINT('',(10.0749317048269,6.05362970082264,-53.5813));
#593=CARTESIAN_POINT('',(-1.77635683940025E-015,-1.77635683940025E-015,
-52.9463));
#594=CARTESIAN_POINT('',(-14.2494,-1.77635683940025E-015,-52.9463));
#595=CARTESIAN_POINT('',(-1.77635683940025E-015,-1.77635683940025E-015,
-53.5813));
#596=CARTESIAN_POINT('',(-1.77635683940025E-015,-1.77635683940025E-015,
-51.435));
#597=CARTESIAN_POINT('',(-14.2494,-1.77635683940025E-015,-51.435));
#598=CARTESIAN_POINT('',(-1.77635683940025E-015,-1.77635683940025E-015,
0.));
#599=CARTESIAN_POINT('',(-1.77635683940025E-015,-1.77635683940025E-015,
-50.8));
#600=CARTESIAN_POINT('',(-13.6144,-1.77635683940025E-015,-50.8));
#601=CARTESIAN_POINT('',(-1.77635683940025E-015,-1.77635683940025E-015,
-51.435));
#602=CARTESIAN_POINT('',(-1.77635683940025E-015,-1.77635683940025E-015,
-50.8));
#603=CARTESIAN_POINT('',(-12.192,-1.77635683940025E-015,-50.8));
#604=CARTESIAN_POINT('',(11.6698184986789,7.01193436705542,-50.8));
#605=CARTESIAN_POINT('',(-1.77635683940025E-015,-1.77635683940025E-015,
-49.022));
#606=CARTESIAN_POINT('',(-12.192,-1.77635683940025E-015,-49.022));
#607=CARTESIAN_POINT('',(-1.77635683940025E-015,-1.77635683940025E-015,
0.));
#608=CARTESIAN_POINT('',(-1.77635683940025E-015,-1.77635683940025E-015,
-49.022));
#609=MECHANICAL_DESIGN_GEOMETRIC_PRESENTATION_REPRESENTATION('',(#330,#331,
#332,#333,#334,#335,#336),#610);
#610=(
GEOMETRIC_REPRESENTATION_CONTEXT(3)
GLOBAL_UNCERTAINTY_ASSIGNED_CONTEXT((#611))
GLOBAL_UNIT_ASSIGNED_CONTEXT((#617,#613,#612))
REPRESENTATION_CONTEXT('1525692341996','TOP_LEVEL_ASSEMBLY_PART')
);
#611=UNCERTAINTY_MEASURE_WITH_UNIT(LENGTH_MEASURE(2.E-005),#617,
'DISTANCE_ACCURACY_VALUE','Maximum Tolerance applied to model');
#612=(
NAMED_UNIT(*)
SI_UNIT($,.STERADIAN.)
SOLID_ANGLE_UNIT()
);
#613=(
CONVERSION_BASED_UNIT('DEGREE',#615)
NAMED_UNIT(#614)
PLANE_ANGLE_UNIT()
);
#614=DIMENSIONAL_EXPONENTS(0.,0.,0.,0.,0.,0.,0.);
#615=PLANE_ANGLE_MEASURE_WITH_UNIT(PLANE_ANGLE_MEASURE(0.0174532925),#616);
#616=(
NAMED_UNIT(*)
PLANE_ANGLE_UNIT()
SI_UNIT($,.RADIAN.)
);
#617=(
LENGTH_UNIT()
NAMED_UNIT(*)
SI_UNIT(.MILLI.,.METRE.)
);
ENDSEC;
END-ISO-10303-21;
