ISO-10303-21;
HEADER;
/* Generated by software containing ST-Developer
 * from STEP Tools, Inc. (www.steptools.com) 
 */
/* OPTION: using custom schema-name function */

FILE_DESCRIPTION(
/* description */ (''),
/* implementation_level */ '2;1');

FILE_NAME(
/* name */ '1525693495251.stp',
/* time_stamp */ '2018-05-07T13:45:04+02:00',
/* author */ (''),
/* organization */ ('SMS'),
/* preprocessor_version */ 'ST-DEVELOPER v15',
/* originating_system */ 'SIEMENS PLM Software NX 8.5',
/* authorisation */ '');

FILE_SCHEMA (('AUTOMOTIVE_DESIGN { 1 0 10303 214 3 1 1 1 }'));
ENDSEC;

DATA;
#10=CONSTRUCTIVE_GEOMETRY_REPRESENTATION_RELATIONSHIP(
'supplemental geometry','',#26,#11);
#11=CONSTRUCTIVE_GEOMETRY_REPRESENTATION('supplemental geometry',(#287,
#288,#289),#490);
#12=GEOMETRICALLY_BOUNDED_WIREFRAME_SHAPE_REPRESENTATION(
'112029284mod000_00-None',(#27),#490);
#13=SHAPE_REPRESENTATION_RELATIONSHIP('None',
'relationship between 112029284mod000_00-None and 112029284mod000_00-N
one',#26,#15);
#14=SHAPE_REPRESENTATION_RELATIONSHIP('None',
'relationship between 112029284mod000_00-None and 112029284mod000_00-N
one',#26,#12);
#15=ADVANCED_BREP_SHAPE_REPRESENTATION('112029284mod000_00-None',(#33),
#490);
#16=SHAPE_DEFINITION_REPRESENTATION(#17,#26);
#17=PRODUCT_DEFINITION_SHAPE('','',#18);
#18=PRODUCT_DEFINITION(' ','',#20,#19);
#19=PRODUCT_DEFINITION_CONTEXT('part definition',#25,'design');
#20=PRODUCT_DEFINITION_FORMATION_WITH_SPECIFIED_SOURCE(' ',' ',#22,
 .NOT_KNOWN.);
#21=PRODUCT_RELATED_PRODUCT_CATEGORY('part','',(#22));
#22=PRODUCT('112029284mod000_00','112029284mod000_00',' ',(#23));
#23=PRODUCT_CONTEXT(' ',#25,'mechanical');
#24=APPLICATION_PROTOCOL_DEFINITION('international standard',
'automotive_design',2010,#25);
#25=APPLICATION_CONTEXT(
'core data for automotive mechanical design processes');
#26=SHAPE_REPRESENTATION('112029284mod000_00-None',(#286),#490);
#27=GEOMETRIC_CURVE_SET('None',(#422,#423,#424));
#28=SURFACE_STYLE_USAGE(.BOTH.,#29);
#29=SURFACE_SIDE_STYLE('',(#30));
#30=SURFACE_STYLE_FILL_AREA(#31);
#31=FILL_AREA_STYLE('',(#32));
#32=FILL_AREA_STYLE_COLOUR('',#285);
#33=MANIFOLD_SOLID_BREP('NOCUT',#34);
#34=CLOSED_SHELL('',(#51,#52,#53,#54,#55,#56,#57,#58,#59,#60,#61,#62,#63,
#64,#65,#66,#67,#68,#69,#70,#71));
#35=TOROIDAL_SURFACE('',#329,20.,1.);
#36=FACE_OUTER_BOUND('',#141,.T.);
#37=FACE_OUTER_BOUND('',#148,.T.);
#38=PLANE('',#301);
#39=PLANE('',#307);
#40=PLANE('',#316);
#41=PLANE('',#321);
#42=PLANE('',#323);
#43=PLANE('',#330);
#44=CONICAL_SURFACE('',#295,18.6944,45.0000000000001);
#45=CONICAL_SURFACE('',#299,22.015351801528,45.0000000011087);
#46=CONICAL_SURFACE('',#305,20.1941718015146,44.9999999999988);
#47=CONICAL_SURFACE('',#311,15.0317640856268,45.00004313178);
#48=CONICAL_SURFACE('',#314,14.8285637796914,45.0000404596189);
#49=CONICAL_SURFACE('',#318,11.811,44.9999999999999);
#50=CONICAL_SURFACE('',#325,21.,60.);
#51=ADVANCED_FACE('',(#79,#80),#72,.T.);
#52=ADVANCED_FACE('',(#81,#82),#44,.T.);
#53=ADVANCED_FACE('',(#83,#84),#73,.T.);
#54=ADVANCED_FACE('',(#85,#86),#45,.T.);
#55=ADVANCED_FACE('',(#87,#88),#38,.F.);
#56=ADVANCED_FACE('',(#89,#90),#74,.T.);
#57=ADVANCED_FACE('',(#91,#92),#46,.T.);
#58=ADVANCED_FACE('',(#93,#94),#39,.F.);
#59=ADVANCED_FACE('',(#95,#96),#75,.T.);
#60=ADVANCED_FACE('',(#97,#98),#47,.T.);
#61=ADVANCED_FACE('',(#99,#100),#76,.T.);
#62=ADVANCED_FACE('',(#101,#102),#48,.T.);
#63=ADVANCED_FACE('',(#36),#40,.F.);
#64=ADVANCED_FACE('',(#103,#104),#49,.T.);
#65=ADVANCED_FACE('',(#105,#106),#77,.T.);
#66=ADVANCED_FACE('',(#107,#108),#41,.F.);
#67=ADVANCED_FACE('',(#37),#42,.F.);
#68=ADVANCED_FACE('',(#109,#110),#50,.T.);
#69=ADVANCED_FACE('',(#111,#112),#78,.T.);
#70=ADVANCED_FACE('',(#113,#114),#35,.T.);
#71=ADVANCED_FACE('',(#115,#116),#43,.F.);
#72=CYLINDRICAL_SURFACE('',#292,16.0223654718969);
#73=CYLINDRICAL_SURFACE('',#297,22.015351801528);
#74=CYLINDRICAL_SURFACE('',#303,20.1941718015146);
#75=CYLINDRICAL_SURFACE('',#309,15.0317640856267);
#76=CYLINDRICAL_SURFACE('',#313,14.8285637796914);
#77=CYLINDRICAL_SURFACE('',#320,12.6975201360575);
#78=CYLINDRICAL_SURFACE('',#327,21.);
#79=FACE_BOUND('',#117,.T.);
#80=FACE_BOUND('',#118,.T.);
#81=FACE_BOUND('',#119,.T.);
#82=FACE_BOUND('',#120,.T.);
#83=FACE_BOUND('',#121,.T.);
#84=FACE_BOUND('',#122,.T.);
#85=FACE_BOUND('',#123,.T.);
#86=FACE_BOUND('',#124,.T.);
#87=FACE_BOUND('',#125,.T.);
#88=FACE_BOUND('',#126,.T.);
#89=FACE_BOUND('',#127,.T.);
#90=FACE_BOUND('',#128,.T.);
#91=FACE_BOUND('',#129,.T.);
#92=FACE_BOUND('',#130,.T.);
#93=FACE_BOUND('',#131,.T.);
#94=FACE_BOUND('',#132,.T.);
#95=FACE_BOUND('',#133,.T.);
#96=FACE_BOUND('',#134,.T.);
#97=FACE_BOUND('',#135,.T.);
#98=FACE_BOUND('',#136,.T.);
#99=FACE_BOUND('',#137,.T.);
#100=FACE_BOUND('',#138,.T.);
#101=FACE_BOUND('',#139,.T.);
#102=FACE_BOUND('',#140,.T.);
#103=FACE_BOUND('',#142,.T.);
#104=FACE_BOUND('',#143,.T.);
#105=FACE_BOUND('',#144,.T.);
#106=FACE_BOUND('',#145,.T.);
#107=FACE_BOUND('',#146,.T.);
#108=FACE_BOUND('',#147,.T.);
#109=FACE_BOUND('',#149,.T.);
#110=FACE_BOUND('',#150,.T.);
#111=FACE_BOUND('',#151,.T.);
#112=FACE_BOUND('',#152,.T.);
#113=FACE_BOUND('',#153,.T.);
#114=FACE_BOUND('',#154,.T.);
#115=FACE_BOUND('',#155,.T.);
#116=FACE_BOUND('',#156,.T.);
#117=EDGE_LOOP('',(#157));
#118=EDGE_LOOP('',(#158));
#119=EDGE_LOOP('',(#159));
#120=EDGE_LOOP('',(#160));
#121=EDGE_LOOP('',(#161));
#122=EDGE_LOOP('',(#162));
#123=EDGE_LOOP('',(#163));
#124=EDGE_LOOP('',(#164));
#125=EDGE_LOOP('',(#165));
#126=EDGE_LOOP('',(#166));
#127=EDGE_LOOP('',(#167));
#128=EDGE_LOOP('',(#168));
#129=EDGE_LOOP('',(#169));
#130=EDGE_LOOP('',(#170));
#131=EDGE_LOOP('',(#171));
#132=EDGE_LOOP('',(#172));
#133=EDGE_LOOP('',(#173));
#134=EDGE_LOOP('',(#174));
#135=EDGE_LOOP('',(#175));
#136=EDGE_LOOP('',(#176));
#137=EDGE_LOOP('',(#177));
#138=EDGE_LOOP('',(#178));
#139=EDGE_LOOP('',(#179));
#140=EDGE_LOOP('',(#180));
#141=EDGE_LOOP('',(#181));
#142=EDGE_LOOP('',(#182));
#143=EDGE_LOOP('',(#183));
#144=EDGE_LOOP('',(#184));
#145=EDGE_LOOP('',(#185));
#146=EDGE_LOOP('',(#186));
#147=EDGE_LOOP('',(#187));
#148=EDGE_LOOP('',(#188));
#149=EDGE_LOOP('',(#189));
#150=EDGE_LOOP('',(#190));
#151=EDGE_LOOP('',(#191));
#152=EDGE_LOOP('',(#192));
#153=EDGE_LOOP('',(#193));
#154=EDGE_LOOP('',(#194));
#155=EDGE_LOOP('',(#195));
#156=EDGE_LOOP('',(#196));
#157=ORIENTED_EDGE('',*,*,#217,.T.);
#158=ORIENTED_EDGE('',*,*,#218,.T.);
#159=ORIENTED_EDGE('',*,*,#219,.F.);
#160=ORIENTED_EDGE('',*,*,#220,.T.);
#161=ORIENTED_EDGE('',*,*,#221,.F.);
#162=ORIENTED_EDGE('',*,*,#219,.T.);
#163=ORIENTED_EDGE('',*,*,#222,.F.);
#164=ORIENTED_EDGE('',*,*,#221,.T.);
#165=ORIENTED_EDGE('',*,*,#223,.F.);
#166=ORIENTED_EDGE('',*,*,#222,.T.);
#167=ORIENTED_EDGE('',*,*,#224,.F.);
#168=ORIENTED_EDGE('',*,*,#223,.T.);
#169=ORIENTED_EDGE('',*,*,#225,.F.);
#170=ORIENTED_EDGE('',*,*,#224,.T.);
#171=ORIENTED_EDGE('',*,*,#226,.F.);
#172=ORIENTED_EDGE('',*,*,#225,.T.);
#173=ORIENTED_EDGE('',*,*,#227,.F.);
#174=ORIENTED_EDGE('',*,*,#226,.T.);
#175=ORIENTED_EDGE('',*,*,#228,.F.);
#176=ORIENTED_EDGE('',*,*,#227,.T.);
#177=ORIENTED_EDGE('',*,*,#229,.F.);
#178=ORIENTED_EDGE('',*,*,#228,.T.);
#179=ORIENTED_EDGE('',*,*,#217,.F.);
#180=ORIENTED_EDGE('',*,*,#229,.T.);
#181=ORIENTED_EDGE('',*,*,#230,.F.);
#182=ORIENTED_EDGE('',*,*,#231,.F.);
#183=ORIENTED_EDGE('',*,*,#230,.T.);
#184=ORIENTED_EDGE('',*,*,#232,.F.);
#185=ORIENTED_EDGE('',*,*,#231,.T.);
#186=ORIENTED_EDGE('',*,*,#220,.F.);
#187=ORIENTED_EDGE('',*,*,#232,.T.);
#188=ORIENTED_EDGE('',*,*,#233,.T.);
#189=ORIENTED_EDGE('',*,*,#234,.T.);
#190=ORIENTED_EDGE('',*,*,#233,.F.);
#191=ORIENTED_EDGE('',*,*,#234,.F.);
#192=ORIENTED_EDGE('',*,*,#235,.T.);
#193=ORIENTED_EDGE('',*,*,#236,.T.);
#194=ORIENTED_EDGE('',*,*,#235,.F.);
#195=ORIENTED_EDGE('',*,*,#218,.F.);
#196=ORIENTED_EDGE('',*,*,#236,.F.);
#197=VERTEX_POINT('',#429);
#198=VERTEX_POINT('',#431);
#199=VERTEX_POINT('',#434);
#200=VERTEX_POINT('',#436);
#201=VERTEX_POINT('',#439);
#202=VERTEX_POINT('',#442);
#203=VERTEX_POINT('',#445);
#204=VERTEX_POINT('',#448);
#205=VERTEX_POINT('',#451);
#206=VERTEX_POINT('',#454);
#207=VERTEX_POINT('',#457);
#208=VERTEX_POINT('',#460);
#209=VERTEX_POINT('',#463);
#210=VERTEX_POINT('',#467);
#211=VERTEX_POINT('',#470);
#212=VERTEX_POINT('',#473);
#213=VERTEX_POINT('',#477);
#214=VERTEX_POINT('',#480);
#215=VERTEX_POINT('',#483);
#216=VERTEX_POINT('',#486);
#217=EDGE_CURVE('',#197,#197,#237,.T.);
#218=EDGE_CURVE('',#198,#198,#238,.T.);
#219=EDGE_CURVE('',#199,#199,#239,.T.);
#220=EDGE_CURVE('',#200,#200,#240,.T.);
#221=EDGE_CURVE('',#201,#201,#241,.T.);
#222=EDGE_CURVE('',#202,#202,#242,.T.);
#223=EDGE_CURVE('',#203,#203,#243,.T.);
#224=EDGE_CURVE('',#204,#204,#244,.T.);
#225=EDGE_CURVE('',#205,#205,#245,.T.);
#226=EDGE_CURVE('',#206,#206,#246,.T.);
#227=EDGE_CURVE('',#207,#207,#247,.T.);
#228=EDGE_CURVE('',#208,#208,#248,.T.);
#229=EDGE_CURVE('',#209,#209,#249,.T.);
#230=EDGE_CURVE('',#210,#210,#250,.T.);
#231=EDGE_CURVE('',#211,#211,#251,.T.);
#232=EDGE_CURVE('',#212,#212,#252,.T.);
#233=EDGE_CURVE('',#213,#213,#253,.T.);
#234=EDGE_CURVE('',#214,#214,#254,.T.);
#235=EDGE_CURVE('',#215,#215,#255,.T.);
#236=EDGE_CURVE('',#216,#216,#256,.T.);
#237=CIRCLE('',#290,16.0223654780894);
#238=CIRCLE('',#291,16.0223654718969);
#239=CIRCLE('',#293,22.015351801528);
#240=CIRCLE('',#294,18.6944);
#241=CIRCLE('',#296,22.015351801528);
#242=CIRCLE('',#298,21.731733611762);
#243=CIRCLE('',#300,20.1941718015145);
#244=CIRCLE('',#302,20.1941718015146);
#245=CIRCLE('',#304,19.6861718015146);
#246=CIRCLE('',#306,15.0317640856267);
#247=CIRCLE('',#308,15.0317640856268);
#248=CIRCLE('',#310,14.8285637796914);
#249=CIRCLE('',#312,14.8285637796914);
#250=CIRCLE('',#315,11.811);
#251=CIRCLE('',#317,12.6975201360575);
#252=CIRCLE('',#319,12.6975201360575);
#253=CIRCLE('',#322,15.8038475772934);
#254=CIRCLE('',#324,21.);
#255=CIRCLE('',#326,21.);
#256=CIRCLE('',#328,20.);
#257=CURVE_STYLE('',#260,POSITIVE_LENGTH_MEASURE(0.18),#284);
#258=CURVE_STYLE('',#261,POSITIVE_LENGTH_MEASURE(0.18),#284);
#259=CURVE_STYLE('',#262,POSITIVE_LENGTH_MEASURE(0.18),#284);
#260=DRAUGHTING_PRE_DEFINED_CURVE_FONT('continuous');
#261=DRAUGHTING_PRE_DEFINED_CURVE_FONT('continuous');
#262=DRAUGHTING_PRE_DEFINED_CURVE_FONT('continuous');
#263=PRESENTATION_LAYER_ASSIGNMENT('1','Layer 1',(#422,#423,#424,#287,#288,
#289,#33));
#264=STYLED_ITEM('',(#271),#422);
#265=STYLED_ITEM('',(#272),#423);
#266=STYLED_ITEM('',(#273),#424);
#267=STYLED_ITEM('',(#274),#287);
#268=STYLED_ITEM('',(#275),#288);
#269=STYLED_ITEM('',(#276),#289);
#270=STYLED_ITEM('',(#277),#33);
#271=PRESENTATION_STYLE_ASSIGNMENT((#278));
#272=PRESENTATION_STYLE_ASSIGNMENT((#279));
#273=PRESENTATION_STYLE_ASSIGNMENT((#280));
#274=PRESENTATION_STYLE_ASSIGNMENT((#257));
#275=PRESENTATION_STYLE_ASSIGNMENT((#258));
#276=PRESENTATION_STYLE_ASSIGNMENT((#259));
#277=PRESENTATION_STYLE_ASSIGNMENT((#28));
#278=POINT_STYLE('',#281,POSITIVE_LENGTH_MEASURE(3.),#284);
#279=POINT_STYLE('',#282,POSITIVE_LENGTH_MEASURE(3.),#284);
#280=POINT_STYLE('',#283,POSITIVE_LENGTH_MEASURE(3.),#284);
#281=PRE_DEFINED_POINT_MARKER_SYMBOL('plus');
#282=PRE_DEFINED_POINT_MARKER_SYMBOL('plus');
#283=PRE_DEFINED_POINT_MARKER_SYMBOL('plus');
#284=COLOUR_RGB('Strong Stone',0.576470588235294,0.54508278019379,0.392156862745098);
#285=COLOUR_RGB('TLS_NOCUT',0.501960784313725,0.501960784313725,0.501960784313725);
#286=AXIS2_PLACEMENT_3D('',#421,#331,#332);
#287=AXIS2_PLACEMENT_3D('PCS',#425,#333,#334);
#288=AXIS2_PLACEMENT_3D('MCS',#426,#335,#336);
#289=AXIS2_PLACEMENT_3D('CSW',#427,#337,#338);
#290=AXIS2_PLACEMENT_3D('',#428,#339,#340);
#291=AXIS2_PLACEMENT_3D('',#430,#341,#342);
#292=AXIS2_PLACEMENT_3D('',#432,#343,#344);
#293=AXIS2_PLACEMENT_3D('',#433,#345,#346);
#294=AXIS2_PLACEMENT_3D('',#435,#347,#348);
#295=AXIS2_PLACEMENT_3D('',#437,#349,#350);
#296=AXIS2_PLACEMENT_3D('',#438,#351,#352);
#297=AXIS2_PLACEMENT_3D('',#440,#353,#354);
#298=AXIS2_PLACEMENT_3D('',#441,#355,#356);
#299=AXIS2_PLACEMENT_3D('',#443,#357,#358);
#300=AXIS2_PLACEMENT_3D('',#444,#359,#360);
#301=AXIS2_PLACEMENT_3D('',#446,#361,#362);
#302=AXIS2_PLACEMENT_3D('',#447,#363,#364);
#303=AXIS2_PLACEMENT_3D('',#449,#365,#366);
#304=AXIS2_PLACEMENT_3D('',#450,#367,#368);
#305=AXIS2_PLACEMENT_3D('',#452,#369,#370);
#306=AXIS2_PLACEMENT_3D('',#453,#371,#372);
#307=AXIS2_PLACEMENT_3D('',#455,#373,#374);
#308=AXIS2_PLACEMENT_3D('',#456,#375,#376);
#309=AXIS2_PLACEMENT_3D('',#458,#377,#378);
#310=AXIS2_PLACEMENT_3D('',#459,#379,#380);
#311=AXIS2_PLACEMENT_3D('',#461,#381,#382);
#312=AXIS2_PLACEMENT_3D('',#462,#383,#384);
#313=AXIS2_PLACEMENT_3D('',#464,#385,#386);
#314=AXIS2_PLACEMENT_3D('',#465,#387,#388);
#315=AXIS2_PLACEMENT_3D('',#466,#389,#390);
#316=AXIS2_PLACEMENT_3D('',#468,#391,#392);
#317=AXIS2_PLACEMENT_3D('',#469,#393,#394);
#318=AXIS2_PLACEMENT_3D('',#471,#395,#396);
#319=AXIS2_PLACEMENT_3D('',#472,#397,#398);
#320=AXIS2_PLACEMENT_3D('',#474,#399,#400);
#321=AXIS2_PLACEMENT_3D('',#475,#401,#402);
#322=AXIS2_PLACEMENT_3D('',#476,#403,#404);
#323=AXIS2_PLACEMENT_3D('',#478,#405,#406);
#324=AXIS2_PLACEMENT_3D('',#479,#407,#408);
#325=AXIS2_PLACEMENT_3D('',#481,#409,#410);
#326=AXIS2_PLACEMENT_3D('',#482,#411,#412);
#327=AXIS2_PLACEMENT_3D('',#484,#413,#414);
#328=AXIS2_PLACEMENT_3D('',#485,#415,#416);
#329=AXIS2_PLACEMENT_3D('',#487,#417,#418);
#330=AXIS2_PLACEMENT_3D('',#488,#419,#420);
#331=DIRECTION('',(0.,0.,1.));
#332=DIRECTION('',(1.,0.,0.));
#333=DIRECTION('',(0.,0.,1.));
#334=DIRECTION('',(1.,0.,0.));
#335=DIRECTION('',(0.,0.,1.));
#336=DIRECTION('',(1.,0.,0.));
#337=DIRECTION('',(0.,0.,1.));
#338=DIRECTION('',(1.,0.,0.));
#339=DIRECTION('',(0.,0.,-1.));
#340=DIRECTION('',(-1.,0.,0.));
#341=DIRECTION('',(0.,0.,1.));
#342=DIRECTION('',(-1.,0.,0.));
#343=DIRECTION('',(0.,0.,-1.));
#344=DIRECTION('',(-1.,0.,0.));
#345=DIRECTION('',(0.,0.,-1.));
#346=DIRECTION('',(-1.,0.,0.));
#347=DIRECTION('',(0.,0.,-1.));
#348=DIRECTION('',(-1.,0.,0.));
#349=DIRECTION('',(0.,0.,-1.));
#350=DIRECTION('',(-1.,0.,4.08693357138738E-017));
#351=DIRECTION('',(0.,0.,-1.));
#352=DIRECTION('',(-1.,0.,0.));
#353=DIRECTION('',(0.,0.,-1.));
#354=DIRECTION('',(-1.,0.,0.));
#355=DIRECTION('',(0.,0.,-1.));
#356=DIRECTION('',(1.,0.,0.));
#357=DIRECTION('',(0.,0.,1.));
#358=DIRECTION('',(1.,0.,2.71576895255561E-017));
#359=DIRECTION('',(0.,0.,-1.));
#360=DIRECTION('',(-1.,0.,0.));
#361=DIRECTION('',(0.,0.,1.));
#362=DIRECTION('',(1.,0.,0.));
#363=DIRECTION('',(0.,0.,-1.));
#364=DIRECTION('',(-1.,0.,0.));
#365=DIRECTION('',(0.,0.,-1.));
#366=DIRECTION('',(-1.,0.,0.));
#367=DIRECTION('',(0.,0.,-1.));
#368=DIRECTION('',(-1.,0.,0.));
#369=DIRECTION('',(0.,0.,1.));
#370=DIRECTION('',(1.,0.,1.36030847768017E-017));
#371=DIRECTION('',(0.,0.,-1.));
#372=DIRECTION('',(-1.,0.,0.));
#373=DIRECTION('',(0.,0.,1.));
#374=DIRECTION('',(1.,0.,0.));
#375=DIRECTION('',(0.,0.,-1.));
#376=DIRECTION('',(-1.,0.,0.));
#377=DIRECTION('',(0.,0.,-1.));
#378=DIRECTION('',(-1.,0.,0.));
#379=DIRECTION('',(0.,0.,-1.));
#380=DIRECTION('',(-1.,0.,0.));
#381=DIRECTION('',(0.,0.,1.));
#382=DIRECTION('',(1.,0.,1.36722491986175E-017));
#383=DIRECTION('',(0.,0.,-1.));
#384=DIRECTION('',(-1.,0.,0.));
#385=DIRECTION('',(0.,0.,-1.));
#386=DIRECTION('',(-1.,0.,0.));
#387=DIRECTION('',(0.,0.,-1.));
#388=DIRECTION('',(-1.,0.,5.46999522474238E-017));
#389=DIRECTION('',(0.,0.,-1.));
#390=DIRECTION('',(-1.,0.,0.));
#391=DIRECTION('',(0.,0.,-1.));
#392=DIRECTION('',(-1.,0.,0.));
#393=DIRECTION('',(0.,0.,-1.));
#394=DIRECTION('',(-1.,0.,0.));
#395=DIRECTION('',(0.,0.,-1.));
#396=DIRECTION('',(-1.,0.,0.));
#397=DIRECTION('',(0.,0.,-1.));
#398=DIRECTION('',(-1.,0.,0.));
#399=DIRECTION('',(0.,0.,-1.));
#400=DIRECTION('',(-1.,0.,0.));
#401=DIRECTION('',(0.,0.,-1.));
#402=DIRECTION('',(-1.,0.,0.));
#403=DIRECTION('',(0.,0.,-1.));
#404=DIRECTION('',(0.,1.,0.));
#405=DIRECTION('',(0.,0.,1.));
#406=DIRECTION('',(0.,-1.,0.));
#407=DIRECTION('',(0.,0.,-1.));
#408=DIRECTION('',(0.,1.,0.));
#409=DIRECTION('',(0.,0.,1.));
#410=DIRECTION('',(0.,-1.,-1.58327274348199E-017));
#411=DIRECTION('',(0.,0.,-1.));
#412=DIRECTION('',(0.,1.,0.));
#413=DIRECTION('',(0.,0.,-1.));
#414=DIRECTION('',(0.,1.,0.));
#415=DIRECTION('',(0.,0.,-1.));
#416=DIRECTION('',(0.,1.,0.));
#417=DIRECTION('',(0.,0.,-1.));
#418=DIRECTION('',(0.,1.,0.));
#419=DIRECTION('',(0.,0.,-1.));
#420=DIRECTION('',(0.,1.,0.));
#421=CARTESIAN_POINT('',(0.,0.,0.));
#422=CARTESIAN_POINT('PCS',(0.,0.,0.));
#423=CARTESIAN_POINT('MCS',(0.,0.,-50.8));
#424=CARTESIAN_POINT('CSW',(0.,0.,-125.4));
#425=CARTESIAN_POINT('',(0.,0.,0.));
#426=CARTESIAN_POINT('',(0.,0.,-50.8));
#427=CARTESIAN_POINT('',(0.,0.,-125.4));
#428=CARTESIAN_POINT('',(0.,0.,-112.592358012379));
#429=CARTESIAN_POINT('',(-16.0223654780894,0.,-112.592358012379));
#430=CARTESIAN_POINT('',(0.,0.,-113.9));
#431=CARTESIAN_POINT('',(-16.0223654718969,0.,-113.9));
#432=CARTESIAN_POINT('',(0.,0.,0.));
#433=CARTESIAN_POINT('',(0.,0.,-54.120951801528));
#434=CARTESIAN_POINT('',(-22.015351801528,0.,-54.120951801528));
#435=CARTESIAN_POINT('',(0.,0.,-50.8));
#436=CARTESIAN_POINT('',(-18.6944,0.,-50.8));
#437=CARTESIAN_POINT('',(0.,0.,-50.8));
#438=CARTESIAN_POINT('',(0.,0.,-96.4151417763173));
#439=CARTESIAN_POINT('',(-22.015351801528,0.,-96.4151417763173));
#440=CARTESIAN_POINT('',(0.,0.,0.));
#441=CARTESIAN_POINT('',(0.,0.,-96.6987599660723));
#442=CARTESIAN_POINT('',(-21.731733611762,0.,-96.6987599660723));
#443=CARTESIAN_POINT('',(0.,0.,-96.4151417763173));
#444=CARTESIAN_POINT('',(0.,0.,-96.6987599660723));
#445=CARTESIAN_POINT('',(-20.1941718015145,0.,-96.6987599660723));
#446=CARTESIAN_POINT('',(-13.2747287259923,-16.9908779524668,-96.6987599660723));
#447=CARTESIAN_POINT('',(0.,0.,-101.0158));
#448=CARTESIAN_POINT('',(-20.1941718015146,0.,-101.0158));
#449=CARTESIAN_POINT('',(0.,0.,0.));
#450=CARTESIAN_POINT('',(0.,0.,-101.5238));
#451=CARTESIAN_POINT('',(-19.6861718015146,0.,-101.5238));
#452=CARTESIAN_POINT('',(0.,0.,-101.0158));
#453=CARTESIAN_POINT('',(0.,0.,-101.5238));
#454=CARTESIAN_POINT('',(-15.0317640856267,0.,-101.5238));
#455=CARTESIAN_POINT('',(-12.1200175748349,-15.5129150769429,-101.5238));
#456=CARTESIAN_POINT('',(0.,0.,-109.188757999994));
#457=CARTESIAN_POINT('',(-15.0317640856268,0.,-109.188757999994));
#458=CARTESIAN_POINT('',(0.,0.,0.));
#459=CARTESIAN_POINT('',(0.,0.,-109.391957999995));
#460=CARTESIAN_POINT('',(-14.8285637796914,0.,-109.391957999995));
#461=CARTESIAN_POINT('',(0.,0.,-109.188757999994));
#462=CARTESIAN_POINT('',(0.,0.,-111.398557999995));
#463=CARTESIAN_POINT('',(-14.8285637796914,0.,-111.398557999995));
#464=CARTESIAN_POINT('',(0.,0.,0.));
#465=CARTESIAN_POINT('',(0.,0.,-111.398557999995));
#466=CARTESIAN_POINT('',(0.,0.,0.));
#467=CARTESIAN_POINT('',(-11.811,0.,0.));
#468=CARTESIAN_POINT('',(6.21724893790088E-015,-7.105427357601E-015,0.));
#469=CARTESIAN_POINT('',(0.,0.,-0.886520136057502));
#470=CARTESIAN_POINT('',(-12.6975201360575,0.,-0.886520136057502));
#471=CARTESIAN_POINT('',(0.,0.,0.));
#472=CARTESIAN_POINT('',(0.,0.,-50.8));
#473=CARTESIAN_POINT('',(-12.6975201360575,0.,-50.8));
#474=CARTESIAN_POINT('',(0.,0.,0.));
#475=CARTESIAN_POINT('',(-7.684391101272,-9.83557208857203,-50.8));
#476=CARTESIAN_POINT('',(0.,0.,-133.9));
#477=CARTESIAN_POINT('',(0.,15.8038475772934,-133.9));
#478=CARTESIAN_POINT('',(-15.8038475772934,0.,-133.9));
#479=CARTESIAN_POINT('',(0.,0.,-130.9));
#480=CARTESIAN_POINT('',(0.,21.,-130.9));
#481=CARTESIAN_POINT('',(0.,0.,-130.9));
#482=CARTESIAN_POINT('',(0.,0.,-114.9));
#483=CARTESIAN_POINT('',(0.,21.,-114.9));
#484=CARTESIAN_POINT('',(0.,0.,-113.9));
#485=CARTESIAN_POINT('',(0.,0.,-113.9));
#486=CARTESIAN_POINT('',(0.,20.,-113.9));
#487=CARTESIAN_POINT('',(0.,0.,-114.9));
#488=CARTESIAN_POINT('',(-15.25,0.,-113.9));
#489=MECHANICAL_DESIGN_GEOMETRIC_PRESENTATION_REPRESENTATION('',(#264,#265,
#266,#267,#268,#269,#270),#490);
#490=(
GEOMETRIC_REPRESENTATION_CONTEXT(3)
GLOBAL_UNCERTAINTY_ASSIGNED_CONTEXT((#491))
GLOBAL_UNIT_ASSIGNED_CONTEXT((#497,#493,#492))
REPRESENTATION_CONTEXT('1525693495251','TOP_LEVEL_ASSEMBLY_PART')
);
#491=UNCERTAINTY_MEASURE_WITH_UNIT(LENGTH_MEASURE(2.E-005),#497,
'DISTANCE_ACCURACY_VALUE','Maximum Tolerance applied to model');
#492=(
NAMED_UNIT(*)
SI_UNIT($,.STERADIAN.)
SOLID_ANGLE_UNIT()
);
#493=(
CONVERSION_BASED_UNIT('DEGREE',#495)
NAMED_UNIT(#494)
PLANE_ANGLE_UNIT()
);
#494=DIMENSIONAL_EXPONENTS(0.,0.,0.,0.,0.,0.,0.);
#495=PLANE_ANGLE_MEASURE_WITH_UNIT(PLANE_ANGLE_MEASURE(0.0174532925),#496);
#496=(
NAMED_UNIT(*)
PLANE_ANGLE_UNIT()
SI_UNIT($,.RADIAN.)
);
#497=(
LENGTH_UNIT()
NAMED_UNIT(*)
SI_UNIT(.MILLI.,.METRE.)
);
ENDSEC;
END-ISO-10303-21;
