ISO-10303-21;
HEADER;
/* Generated by software containing ST-Developer
 * from STEP Tools, Inc. (www.steptools.com) 
 */
/* OPTION: using custom schema-name function */

FILE_DESCRIPTION(
/* description */ (''),
/* implementation_level */ '2;1');

FILE_NAME(
/* name */ '1525691853381.stp',
/* time_stamp */ '2018-05-07T13:17:43+02:00',
/* author */ (''),
/* organization */ ('SMS'),
/* preprocessor_version */ 'ST-DEVELOPER v15',
/* originating_system */ 'SIEMENS PLM Software NX 8.5',
/* authorisation */ '');

FILE_SCHEMA (('AUTOMOTIVE_DESIGN { 1 0 10303 214 3 1 1 1 }'));
ENDSEC;

DATA;
#10=CONSTRUCTIVE_GEOMETRY_REPRESENTATION_RELATIONSHIP(
'supplemental geometry','',#26,#11);
#11=CONSTRUCTIVE_GEOMETRY_REPRESENTATION('supplemental geometry',(#298,
#299,#300),#510);
#12=GEOMETRICALLY_BOUNDED_WIREFRAME_SHAPE_REPRESENTATION(
'112029279mod000_00-None',(#27),#510);
#13=SHAPE_REPRESENTATION_RELATIONSHIP('None',
'relationship between 112029279mod000_00-None and 112029279mod000_00-N
one',#26,#15);
#14=SHAPE_REPRESENTATION_RELATIONSHIP('None',
'relationship between 112029279mod000_00-None and 112029279mod000_00-N
one',#26,#12);
#15=ADVANCED_BREP_SHAPE_REPRESENTATION('112029279mod000_00-None',(#33),
#510);
#16=SHAPE_DEFINITION_REPRESENTATION(#17,#26);
#17=PRODUCT_DEFINITION_SHAPE('','',#18);
#18=PRODUCT_DEFINITION(' ','',#20,#19);
#19=PRODUCT_DEFINITION_CONTEXT('part definition',#25,'design');
#20=PRODUCT_DEFINITION_FORMATION_WITH_SPECIFIED_SOURCE(' ',' ',#22,
 .NOT_KNOWN.);
#21=PRODUCT_RELATED_PRODUCT_CATEGORY('part','',(#22));
#22=PRODUCT('112029279mod000_00','112029279mod000_00',' ',(#23));
#23=PRODUCT_CONTEXT(' ',#25,'mechanical');
#24=APPLICATION_PROTOCOL_DEFINITION('international standard',
'automotive_design',2010,#25);
#25=APPLICATION_CONTEXT(
'core data for automotive mechanical design processes');
#26=SHAPE_REPRESENTATION('112029279mod000_00-None',(#297),#510);
#27=GEOMETRIC_CURVE_SET('None',(#439,#440,#441));
#28=SURFACE_STYLE_USAGE(.BOTH.,#29);
#29=SURFACE_SIDE_STYLE('',(#30));
#30=SURFACE_STYLE_FILL_AREA(#31);
#31=FILL_AREA_STYLE('',(#32));
#32=FILL_AREA_STYLE_COLOUR('',#296);
#33=MANIFOLD_SOLID_BREP('NOCUT',#34);
#34=CLOSED_SHELL('',(#90,#91,#92,#93,#94,#95,#96,#97,#98,#99,#100,#101,
#102,#103,#104,#105,#106,#107,#108,#109,#110,#111));
#35=CYLINDRICAL_SURFACE('',#308,9.3599);
#36=CYLINDRICAL_SURFACE('',#314,6.99769999999949);
#37=CYLINDRICAL_SURFACE('',#318,6.34999999999947);
#38=CYLINDRICAL_SURFACE('',#324,7.88289);
#39=CYLINDRICAL_SURFACE('',#330,9.93257180151469);
#40=CYLINDRICAL_SURFACE('',#336,11.7537518015145);
#41=CYLINDRICAL_SURFACE('',#342,7.99719);
#42=CONICAL_SURFACE('',#306,7.1374,60.);
#43=CONICAL_SURFACE('',#310,9.3599,45.0000000000005);
#44=CONICAL_SURFACE('',#316,6.99769999999949,45.0000000000017);
#45=CONICAL_SURFACE('',#322,7.37489,45.000000000001);
#46=CONICAL_SURFACE('',#328,9.398,45.0000000000007);
#47=CONICAL_SURFACE('',#334,11.3001336117831,44.9999999985081);
#48=CONICAL_SURFACE('',#338,11.7537518015145,44.9999999999994);
#49=CONICAL_SURFACE('',#343,7.99719,44.9999999999999);
#50=FACE_BOUND('',#123,.T.);
#51=FACE_BOUND('',#124,.T.);
#52=FACE_BOUND('',#125,.T.);
#53=FACE_BOUND('',#126,.T.);
#54=FACE_BOUND('',#127,.T.);
#55=FACE_BOUND('',#128,.T.);
#56=FACE_BOUND('',#129,.T.);
#57=FACE_BOUND('',#130,.T.);
#58=FACE_BOUND('',#131,.T.);
#59=FACE_BOUND('',#132,.T.);
#60=FACE_BOUND('',#133,.T.);
#61=FACE_BOUND('',#134,.T.);
#62=FACE_BOUND('',#135,.T.);
#63=FACE_BOUND('',#136,.T.);
#64=FACE_BOUND('',#137,.T.);
#65=FACE_BOUND('',#138,.T.);
#66=FACE_BOUND('',#139,.T.);
#67=FACE_BOUND('',#140,.T.);
#68=FACE_BOUND('',#141,.T.);
#69=FACE_BOUND('',#142,.T.);
#70=FACE_BOUND('',#143,.T.);
#71=FACE_BOUND('',#144,.T.);
#72=FACE_BOUND('',#145,.T.);
#73=FACE_BOUND('',#146,.T.);
#74=FACE_BOUND('',#147,.T.);
#75=FACE_BOUND('',#148,.T.);
#76=FACE_BOUND('',#149,.T.);
#77=FACE_BOUND('',#150,.T.);
#78=FACE_BOUND('',#151,.T.);
#79=FACE_BOUND('',#152,.T.);
#80=FACE_BOUND('',#153,.T.);
#81=FACE_BOUND('',#154,.T.);
#82=FACE_BOUND('',#155,.T.);
#83=FACE_BOUND('',#156,.T.);
#84=FACE_BOUND('',#157,.T.);
#85=FACE_BOUND('',#158,.T.);
#86=FACE_BOUND('',#159,.T.);
#87=FACE_BOUND('',#160,.T.);
#88=FACE_BOUND('',#161,.T.);
#89=FACE_BOUND('',#162,.T.);
#90=ADVANCED_FACE('',(#119),#112,.T.);
#91=ADVANCED_FACE('',(#120),#113,.T.);
#92=ADVANCED_FACE('',(#50,#51),#42,.T.);
#93=ADVANCED_FACE('',(#52,#53),#35,.T.);
#94=ADVANCED_FACE('',(#54,#55),#43,.T.);
#95=ADVANCED_FACE('',(#56,#57),#114,.T.);
#96=ADVANCED_FACE('',(#58,#59),#36,.T.);
#97=ADVANCED_FACE('',(#60,#61),#44,.T.);
#98=ADVANCED_FACE('',(#62,#63),#37,.T.);
#99=ADVANCED_FACE('',(#64,#65),#115,.T.);
#100=ADVANCED_FACE('',(#66,#67),#45,.T.);
#101=ADVANCED_FACE('',(#68,#69),#38,.T.);
#102=ADVANCED_FACE('',(#70,#71),#116,.T.);
#103=ADVANCED_FACE('',(#72,#73),#46,.T.);
#104=ADVANCED_FACE('',(#74,#75),#39,.T.);
#105=ADVANCED_FACE('',(#76,#77),#117,.T.);
#106=ADVANCED_FACE('',(#78,#79),#47,.T.);
#107=ADVANCED_FACE('',(#80,#81),#40,.T.);
#108=ADVANCED_FACE('',(#82,#83),#48,.T.);
#109=ADVANCED_FACE('',(#84,#85),#118,.T.);
#110=ADVANCED_FACE('',(#86,#87),#41,.T.);
#111=ADVANCED_FACE('',(#88,#89),#49,.T.);
#112=PLANE('',#302);
#113=PLANE('',#304);
#114=PLANE('',#312);
#115=PLANE('',#320);
#116=PLANE('',#326);
#117=PLANE('',#332);
#118=PLANE('',#340);
#119=FACE_OUTER_BOUND('',#121,.T.);
#120=FACE_OUTER_BOUND('',#122,.T.);
#121=EDGE_LOOP('',(#163));
#122=EDGE_LOOP('',(#164));
#123=EDGE_LOOP('',(#165));
#124=EDGE_LOOP('',(#166));
#125=EDGE_LOOP('',(#167));
#126=EDGE_LOOP('',(#168));
#127=EDGE_LOOP('',(#169));
#128=EDGE_LOOP('',(#170));
#129=EDGE_LOOP('',(#171));
#130=EDGE_LOOP('',(#172));
#131=EDGE_LOOP('',(#173));
#132=EDGE_LOOP('',(#174));
#133=EDGE_LOOP('',(#175));
#134=EDGE_LOOP('',(#176));
#135=EDGE_LOOP('',(#177));
#136=EDGE_LOOP('',(#178));
#137=EDGE_LOOP('',(#179));
#138=EDGE_LOOP('',(#180));
#139=EDGE_LOOP('',(#181));
#140=EDGE_LOOP('',(#182));
#141=EDGE_LOOP('',(#183));
#142=EDGE_LOOP('',(#184));
#143=EDGE_LOOP('',(#185));
#144=EDGE_LOOP('',(#186));
#145=EDGE_LOOP('',(#187));
#146=EDGE_LOOP('',(#188));
#147=EDGE_LOOP('',(#189));
#148=EDGE_LOOP('',(#190));
#149=EDGE_LOOP('',(#191));
#150=EDGE_LOOP('',(#192));
#151=EDGE_LOOP('',(#193));
#152=EDGE_LOOP('',(#194));
#153=EDGE_LOOP('',(#195));
#154=EDGE_LOOP('',(#196));
#155=EDGE_LOOP('',(#197));
#156=EDGE_LOOP('',(#198));
#157=EDGE_LOOP('',(#199));
#158=EDGE_LOOP('',(#200));
#159=EDGE_LOOP('',(#201));
#160=EDGE_LOOP('',(#202));
#161=EDGE_LOOP('',(#203));
#162=EDGE_LOOP('',(#204));
#163=ORIENTED_EDGE('',*,*,#226,.F.);
#164=ORIENTED_EDGE('',*,*,#227,.T.);
#165=ORIENTED_EDGE('',*,*,#228,.T.);
#166=ORIENTED_EDGE('',*,*,#227,.F.);
#167=ORIENTED_EDGE('',*,*,#229,.T.);
#168=ORIENTED_EDGE('',*,*,#228,.F.);
#169=ORIENTED_EDGE('',*,*,#230,.T.);
#170=ORIENTED_EDGE('',*,*,#229,.F.);
#171=ORIENTED_EDGE('',*,*,#231,.T.);
#172=ORIENTED_EDGE('',*,*,#230,.F.);
#173=ORIENTED_EDGE('',*,*,#232,.T.);
#174=ORIENTED_EDGE('',*,*,#231,.F.);
#175=ORIENTED_EDGE('',*,*,#233,.T.);
#176=ORIENTED_EDGE('',*,*,#232,.F.);
#177=ORIENTED_EDGE('',*,*,#234,.T.);
#178=ORIENTED_EDGE('',*,*,#233,.F.);
#179=ORIENTED_EDGE('',*,*,#235,.T.);
#180=ORIENTED_EDGE('',*,*,#234,.F.);
#181=ORIENTED_EDGE('',*,*,#236,.T.);
#182=ORIENTED_EDGE('',*,*,#235,.F.);
#183=ORIENTED_EDGE('',*,*,#237,.T.);
#184=ORIENTED_EDGE('',*,*,#236,.F.);
#185=ORIENTED_EDGE('',*,*,#238,.T.);
#186=ORIENTED_EDGE('',*,*,#237,.F.);
#187=ORIENTED_EDGE('',*,*,#239,.T.);
#188=ORIENTED_EDGE('',*,*,#238,.F.);
#189=ORIENTED_EDGE('',*,*,#240,.T.);
#190=ORIENTED_EDGE('',*,*,#239,.F.);
#191=ORIENTED_EDGE('',*,*,#241,.T.);
#192=ORIENTED_EDGE('',*,*,#240,.F.);
#193=ORIENTED_EDGE('',*,*,#242,.T.);
#194=ORIENTED_EDGE('',*,*,#241,.F.);
#195=ORIENTED_EDGE('',*,*,#243,.T.);
#196=ORIENTED_EDGE('',*,*,#242,.F.);
#197=ORIENTED_EDGE('',*,*,#244,.T.);
#198=ORIENTED_EDGE('',*,*,#243,.F.);
#199=ORIENTED_EDGE('',*,*,#245,.T.);
#200=ORIENTED_EDGE('',*,*,#244,.F.);
#201=ORIENTED_EDGE('',*,*,#246,.T.);
#202=ORIENTED_EDGE('',*,*,#245,.F.);
#203=ORIENTED_EDGE('',*,*,#226,.T.);
#204=ORIENTED_EDGE('',*,*,#246,.F.);
#205=VERTEX_POINT('',#446);
#206=VERTEX_POINT('',#449);
#207=VERTEX_POINT('',#452);
#208=VERTEX_POINT('',#455);
#209=VERTEX_POINT('',#458);
#210=VERTEX_POINT('',#461);
#211=VERTEX_POINT('',#464);
#212=VERTEX_POINT('',#467);
#213=VERTEX_POINT('',#470);
#214=VERTEX_POINT('',#473);
#215=VERTEX_POINT('',#476);
#216=VERTEX_POINT('',#479);
#217=VERTEX_POINT('',#482);
#218=VERTEX_POINT('',#485);
#219=VERTEX_POINT('',#488);
#220=VERTEX_POINT('',#491);
#221=VERTEX_POINT('',#494);
#222=VERTEX_POINT('',#497);
#223=VERTEX_POINT('',#500);
#224=VERTEX_POINT('',#503);
#225=VERTEX_POINT('',#506);
#226=EDGE_CURVE('',#205,#205,#247,.T.);
#227=EDGE_CURVE('',#206,#206,#248,.T.);
#228=EDGE_CURVE('',#207,#207,#249,.T.);
#229=EDGE_CURVE('',#208,#208,#250,.T.);
#230=EDGE_CURVE('',#209,#209,#251,.T.);
#231=EDGE_CURVE('',#210,#210,#252,.T.);
#232=EDGE_CURVE('',#211,#211,#253,.T.);
#233=EDGE_CURVE('',#212,#212,#254,.T.);
#234=EDGE_CURVE('',#213,#213,#255,.T.);
#235=EDGE_CURVE('',#214,#214,#256,.T.);
#236=EDGE_CURVE('',#215,#215,#257,.T.);
#237=EDGE_CURVE('',#216,#216,#258,.T.);
#238=EDGE_CURVE('',#217,#217,#259,.T.);
#239=EDGE_CURVE('',#218,#218,#260,.T.);
#240=EDGE_CURVE('',#219,#219,#261,.T.);
#241=EDGE_CURVE('',#220,#220,#262,.T.);
#242=EDGE_CURVE('',#221,#221,#263,.T.);
#243=EDGE_CURVE('',#222,#222,#264,.T.);
#244=EDGE_CURVE('',#223,#223,#265,.T.);
#245=EDGE_CURVE('',#224,#224,#266,.T.);
#246=EDGE_CURVE('',#225,#225,#267,.T.);
#247=CIRCLE('',#301,6.98119);
#248=CIRCLE('',#303,7.10275898384861);
#249=CIRCLE('',#305,9.3599);
#250=CIRCLE('',#307,9.3599);
#251=CIRCLE('',#309,8.5979);
#252=CIRCLE('',#311,6.99769999999949);
#253=CIRCLE('',#313,6.99769999999949);
#254=CIRCLE('',#315,6.34999999999947);
#255=CIRCLE('',#317,6.34999999999947);
#256=CIRCLE('',#319,7.37489);
#257=CIRCLE('',#321,7.88289);
#258=CIRCLE('',#323,7.88289);
#259=CIRCLE('',#325,9.398);
#260=CIRCLE('',#327,9.93257180151468);
#261=CIRCLE('',#329,9.93257180151469);
#262=CIRCLE('',#331,11.3001336117831);
#263=CIRCLE('',#333,11.7537518015145);
#264=CIRCLE('',#335,11.7537518015145);
#265=CIRCLE('',#337,11.4227518015147);
#266=CIRCLE('',#339,7.99719);
#267=CIRCLE('',#341,7.99719);
#268=CURVE_STYLE('',#271,POSITIVE_LENGTH_MEASURE(0.18),#295);
#269=CURVE_STYLE('',#272,POSITIVE_LENGTH_MEASURE(0.18),#295);
#270=CURVE_STYLE('',#273,POSITIVE_LENGTH_MEASURE(0.18),#295);
#271=DRAUGHTING_PRE_DEFINED_CURVE_FONT('continuous');
#272=DRAUGHTING_PRE_DEFINED_CURVE_FONT('continuous');
#273=DRAUGHTING_PRE_DEFINED_CURVE_FONT('continuous');
#274=PRESENTATION_LAYER_ASSIGNMENT('1','Layer 1',(#439,#440,#441,#298,#299,
#300,#33));
#275=STYLED_ITEM('',(#282),#439);
#276=STYLED_ITEM('',(#283),#440);
#277=STYLED_ITEM('',(#284),#441);
#278=STYLED_ITEM('',(#285),#298);
#279=STYLED_ITEM('',(#286),#299);
#280=STYLED_ITEM('',(#287),#300);
#281=STYLED_ITEM('',(#288),#33);
#282=PRESENTATION_STYLE_ASSIGNMENT((#289));
#283=PRESENTATION_STYLE_ASSIGNMENT((#290));
#284=PRESENTATION_STYLE_ASSIGNMENT((#291));
#285=PRESENTATION_STYLE_ASSIGNMENT((#268));
#286=PRESENTATION_STYLE_ASSIGNMENT((#269));
#287=PRESENTATION_STYLE_ASSIGNMENT((#270));
#288=PRESENTATION_STYLE_ASSIGNMENT((#28));
#289=POINT_STYLE('',#292,POSITIVE_LENGTH_MEASURE(3.),#295);
#290=POINT_STYLE('',#293,POSITIVE_LENGTH_MEASURE(3.),#295);
#291=POINT_STYLE('',#294,POSITIVE_LENGTH_MEASURE(3.),#295);
#292=PRE_DEFINED_POINT_MARKER_SYMBOL('plus');
#293=PRE_DEFINED_POINT_MARKER_SYMBOL('plus');
#294=PRE_DEFINED_POINT_MARKER_SYMBOL('plus');
#295=COLOUR_RGB('Strong Stone',0.576470588235294,0.54508278019379,0.392156862745098);
#296=COLOUR_RGB('Medium Gray',0.501960784313725,0.501960784313725,0.501960784313725);
#297=AXIS2_PLACEMENT_3D('',#438,#344,#345);
#298=AXIS2_PLACEMENT_3D('PCS',#442,#346,#347);
#299=AXIS2_PLACEMENT_3D('MCS',#443,#348,#349);
#300=AXIS2_PLACEMENT_3D('CSW',#444,#350,#351);
#301=AXIS2_PLACEMENT_3D('',#445,#352,#353);
#302=AXIS2_PLACEMENT_3D('',#447,#354,#355);
#303=AXIS2_PLACEMENT_3D('',#448,#356,#357);
#304=AXIS2_PLACEMENT_3D('',#450,#358,#359);
#305=AXIS2_PLACEMENT_3D('',#451,#360,#361);
#306=AXIS2_PLACEMENT_3D('',#453,#362,#363);
#307=AXIS2_PLACEMENT_3D('',#454,#364,#365);
#308=AXIS2_PLACEMENT_3D('',#456,#366,#367);
#309=AXIS2_PLACEMENT_3D('',#457,#368,#369);
#310=AXIS2_PLACEMENT_3D('',#459,#370,#371);
#311=AXIS2_PLACEMENT_3D('',#460,#372,#373);
#312=AXIS2_PLACEMENT_3D('',#462,#374,#375);
#313=AXIS2_PLACEMENT_3D('',#463,#376,#377);
#314=AXIS2_PLACEMENT_3D('',#465,#378,#379);
#315=AXIS2_PLACEMENT_3D('',#466,#380,#381);
#316=AXIS2_PLACEMENT_3D('',#468,#382,#383);
#317=AXIS2_PLACEMENT_3D('',#469,#384,#385);
#318=AXIS2_PLACEMENT_3D('',#471,#386,#387);
#319=AXIS2_PLACEMENT_3D('',#472,#388,#389);
#320=AXIS2_PLACEMENT_3D('',#474,#390,#391);
#321=AXIS2_PLACEMENT_3D('',#475,#392,#393);
#322=AXIS2_PLACEMENT_3D('',#477,#394,#395);
#323=AXIS2_PLACEMENT_3D('',#478,#396,#397);
#324=AXIS2_PLACEMENT_3D('',#480,#398,#399);
#325=AXIS2_PLACEMENT_3D('',#481,#400,#401);
#326=AXIS2_PLACEMENT_3D('',#483,#402,#403);
#327=AXIS2_PLACEMENT_3D('',#484,#404,#405);
#328=AXIS2_PLACEMENT_3D('',#486,#406,#407);
#329=AXIS2_PLACEMENT_3D('',#487,#408,#409);
#330=AXIS2_PLACEMENT_3D('',#489,#410,#411);
#331=AXIS2_PLACEMENT_3D('',#490,#412,#413);
#332=AXIS2_PLACEMENT_3D('',#492,#414,#415);
#333=AXIS2_PLACEMENT_3D('',#493,#416,#417);
#334=AXIS2_PLACEMENT_3D('',#495,#418,#419);
#335=AXIS2_PLACEMENT_3D('',#496,#420,#421);
#336=AXIS2_PLACEMENT_3D('',#498,#422,#423);
#337=AXIS2_PLACEMENT_3D('',#499,#424,#425);
#338=AXIS2_PLACEMENT_3D('',#501,#426,#427);
#339=AXIS2_PLACEMENT_3D('',#502,#428,#429);
#340=AXIS2_PLACEMENT_3D('',#504,#430,#431);
#341=AXIS2_PLACEMENT_3D('',#505,#432,#433);
#342=AXIS2_PLACEMENT_3D('',#507,#434,#435);
#343=AXIS2_PLACEMENT_3D('',#508,#436,#437);
#344=DIRECTION('',(0.,0.,1.));
#345=DIRECTION('',(1.,0.,0.));
#346=DIRECTION('',(0.,0.,1.));
#347=DIRECTION('',(1.,0.,0.));
#348=DIRECTION('',(0.,0.,1.));
#349=DIRECTION('',(1.,0.,0.));
#350=DIRECTION('',(0.,0.,1.));
#351=DIRECTION('',(1.,0.,0.));
#352=DIRECTION('',(-4.44089209850063E-016,0.,-1.));
#353=DIRECTION('',(-1.,0.,4.44089209850063E-016));
#354=DIRECTION('',(4.44089209850063E-016,0.,1.));
#355=DIRECTION('',(1.,0.,-4.44089209850063E-016));
#356=DIRECTION('',(-4.44089209850063E-016,0.,-1.));
#357=DIRECTION('',(-1.,0.,0.));
#358=DIRECTION('',(-4.44089209850063E-016,0.,-1.));
#359=DIRECTION('',(-1.,0.,4.44089209850063E-016));
#360=DIRECTION('',(-4.44089209850063E-016,0.,-1.));
#361=DIRECTION('',(-1.,0.,0.));
#362=DIRECTION('',(4.44089209850063E-016,0.,1.));
#363=DIRECTION('',(1.,0.,-4.78767775014304E-016));
#364=DIRECTION('',(-4.44089209850063E-016,0.,-1.));
#365=DIRECTION('',(-1.,0.,0.));
#366=DIRECTION('',(-4.44089209850063E-016,0.,-1.));
#367=DIRECTION('',(-1.,0.,4.44089209850063E-016));
#368=DIRECTION('',(-4.44089209850063E-016,0.,-1.));
#369=DIRECTION('',(-1.,0.,0.));
#370=DIRECTION('',(-4.44089209850063E-016,0.,-1.));
#371=DIRECTION('',(-1.,0.,3.71225635980767E-016));
#372=DIRECTION('',(-4.44089209850063E-016,0.,-1.));
#373=DIRECTION('',(-1.,0.,0.));
#374=DIRECTION('',(4.44089209850063E-016,0.,1.));
#375=DIRECTION('',(1.,0.,-4.44089209850063E-016));
#376=DIRECTION('',(-4.44089209850063E-016,0.,-1.));
#377=DIRECTION('',(-1.,0.,0.));
#378=DIRECTION('',(-4.44089209850063E-016,0.,-1.));
#379=DIRECTION('',(-1.,0.,4.44089209850063E-016));
#380=DIRECTION('',(-4.44089209850063E-016,0.,-1.));
#381=DIRECTION('',(-1.,0.,0.));
#382=DIRECTION('',(-4.44089209850063E-016,0.,-1.));
#383=DIRECTION('',(-1.,0.,3.58315101417962E-016));
#384=DIRECTION('',(-4.44089209850063E-016,0.,-1.));
#385=DIRECTION('',(-1.,0.,0.));
#386=DIRECTION('',(-4.44089209850063E-016,0.,-1.));
#387=DIRECTION('',(-1.,0.,4.44089209850063E-016));
#388=DIRECTION('',(-4.44089209850063E-016,0.,-1.));
#389=DIRECTION('',(-1.,0.,0.));
#390=DIRECTION('',(-4.44089209850063E-016,0.,-1.));
#391=DIRECTION('',(-1.,0.,4.44089209850063E-016));
#392=DIRECTION('',(-4.44089209850063E-016,0.,-1.));
#393=DIRECTION('',(-1.,0.,0.));
#394=DIRECTION('',(4.44089209850063E-016,0.,1.));
#395=DIRECTION('',(1.,0.,-4.82166647288071E-016));
#396=DIRECTION('',(-4.44089209850063E-016,0.,-1.));
#397=DIRECTION('',(-1.,0.,0.));
#398=DIRECTION('',(-4.44089209850063E-016,0.,-1.));
#399=DIRECTION('',(-1.,0.,4.44089209850063E-016));
#400=DIRECTION('',(-4.44089209850063E-016,0.,-1.));
#401=DIRECTION('',(-1.,0.,0.));
#402=DIRECTION('',(-4.44089209850063E-016,0.,-1.));
#403=DIRECTION('',(-1.,0.,4.44089209850063E-016));
#404=DIRECTION('',(-4.44089209850063E-016,0.,-1.));
#405=DIRECTION('',(-1.,0.,0.));
#406=DIRECTION('',(4.44089209850063E-016,0.,1.));
#407=DIRECTION('',(1.,0.,-4.26205938630984E-016));
#408=DIRECTION('',(-4.44089209850063E-016,0.,-1.));
#409=DIRECTION('',(-1.,0.,0.));
#410=DIRECTION('',(-4.44089209850063E-016,0.,-1.));
#411=DIRECTION('',(-1.,0.,4.44089209850063E-016));
#412=DIRECTION('',(-4.44089209850063E-016,0.,-1.));
#413=DIRECTION('',(-1.,0.,0.));
#414=DIRECTION('',(-4.44089209850063E-016,0.,-1.));
#415=DIRECTION('',(-1.,0.,4.44089209850063E-016));
#416=DIRECTION('',(-4.44089209850063E-016,0.,-1.));
#417=DIRECTION('',(-1.,0.,0.));
#418=DIRECTION('',(4.44089209850063E-016,0.,1.));
#419=DIRECTION('',(1.,0.,-4.66572454415516E-016));
#420=DIRECTION('',(-4.44089209850063E-016,0.,-1.));
#421=DIRECTION('',(-1.,0.,5.90355660140206E-016));
#422=DIRECTION('',(-4.44089209850063E-016,0.,-1.));
#423=DIRECTION('',(-1.,0.,4.44089209850063E-016));
#424=DIRECTION('',(-4.44089209850063E-016,0.,-1.));
#425=DIRECTION('',(1.,0.,-6.07462547070937E-016));
#426=DIRECTION('',(-4.44089209850063E-016,0.,-1.));
#427=DIRECTION('',(-1.,0.,3.77205583903558E-016));
#428=DIRECTION('',(-4.44089209850063E-016,0.,-1.));
#429=DIRECTION('',(-1.,0.,8.67666505848583E-016));
#430=DIRECTION('',(4.44089209850063E-016,0.,1.));
#431=DIRECTION('',(1.,0.,-4.44089209850063E-016));
#432=DIRECTION('',(-4.44089209850063E-016,0.,-1.));
#433=DIRECTION('',(-1.,0.,4.33833252924291E-016));
#434=DIRECTION('',(-4.44089209850063E-016,0.,-1.));
#435=DIRECTION('',(-1.,0.,4.44089209850063E-016));
#436=DIRECTION('',(-4.44089209850063E-016,0.,-1.));
#437=DIRECTION('',(-1.,0.,5.33928034483714E-016));
#438=CARTESIAN_POINT('',(0.,0.,0.));
#439=CARTESIAN_POINT('PCS',(0.,0.,0.));
#440=CARTESIAN_POINT('MCS',(0.,0.,-44.5));
#441=CARTESIAN_POINT('CSW',(0.,0.,-91.5));
#442=CARTESIAN_POINT('',(0.,0.,0.));
#443=CARTESIAN_POINT('',(0.,0.,-44.5));
#444=CARTESIAN_POINT('',(0.,0.,-91.5));
#445=CARTESIAN_POINT('',(0.,0.,0.));
#446=CARTESIAN_POINT('',(-6.98119,0.,0.));
#447=CARTESIAN_POINT('',(3.49059499999993,-6.04588788864592,0.));
#448=CARTESIAN_POINT('',(-4.28099538929417E-014,0.,-96.3994462));
#449=CARTESIAN_POINT('',(-7.10275898384865,0.,-96.3994462));
#450=CARTESIAN_POINT('',(-4.90496532279394E-014,-3.5527136788005E-015,-96.3994462));
#451=CARTESIAN_POINT('',(-4.2231234166013E-014,0.,-95.0962852267261));
#452=CARTESIAN_POINT('',(-9.3599,0.,-95.0962852267261));
#453=CARTESIAN_POINT('',(-4.28010721087447E-014,0.,-96.3794462));
#454=CARTESIAN_POINT('',(-3.80296888202736E-014,0.,-85.6352462));
#455=CARTESIAN_POINT('',(-9.3599,0.,-85.6352462));
#456=CARTESIAN_POINT('',(0.,0.,0.));
#457=CARTESIAN_POINT('',(-3.76912928423679E-014,0.,-84.8732462));
#458=CARTESIAN_POINT('',(-8.5979,0.,-84.8732462));
#459=CARTESIAN_POINT('',(-3.80296888202736E-014,0.,-85.6352462));
#460=CARTESIAN_POINT('',(-3.76912928423679E-014,0.,-84.8732462));
#461=CARTESIAN_POINT('',(-6.99769999999953,0.,-84.8732462));
#462=CARTESIAN_POINT('',(4.29894999999989,-7.44599981919827,-84.8732462));
#463=CARTESIAN_POINT('',(-3.68913993575859E-014,0.,-83.0720462));
#464=CARTESIAN_POINT('',(-6.99769999999953,0.,-83.0720462));
#465=CARTESIAN_POINT('',(0.,0.,0.));
#466=CARTESIAN_POINT('',(-3.6603762776366E-014,0.,-82.4243462));
#467=CARTESIAN_POINT('',(-6.34999999999951,0.,-82.4243462));
#468=CARTESIAN_POINT('',(-3.68913993575859E-014,0.,-83.0720462));
#469=CARTESIAN_POINT('',(-3.56957335689856E-014,0.,-80.3796462));
#470=CARTESIAN_POINT('',(-6.3499999999995,0.,-80.3796462));
#471=CARTESIAN_POINT('',(0.,0.,0.));
#472=CARTESIAN_POINT('',(-3.56957335689856E-014,0.,-80.3796462));
#473=CARTESIAN_POINT('',(-7.37489,0.,-80.3796462));
#474=CARTESIAN_POINT('',(3.17499999999964,-5.49926131403076,-80.3796462));
#475=CARTESIAN_POINT('',(-3.54701362503818E-014,0.,-79.8716462000001));
#476=CARTESIAN_POINT('',(-7.88289,0.,-79.8716462));
#477=CARTESIAN_POINT('',(-3.56957335689856E-014,0.,-80.3796462));
#478=CARTESIAN_POINT('',(-3.34504311361172E-014,0.,-75.3236745999999));
#479=CARTESIAN_POINT('',(-7.88289,0.,-75.3236745999999));
#480=CARTESIAN_POINT('',(0.,0.,0.));
#481=CARTESIAN_POINT('',(-3.34504311361172E-014,0.,-75.3236745999999));
#482=CARTESIAN_POINT('',(-9.39800000000012,0.,-75.3236745999999));
#483=CARTESIAN_POINT('',(3.94144499999989,-6.82678299523835,-75.3236745999999));
#484=CARTESIAN_POINT('',(-3.32130335671745E-014,0.,-74.7891027984854));
#485=CARTESIAN_POINT('',(-9.93257180151471,0.,-74.7891027984854));
#486=CARTESIAN_POINT('',(-3.34504311361172E-014,0.,-75.3236745999999));
#487=CARTESIAN_POINT('',(-3.16275298398546E-014,0.,-71.2188658007091));
#488=CARTESIAN_POINT('',(-9.93257180151472,0.,-71.2188658007091));
#489=CARTESIAN_POINT('',(0.,0.,0.));
#490=CARTESIAN_POINT('',(-3.16275298398546E-014,0.,-71.2188658007091));
#491=CARTESIAN_POINT('',(-11.3001336117831,0.,-71.2188658007091));
#492=CARTESIAN_POINT('',(4.96628590075722,-8.60185950502474,-71.2188658007091));
#493=CARTESIAN_POINT('',(-3.14260828963926E-014,0.,-70.765247610954));
#494=CARTESIAN_POINT('',(-11.7537518015145,0.,-70.765247610954));
#495=CARTESIAN_POINT('',(-3.16275298398546E-014,0.,-71.2188658007091));
#496=CARTESIAN_POINT('',(-1.99089633667881E-014,0.,-44.831));
#497=CARTESIAN_POINT('',(-11.7537518015145,0.,-44.831));
#498=CARTESIAN_POINT('',(0.,0.,0.));
#499=CARTESIAN_POINT('',(-1.97619698383278E-014,0.,-44.5));
#500=CARTESIAN_POINT('',(-11.4227518015147,0.,-44.5));
#501=CARTESIAN_POINT('',(-1.99089633667881E-014,0.,-44.831));
#502=CARTESIAN_POINT('',(-1.97397653778353E-014,0.,-44.5));
#503=CARTESIAN_POINT('',(-7.99719,0.,-44.5));
#504=CARTESIAN_POINT('',(5.68637590075721,-9.84909197104699,-44.5));
#505=CARTESIAN_POINT('',(-4.51194637207699E-016,0.,-1.016));
#506=CARTESIAN_POINT('',(-7.99719,0.,-1.016));
#507=CARTESIAN_POINT('',(0.,0.,0.));
#508=CARTESIAN_POINT('',(-4.51194637207699E-016,0.,-1.016));
#509=MECHANICAL_DESIGN_GEOMETRIC_PRESENTATION_REPRESENTATION('',(#275,#276,
#277,#278,#279,#280,#281),#510);
#510=(
GEOMETRIC_REPRESENTATION_CONTEXT(3)
GLOBAL_UNCERTAINTY_ASSIGNED_CONTEXT((#511))
GLOBAL_UNIT_ASSIGNED_CONTEXT((#517,#513,#512))
REPRESENTATION_CONTEXT('1525691853381','TOP_LEVEL_ASSEMBLY_PART')
);
#511=UNCERTAINTY_MEASURE_WITH_UNIT(LENGTH_MEASURE(2.E-005),#517,
'DISTANCE_ACCURACY_VALUE','Maximum Tolerance applied to model');
#512=(
NAMED_UNIT(*)
SI_UNIT($,.STERADIAN.)
SOLID_ANGLE_UNIT()
);
#513=(
CONVERSION_BASED_UNIT('DEGREE',#515)
NAMED_UNIT(#514)
PLANE_ANGLE_UNIT()
);
#514=DIMENSIONAL_EXPONENTS(0.,0.,0.,0.,0.,0.,0.);
#515=PLANE_ANGLE_MEASURE_WITH_UNIT(PLANE_ANGLE_MEASURE(0.0174532925),#516);
#516=(
NAMED_UNIT(*)
PLANE_ANGLE_UNIT()
SI_UNIT($,.RADIAN.)
);
#517=(
LENGTH_UNIT()
NAMED_UNIT(*)
SI_UNIT(.MILLI.,.METRE.)
);
ENDSEC;
END-ISO-10303-21;
