0
SECTION
2
HEADER
9
$ACADVER
1
AC1015
9
$DWGCODEPAGE
3
ANSI_1252
9
$HANDSEED
5
17d
9
$ANGBASE
50
0
9
$ANGDIR
70
0
9
$ATTMODE
70
1
9
$AUNITS
70
0
9
$AUPREC
70
0
9
$CECOLOR
62
256
9
$CELTSCALE
40
1
9
$CELTYPE
6
ByLayer
9
$CELWEIGHT
370
18
9
$CLAYER
8
0
9
$CMLJUST
70
0
9
$CMLSCALE
40
1
9
$CMLSTYLE
2
Standard
9
$DIMSTYLE
2
Standard
9
$TEXTSIZE
40
0.2
9
$TEXTSTYLE
7
Standard
9
$LUNITS
70
2
9
$LUPREC
70
4
9
$EXTNAMES
290
1
9
$INSUNITS
70
4
9
$LTSCALE
40
1
9
$LWDISPLAY
290
1
9
$PDMODE
70
0
9
$PDSIZE
40
0
9
$PLINEGEN
70
0
0
ENDSEC
0
SECTION
2
CLASSES
0
CLASS
1
RASTERVARIABLES
2
AcDbRasterVariables
3
ISM
90
0
280
0
281
0
0
ENDSEC
0
SECTION
2
TABLES
0
TABLE
2
VPORT
5
173
100
AcDbSymbolTable
0
VPORT
5
1
100
AcDbSymbolTableRecord
100
AcDbViewportTableRecord
2
*Active
70
0
10
0
20
0
11
1
21
1
12
-1
22
1
13
0
23
0
14
0.5
24
0.5
15
10
25
10
16
0
26
0
36
1
17
0
27
0
37
0
0
ENDTAB
0
TABLE
2
LTYPE
5
174
100
AcDbSymbolTable
0
LTYPE
5
14
100
AcDbSymbolTableRecord
100
AcDbLinetypeTableRecord
70
0
2
ByBlock
3

72
65
73
0
40
0
0
LTYPE
5
15
100
AcDbSymbolTableRecord
100
AcDbLinetypeTableRecord
70
0
2
ByLayer
3

72
65
73
0
40
0
0
LTYPE
5
16
100
AcDbSymbolTableRecord
100
AcDbLinetypeTableRecord
70
0
2
CONTINUOUS
3
Solid line
72
65
73
0
40
0
0
LTYPE
5
6A
100
AcDbSymbolTableRecord
100
AcDbLinetypeTableRecord
70
0
2
CENTER
3
____ _ ____ _ ____ _ ____
72
65
73
4
40
47.5
49
22
74
0
49
-8.5
74
0
49
8.5
74
0
49
-8.5
74
0
0
LTYPE
5
6B
100
AcDbSymbolTableRecord
100
AcDbLinetypeTableRecord
70
0
2
DASHED
3
__ __ __ __ __ __ __ __ __
72
65
73
2
40
25.72
49
12.86
74
0
49
-12.86
74
0
0
ENDTAB
0
TABLE
2
LAYER
5
175
100
AcDbSymbolTable
0
LAYER
5
10
100
AcDbSymbolTableRecord
100
AcDbLayerTableRecord
2
0
70
0
62
7
6
CONTINUOUS
290
1
370
-3
390
0
0
LAYER
5
6D
100
AcDbSymbolTableRecord
100
AcDbLayerTableRecord
2
80
70
0
62
-6
6
CONTINUOUS
290
1
370
-3
390
0
0
LAYER
5
6F
100
AcDbSymbolTableRecord
100
AcDbLayerTableRecord
2
81
70
0
62
-3
6
CONTINUOUS
290
1
370
-3
390
0
0
LAYER
5
15c
100
AcDbSymbolTableRecord
100
AcDbLayerTableRecord
2
SK1
70
0
62
4
6
CONTINUOUS
290
1
370
-3
390
0
0
LAYER
5
15d
100
AcDbSymbolTableRecord
100
AcDbLayerTableRecord
2
SK3
70
0
62
1
6
DASHED
290
1
370
-3
390
0
0
LAYER
5
15e
100
AcDbSymbolTableRecord
100
AcDbLayerTableRecord
2
SK4
70
0
62
2
6
CENTER
290
1
370
-3
390
0
0
LAYER
5
15f
100
AcDbSymbolTableRecord
100
AcDbLayerTableRecord
2
SK6
70
0
62
5
6
CONTINUOUS
290
1
370
-3
390
0
0
LAYER
5
160
100
AcDbSymbolTableRecord
100
AcDbLayerTableRecord
2
SK2
70
0
62
7
6
CONTINUOUS
290
1
370
-3
390
0
0
ENDTAB
0
TABLE
2
STYLE
5
176
100
AcDbSymbolTable
0
STYLE
5
11
100
AcDbSymbolTableRecord
100
AcDbTextStyleTableRecord
2
Standard
3
txt
70
0
71
0
40
0
41
1
42
0
50
0
0
STYLE
5
AE
100
AcDbSymbolTableRecord
100
AcDbTextStyleTableRecord
2
Arial Unicode MS
3
Arial Unicode MS
70
0
71
0
40
0
41
1
42
0
50
0
0
ENDTAB
0
TABLE
2
DIMSTYLE
5
177
100
AcDbSymbolTable
100
AcDbDimStyleTable
0
DIMSTYLE
105
27
100
AcDbSymbolTableRecord
100
AcDbDimStyleTableRecord
2
Standard
70
0
3
<>
41
0.18
42
0.0625
44
0.18
140
0.18
147
0.09
73
0
74
0
77
1
271
2
275
0
278
52
280
0
340
11
0
ENDTAB
0
TABLE
2
VIEW
5
178
100
AcDbSymbolTable
0
ENDTAB
0
TABLE
2
UCS
5
179
100
AcDbSymbolTable
0
ENDTAB
0
TABLE
2
APPID
5
17a
100
AcDbSymbolTable
0
APPID
5
12
100
AcDbSymbolTableRecord
100
AcDbRegAppTableRecord
2
ACAD
70
0
0
ENDTAB
0
TABLE
2
BLOCK_RECORD
5
17b
100
AcDbSymbolTable
0
BLOCK_RECORD
5
1F
100
AcDbSymbolTableRecord
100
AcDbBlockTableRecord
2
*Model_Space
340
0
70
0
0
BLOCK_RECORD
5
1B
100
AcDbSymbolTableRecord
100
AcDbBlockTableRecord
2
*Paper_Space
340
0
70
0
0
BLOCK_RECORD
5
23
100
AcDbSymbolTableRecord
100
AcDbBlockTableRecord
2
*Paper_Space0
340
0
70
0
0
BLOCK_RECORD
5
B0
100
AcDbSymbolTableRecord
100
AcDbBlockTableRecord
2
ASSORTED_DRAFT1
340
0
70
0
0
BLOCK_RECORD
5
BB
100
AcDbSymbolTableRecord
100
AcDbBlockTableRecord
2
ASSORTED_DRAFT2
340
0
70
0
0
BLOCK_RECORD
5
C6
100
AcDbSymbolTableRecord
100
AcDbBlockTableRecord
2
ASSORTED_DRAFT3
340
0
70
0
0
BLOCK_RECORD
5
D0
100
AcDbSymbolTableRecord
100
AcDbBlockTableRecord
2
ASSORTED_DRAFT4
340
0
70
0
0
BLOCK_RECORD
5
DA
100
AcDbSymbolTableRecord
100
AcDbBlockTableRecord
2
ASSORTED_DRAFT5
340
0
70
0
0
BLOCK_RECORD
5
E4
100
AcDbSymbolTableRecord
100
AcDbBlockTableRecord
2
ASSORTED_DRAFT6
340
0
70
0
0
BLOCK_RECORD
5
EE
100
AcDbSymbolTableRecord
100
AcDbBlockTableRecord
2
ASSORTED_DRAFT7
340
0
70
0
0
BLOCK_RECORD
5
F8
100
AcDbSymbolTableRecord
100
AcDbBlockTableRecord
2
ASSORTED_DRAFT8
340
0
70
0
0
ENDTAB
0
ENDSEC
0
SECTION
2
BLOCKS
0
BLOCK
5
20
100
AcDbEntity
8
0
100
AcDbBlockBegin
2
*Model_Space
70
0
10
0
20
0
30
0
3
*Model_Space
0
ENDBLK
5
21
100
AcDbEntity
8
0
100
AcDbBlockEnd
0
BLOCK
5
1C
100
AcDbEntity
8
0
100
AcDbBlockBegin
2
*Paper_Space
70
0
10
0
20
0
30
0
3
*Paper_Space
0
ENDBLK
5
1D
100
AcDbEntity
8
0
100
AcDbBlockEnd
0
BLOCK
5
24
100
AcDbEntity
8
0
100
AcDbBlockBegin
2
*Paper_Space0
70
0
10
0
20
0
30
0
3
*Paper_Space0
0
ENDBLK
5
25
100
AcDbEntity
8
0
100
AcDbBlockEnd
0
BLOCK
5
B9
100
AcDbEntity
8
0
100
AcDbBlockBegin
2
ASSORTED_DRAFT1
70
0
10
0
20
0
30
0
3
ASSORTED_DRAFT1
0
LINE
5
B1
100
AcDbEntity
8
0
62
256
6
ByLayer
370
13
48
1
60
0
100
AcDbLine
10
32
20
12.000001
30
0
11
45.535996
21
12
31
0
39
0
210
0
220
0
230
1
0
LINE
5
B2
100
AcDbEntity
8
0
62
256
6
ByLayer
370
13
48
1
60
0
100
AcDbLine
10
32
20
-11.999999
30
0
11
45.535996
21
-11.999999
31
0
39
0
210
0
220
0
230
1
0
LINE
5
B3
100
AcDbEntity
8
0
62
256
6
ByLayer
370
13
48
1
60
0
100
AcDbLine
10
43.535996
20
9.5
30
0
11
43.535996
21
-9.5
31
0
39
0
210
0
220
0
230
1
0
SOLID
5
B4
100
AcDbEntity
8
0
62
256
6
ByLayer
370
18
48
1
60
0
100
AcDbTrace
10
43.535996
20
12.000001
30
0
11
43.952662
21
9.500002
31
0
12
43.119329
22
9.499999
32
0
13
43.535996
23
12.000001
33
0
39
0
210
0
220
0
230
1
0
SOLID
5
B5
100
AcDbEntity
8
0
62
256
6
ByLayer
370
18
48
1
60
0
100
AcDbTrace
10
43.535996
20
-11.999999
30
0
11
43.119329
21
-9.500001
31
0
12
43.952662
22
-9.499998
32
0
13
43.535996
23
-11.999999
33
0
39
0
210
0
220
0
230
1
0
MTEXT
5
B6
100
AcDbEntity
8
SK2
62
256
6
ByLayer
370
25
48
1
60
0
100
AcDbMText
10
43.849899
20
0
30
0
210
0
220
0
230
1
1
\W1.0000;M24
40
3.5
41
0
44
1
50
89.9999999999999
71
8
72
5
7
Arial Unicode MS
0
ENDBLK
5
BA
100
AcDbEntity
8
0
100
AcDbBlockEnd
0
BLOCK
5
C4
100
AcDbEntity
8
0
100
AcDbBlockBegin
2
ASSORTED_DRAFT2
70
0
10
0
20
0
30
0
3
ASSORTED_DRAFT2
0
LINE
5
BC
100
AcDbEntity
8
0
62
256
6
ByLayer
370
13
48
1
60
0
100
AcDbLine
10
-13.030887
20
-9.724999
30
0
11
-38.201551
21
-9.724999
31
0
39
0
210
0
220
0
230
1
0
LINE
5
BD
100
AcDbEntity
8
0
62
256
6
ByLayer
370
13
48
1
60
0
100
AcDbLine
10
-13.030887
20
9.725
30
0
11
-38.201551
21
9.725
31
0
39
0
210
0
220
0
230
1
0
LINE
5
BE
100
AcDbEntity
8
0
62
256
6
ByLayer
370
13
48
1
60
0
100
AcDbLine
10
-36.201551
20
-7.224999
30
0
11
-36.201551
21
7.225
31
0
39
0
210
0
220
0
230
1
0
LINE
5
BF
100
AcDbEntity
8
0
62
256
6
ByLayer
370
13
48
1
60
0
100
AcDbLine
10
-36.201551
20
9.725
30
0
11
-36.201551
21
37.193828
31
0
39
0
210
0
220
0
230
1
0
SOLID
5
C0
100
AcDbEntity
8
0
62
256
6
ByLayer
370
18
48
1
60
0
100
AcDbTrace
10
-36.201551
20
-9.724999
30
0
11
-36.618218
21
-7.225001
31
0
12
-35.784885
22
-7.224998
32
0
13
-36.201551
23
-9.724999
33
0
39
0
210
0
220
0
230
1
0
SOLID
5
C1
100
AcDbEntity
8
0
62
256
6
ByLayer
370
18
48
1
60
0
100
AcDbTrace
10
-36.201551
20
9.725
30
0
11
-35.784885
21
7.225002
31
0
12
-36.618218
22
7.224999
32
0
13
-36.201551
23
9.725
33
0
39
0
210
0
220
0
230
1
0
MTEXT
5
C2
100
AcDbEntity
8
SK2
62
256
6
ByLayer
370
25
48
1
60
0
100
AcDbMText
10
-35.989722
20
27.326998
30
0
210
0
220
0
230
1
1
\W1.0000;%%c19.45
40
3.5
41
0
44
1
50
89.9999999999999
71
8
72
5
7
Arial Unicode MS
0
ENDBLK
5
C5
100
AcDbEntity
8
0
100
AcDbBlockEnd
0
BLOCK
5
CE
100
AcDbEntity
8
0
100
AcDbBlockBegin
2
ASSORTED_DRAFT3
70
0
10
0
20
0
30
0
3
ASSORTED_DRAFT3
0
LINE
5
C7
100
AcDbEntity
8
0
62
256
6
ByLayer
370
13
48
1
60
0
100
AcDbLine
10
-21.35
20
14.500001
30
0
11
-45.940684
21
14.500001
31
0
39
0
210
0
220
0
230
1
0
LINE
5
C8
100
AcDbEntity
8
0
62
256
6
ByLayer
370
13
48
1
60
0
100
AcDbLine
10
-21.35
20
-14.499999
30
0
11
-45.940684
21
-14.499999
31
0
39
0
210
0
220
0
230
1
0
LINE
5
C9
100
AcDbEntity
8
0
62
256
6
ByLayer
370
13
48
1
60
0
100
AcDbLine
10
-43.940684
20
12.000001
30
0
11
-43.940684
21
-11.999999
31
0
39
0
210
0
220
0
230
1
0
SOLID
5
CA
100
AcDbEntity
8
0
62
256
6
ByLayer
370
18
48
1
60
0
100
AcDbTrace
10
-43.940684
20
14.500001
30
0
11
-43.524017
21
12.000002
31
0
12
-44.35735
22
11.999999
32
0
13
-43.940684
23
14.500001
33
0
39
0
210
0
220
0
230
1
0
SOLID
5
CB
100
AcDbEntity
8
0
62
256
6
ByLayer
370
18
48
1
60
0
100
AcDbTrace
10
-43.940684
20
-14.499999
30
0
11
-44.35735
21
-12.000001
31
0
12
-43.524017
22
-11.999998
32
0
13
-43.940684
23
-14.499999
33
0
39
0
210
0
220
0
230
1
0
MTEXT
5
CC
100
AcDbEntity
8
SK2
62
256
6
ByLayer
370
25
48
1
60
0
100
AcDbMText
10
-43.728854
20
0
30
0
210
0
220
0
230
1
1
\W1.0000;%%c29
40
3.5
41
0
44
1
50
89.9999999999999
71
8
72
5
7
Arial Unicode MS
0
ENDBLK
5
CF
100
AcDbEntity
8
0
100
AcDbBlockEnd
0
BLOCK
5
D8
100
AcDbEntity
8
0
100
AcDbBlockBegin
2
ASSORTED_DRAFT4
70
0
10
0
20
0
30
0
3
ASSORTED_DRAFT4
0
LINE
5
D1
100
AcDbEntity
8
0
62
256
6
ByLayer
370
13
48
1
60
0
100
AcDbLine
10
0
20
19.25
30
0
11
0
21
26.012216
31
0
39
0
210
0
220
0
230
1
0
LINE
5
D2
100
AcDbEntity
8
0
62
256
6
ByLayer
370
13
48
1
60
0
100
AcDbLine
10
-17.8
20
15.500001
30
0
11
-17.8
21
26.012216
31
0
39
0
210
0
220
0
230
1
0
LINE
5
D3
100
AcDbEntity
8
0
62
256
6
ByLayer
370
13
48
1
60
0
100
AcDbLine
10
-2.5
20
24.012216
30
0
11
-15.3
21
24.012216
31
0
39
0
210
0
220
0
230
1
0
SOLID
5
D4
100
AcDbEntity
8
0
62
256
6
ByLayer
370
18
48
1
60
0
100
AcDbTrace
10
0
20
24.012216
30
0
11
-2.499998
21
23.59555
31
0
12
-2.500002
22
24.428883
32
0
13
0
23
24.012216
33
0
39
0
210
0
220
0
230
1
0
SOLID
5
D5
100
AcDbEntity
8
0
62
256
6
ByLayer
370
18
48
1
60
0
100
AcDbTrace
10
-17.8
20
24.012216
30
0
11
-15.300002
21
24.428883
31
0
12
-15.299998
22
23.59555
32
0
13
-17.8
23
24.012216
33
0
39
0
210
0
220
0
230
1
0
MTEXT
5
D6
100
AcDbEntity
8
SK2
62
256
6
ByLayer
370
25
48
1
60
0
100
AcDbMText
10
-8.9
20
23.748735
30
0
210
0
220
0
230
1
1
\W1.0000;17.8
40
3.5
41
0
44
1
50
0
71
8
72
5
7
Arial Unicode MS
0
ENDBLK
5
D9
100
AcDbEntity
8
0
100
AcDbBlockEnd
0
BLOCK
5
E2
100
AcDbEntity
8
0
100
AcDbBlockBegin
2
ASSORTED_DRAFT5
70
0
10
0
20
0
30
0
3
ASSORTED_DRAFT5
0
LINE
5
DB
100
AcDbEntity
8
0
62
256
6
ByLayer
370
13
48
1
60
0
100
AcDbLine
10
0
20
19.25
30
0
11
0
21
34.012216
31
0
39
0
210
0
220
0
230
1
0
LINE
5
DC
100
AcDbEntity
8
0
62
256
6
ByLayer
370
13
48
1
60
0
100
AcDbLine
10
-25.4
20
12.295706
30
0
11
-25.4
21
34.012216
31
0
39
0
210
0
220
0
230
1
0
LINE
5
DD
100
AcDbEntity
8
0
62
256
6
ByLayer
370
13
48
1
60
0
100
AcDbLine
10
-2.5
20
32.012216
30
0
11
-22.9
21
32.012216
31
0
39
0
210
0
220
0
230
1
0
SOLID
5
DE
100
AcDbEntity
8
0
62
256
6
ByLayer
370
18
48
1
60
0
100
AcDbTrace
10
0
20
32.012216
30
0
11
-2.499998
21
31.59555
31
0
12
-2.500002
22
32.428883
32
0
13
0
23
32.012216
33
0
39
0
210
0
220
0
230
1
0
SOLID
5
DF
100
AcDbEntity
8
0
62
256
6
ByLayer
370
18
48
1
60
0
100
AcDbTrace
10
-25.4
20
32.012216
30
0
11
-22.900002
21
32.428883
31
0
12
-22.899998
22
31.59555
32
0
13
-25.4
23
32.012216
33
0
39
0
210
0
220
0
230
1
0
MTEXT
5
E0
100
AcDbEntity
8
SK2
62
256
6
ByLayer
370
25
48
1
60
0
100
AcDbMText
10
-12.7
20
31.748735
30
0
210
0
220
0
230
1
1
\W1.0000;25.4
40
3.5
41
0
44
1
50
0
71
8
72
5
7
Arial Unicode MS
0
ENDBLK
5
E3
100
AcDbEntity
8
0
100
AcDbBlockEnd
0
BLOCK
5
EC
100
AcDbEntity
8
0
100
AcDbBlockBegin
2
ASSORTED_DRAFT6
70
0
10
0
20
0
30
0
3
ASSORTED_DRAFT6
0
LINE
5
E5
100
AcDbEntity
8
0
62
256
6
ByLayer
370
13
48
1
60
0
100
AcDbLine
10
-25.4
20
12.295706
30
0
11
-25.4
21
42.012216
31
0
39
0
210
0
220
0
230
1
0
LINE
5
E6
100
AcDbEntity
8
0
62
256
6
ByLayer
370
13
48
1
60
0
100
AcDbLine
10
33
20
11.000001
30
0
11
33
21
42.012216
31
0
39
0
210
0
220
0
230
1
0
LINE
5
E7
100
AcDbEntity
8
0
62
256
6
ByLayer
370
13
48
1
60
0
100
AcDbLine
10
-22.9
20
40.012216
30
0
11
30.5
21
40.012216
31
0
39
0
210
0
220
0
230
1
0
SOLID
5
E8
100
AcDbEntity
8
0
62
256
6
ByLayer
370
18
48
1
60
0
100
AcDbTrace
10
-25.4
20
40.012216
30
0
11
-22.900002
21
40.428883
31
0
12
-22.899998
22
39.59555
32
0
13
-25.4
23
40.012216
33
0
39
0
210
0
220
0
230
1
0
SOLID
5
E9
100
AcDbEntity
8
0
62
256
6
ByLayer
370
18
48
1
60
0
100
AcDbTrace
10
33
20
40.012216
30
0
11
30.500002
21
39.59555
31
0
12
30.499998
22
40.428883
32
0
13
33
23
40.012216
33
0
39
0
210
0
220
0
230
1
0
MTEXT
5
EA
100
AcDbEntity
8
SK2
62
256
6
ByLayer
370
25
48
1
60
0
100
AcDbMText
10
3.8
20
39.748735
30
0
210
0
220
0
230
1
1
\W1.0000;58.4
40
3.5
41
0
44
1
50
0
71
8
72
5
7
Arial Unicode MS
0
ENDBLK
5
ED
100
AcDbEntity
8
0
100
AcDbBlockEnd
0
BLOCK
5
F6
100
AcDbEntity
8
0
100
AcDbBlockBegin
2
ASSORTED_DRAFT7
70
0
10
0
20
0
30
0
3
ASSORTED_DRAFT7
0
LINE
5
EF
100
AcDbEntity
8
0
62
256
6
ByLayer
370
13
48
1
60
0
100
AcDbLine
10
1
20
18.25
30
0
11
53.535996
21
18.25
31
0
39
0
210
0
220
0
230
1
0
LINE
5
F0
100
AcDbEntity
8
0
62
256
6
ByLayer
370
13
48
1
60
0
100
AcDbLine
10
1
20
-18.25
30
0
11
53.535996
21
-18.25
31
0
39
0
210
0
220
0
230
1
0
LINE
5
F1
100
AcDbEntity
8
0
62
256
6
ByLayer
370
13
48
1
60
0
100
AcDbLine
10
51.535996
20
15.75
30
0
11
51.535996
21
-15.75
31
0
39
0
210
0
220
0
230
1
0
SOLID
5
F2
100
AcDbEntity
8
0
62
256
6
ByLayer
370
18
48
1
60
0
100
AcDbTrace
10
51.535996
20
18.25
30
0
11
51.952662
21
15.750002
31
0
12
51.119329
22
15.749999
32
0
13
51.535996
23
18.25
33
0
39
0
210
0
220
0
230
1
0
SOLID
5
F3
100
AcDbEntity
8
0
62
256
6
ByLayer
370
18
48
1
60
0
100
AcDbTrace
10
51.535996
20
-18.25
30
0
11
51.119329
21
-15.750001
31
0
12
51.952662
22
-15.749998
32
0
13
51.535996
23
-18.25
33
0
39
0
210
0
220
0
230
1
0
MTEXT
5
F4
100
AcDbEntity
8
SK2
62
256
6
ByLayer
370
25
48
1
60
0
100
AcDbMText
10
51.747825
20
0
30
0
210
0
220
0
230
1
1
\W1.0000;%%c36.5
40
3.5
41
0
44
1
50
89.9999999999999
71
8
72
5
7
Arial Unicode MS
0
ENDBLK
5
F7
100
AcDbEntity
8
0
100
AcDbBlockEnd
0
BLOCK
5
100
100
AcDbEntity
8
0
100
AcDbBlockBegin
2
ASSORTED_DRAFT8
70
0
10
0
20
0
30
0
3
ASSORTED_DRAFT8
0
LINE
5
F9
100
AcDbEntity
8
0
62
256
6
ByLayer
370
13
48
1
60
0
100
AcDbLine
10
-18.507107
20
-15.207106
30
0
11
-29.574915
21
-26.274915
31
0
39
0
210
0
220
0
230
1
0
LINE
5
FA
100
AcDbEntity
8
0
62
256
6
ByLayer
370
13
48
1
60
0
100
AcDbLine
10
-13.727944
20
-11.427943
30
0
11
-13.727944
21
-32.838946
31
0
39
0
210
0
220
0
230
1
0
ARC
5
FB
100
AcDbEntity
8
0
62
256
6
ByLayer
370
13
48
1
60
0
100
AcDbCircle
39
0
10
-13.727944
20
-10.427943
30
0
40
20.4110020109913
210
0
220
0
230
1
100
AcDbArc
50
232.022151
51
262.977849
0
SOLID
5
FC
100
AcDbEntity
8
0
62
256
6
ByLayer
370
18
48
1
60
0
100
AcDbTrace
10
-28.160702
20
-24.860701
30
0
11
-26.011962
21
-26.20477
31
0
12
-26.564023
22
-26.829009
32
0
13
-28.160702
23
-24.860701
33
0
39
0
210
0
220
0
230
1
0
SOLID
5
FD
100
AcDbEntity
8
0
62
256
6
ByLayer
370
18
48
1
60
0
100
AcDbTrace
10
-13.727944
20
-30.838946
30
0
11
-16.248767
21
-31.101726
31
0
12
-16.197736
22
-30.269957
32
0
13
-13.727944
23
-30.838946
33
0
39
0
210
0
220
0
230
1
0
MTEXT
5
FE
100
AcDbEntity
8
SK2
62
256
6
ByLayer
370
25
48
1
60
0
100
AcDbMText
10
-21.643962
20
-29.538901
30
0
210
0
220
0
230
1
1
\W1.0000;45%%d
40
3.5
41
0
44
1
50
337.5
71
8
72
5
7
Arial Unicode MS
0
ENDBLK
5
101
100
AcDbEntity
8
0
100
AcDbBlockEnd
0
ENDSEC
0
SECTION
2
ENTITIES
0
ARC
5
A0
100
AcDbEntity
8
SK1
62
256
6
ByLayer
370
13
48
1
60
0
100
AcDbCircle
39
0
10
-2.4
20
-12.15
30
0
40
2.4
210
-1E-16
220
0
230
-1
100
AcDbArc
50
0
51
90
0
ARC
5
A1
100
AcDbEntity
8
SK1
62
256
6
ByLayer
370
13
48
1
60
0
100
AcDbCircle
39
0
10
-2.4
20
12.150001
30
0
40
2.4
210
-1E-16
220
0
230
-1
100
AcDbArc
50
270
51
0
0
ARC
5
A2
100
AcDbEntity
8
SK1
62
256
6
ByLayer
370
13
48
1
60
0
100
AcDbCircle
39
0
10
7.5
20
12.125001
30
0
40
2.4
210
-1E-16
220
0
230
-1
100
AcDbArc
50
180
51
270
0
ARC
5
A3
100
AcDbEntity
8
SK1
62
256
6
ByLayer
370
13
48
1
60
0
100
AcDbCircle
39
0
10
7.5
20
-12.124999
30
0
40
2.4
210
-1E-16
220
0
230
-1
100
AcDbArc
50
90
51
180
0
ARC
5
A4
100
AcDbEntity
8
SK1
62
256
6
ByLayer
370
13
48
1
60
0
100
AcDbCircle
39
0
10
-24.9
20
11.295706
30
0
40
0.500000000000001
210
0
220
0
230
1
100
AcDbArc
50
120
51
180
0
ARC
5
A5
100
AcDbEntity
8
SK1
62
256
6
ByLayer
370
13
48
1
60
0
100
AcDbCircle
39
0
10
-24.9
20
-11.295706
30
0
40
0.5
210
0
220
0
230
1
100
AcDbArc
50
180
51
240
0
ARC
5
A6
100
AcDbEntity
8
SK1
62
256
6
ByLayer
370
13
48
1
60
0
100
AcDbCircle
39
0
10
12.030887
20
12.125001
30
0
40
2.4
210
-1E-16
220
0
230
-1
100
AcDbArc
50
270
51
315
0
ARC
5
A7
100
AcDbEntity
8
SK1
62
256
6
ByLayer
370
13
48
1
60
0
100
AcDbCircle
39
0
10
12.030887
20
-12.124999
30
0
40
2.4
210
-1E-16
220
0
230
-1
100
AcDbArc
50
45
51
90
0
ARC
5
A8
100
AcDbEntity
8
SK1
62
256
6
ByLayer
370
13
48
1
60
0
100
AcDbCircle
39
0
10
-6.330127
20
12.250001
30
0
40
2.5
210
-1E-16
220
0
230
-1
100
AcDbArc
50
240
51
270
0
ARC
5
A9
100
AcDbEntity
8
SK1
62
256
6
ByLayer
370
13
48
1
60
0
100
AcDbCircle
39
0
10
-6.330127
20
-12.249999
30
0
40
2.5
210
-1E-16
220
0
230
-1
100
AcDbArc
50
90
51
120
0
POINT
5
6C
100
AcDbEntity
8
80
62
256
6
ByLayer
370
18
48
1
60
0
100
AcDbPoint
10
0
20
0
30
0
39
0
210
0
220
0
230
1
50
360
0
POINT
5
6E
100
AcDbEntity
8
81
62
256
6
ByLayer
370
18
48
1
60
0
100
AcDbPoint
10
0
20
0
30
0
39
0
210
0
220
0
230
1
50
360
0
SPLINE
5
AA
100
AcDbEntity
8
SK1
62
256
6
ByLayer
370
13
48
1
60
0
100
AcDbSpline
70
4
71
3
72
10
73
6
40
0
40
0
40
0
40
0
40
0.5
40
0.5
40
1
40
1
40
1
40
1
41
1
10
-5.09999987640438
20
-8.51836214229619
30
3E-16
41
1
10
-4.94284245071358
20
-8.83661175743231
30
3E-16
41
1
10
-4.78049832556039
20
-9.15190248465672
30
3E-16
41
1
10
-4.44675838787628
20
-9.7773201680875
30
3E-16
41
1
10
-4.2753614301221
20
-10.0874464709715
30
3E-16
41
1
10
-4.09999987640438
20
-10.3953110667417
30
3E-16
0
SPLINE
5
AB
100
AcDbEntity
8
SK1
62
256
6
ByLayer
370
13
48
1
60
0
100
AcDbSpline
70
4
71
3
72
8
73
4
40
0
40
0
40
0
40
0
40
1
40
1
40
1
40
1
41
1
10
-4.09999987640438
20
10.3953118195506
30
3E-16
41
1
10
-4.45136550753128
20
9.7784546139597
30
3E-16
41
1
10
-4.78631237370808
20
9.15359172102467
30
3E-16
41
1
10
-5.09999987640438
20
8.5183628951051
30
3E-16
0
SPLINE
5
AC
100
AcDbEntity
8
SK4
62
256
6
ByLayer
370
13
48
1
60
0
100
AcDbSpline
70
4
71
1
72
4
73
2
40
0
40
0
40
1
40
1
41
1
10
-28.6499998764044
20
3.764043797E-07
30
0
41
1
10
36.5000001235955
20
3.764043797E-07
30
0
0
INSERT
5
B8
100
AcDbEntity
8
SK2
62
256
6
ByLayer
370
25
48
1
60
0
100
AcDbBlockReference
2
ASSORTED_DRAFT1
10
0
20
0
30
0
41
1
42
1
43
1
50
0
210
0
220
0
230
1
0
INSERT
5
C3
100
AcDbEntity
8
SK2
62
256
6
ByLayer
370
25
48
1
60
0
100
AcDbBlockReference
2
ASSORTED_DRAFT2
10
0
20
0
30
0
41
1
42
1
43
1
50
0
210
0
220
0
230
1
0
INSERT
5
CD
100
AcDbEntity
8
SK2
62
256
6
ByLayer
370
25
48
1
60
0
100
AcDbBlockReference
2
ASSORTED_DRAFT3
10
0
20
0
30
0
41
1
42
1
43
1
50
0
210
0
220
0
230
1
0
INSERT
5
D7
100
AcDbEntity
8
SK2
62
256
6
ByLayer
370
25
48
1
60
0
100
AcDbBlockReference
2
ASSORTED_DRAFT4
10
0
20
0
30
0
41
1
42
1
43
1
50
0
210
0
220
0
230
1
0
INSERT
5
E1
100
AcDbEntity
8
SK2
62
256
6
ByLayer
370
25
48
1
60
0
100
AcDbBlockReference
2
ASSORTED_DRAFT5
10
0
20
0
30
0
41
1
42
1
43
1
50
0
210
0
220
0
230
1
0
INSERT
5
EB
100
AcDbEntity
8
SK2
62
256
6
ByLayer
370
25
48
1
60
0
100
AcDbBlockReference
2
ASSORTED_DRAFT6
10
0
20
0
30
0
41
1
42
1
43
1
50
0
210
0
220
0
230
1
0
INSERT
5
F5
100
AcDbEntity
8
SK2
62
256
6
ByLayer
370
25
48
1
60
0
100
AcDbBlockReference
2
ASSORTED_DRAFT7
10
0
20
0
30
0
41
1
42
1
43
1
50
0
210
0
220
0
230
1
0
INSERT
5
FF
100
AcDbEntity
8
SK2
62
256
6
ByLayer
370
25
48
1
60
0
100
AcDbBlockReference
2
ASSORTED_DRAFT8
10
0
20
0
30
0
41
1
42
1
43
1
50
0
210
0
220
0
230
1
0
LINE
5
70
100
AcDbEntity
8
SK1
62
256
6
ByLayer
370
13
48
1
60
0
100
AcDbLine
10
2.4
20
-9.749999
30
0
11
2.4
21
9.750001
31
0
39
0
210
0
220
0
230
1
0
LINE
5
72
100
AcDbEntity
8
SK1
62
256
6
ByLayer
370
13
48
1
60
0
100
AcDbLine
10
-4.1
20
-18.25
30
0
11
-4.1
21
-10.395311
31
0
39
0
210
0
220
0
230
1
0
LINE
5
73
100
AcDbEntity
8
SK1
62
256
6
ByLayer
370
13
48
1
60
0
100
AcDbLine
10
-5.1
20
17.25
30
0
11
-5.1
21
-17.25
31
0
39
0
210
0
220
0
230
1
0
LINE
5
74
100
AcDbEntity
8
SK1
62
256
6
ByLayer
370
13
48
1
60
0
100
AcDbLine
10
-4.1
20
10.395311
30
0
11
-4.1
21
18.25
31
0
39
0
210
0
220
0
230
1
0
LINE
5
75
100
AcDbEntity
8
SK1
62
256
6
ByLayer
370
13
48
1
60
0
100
AcDbLine
10
0
20
10.395311
30
0
11
-4.1
21
10.395311
31
0
39
0
210
0
220
0
230
1
0
LINE
5
76
100
AcDbEntity
8
SK1
62
256
6
ByLayer
370
13
48
1
60
0
100
AcDbLine
10
-4.1
20
-10.395311
30
0
11
0
21
-10.395311
31
0
39
0
210
0
220
0
230
1
0
LINE
5
77
100
AcDbEntity
8
SK1
62
256
6
ByLayer
370
13
48
1
60
0
100
AcDbLine
10
0
20
-18.25
30
0
11
0
21
18.25
31
0
39
0
210
0
220
0
230
1
0
LINE
5
78
100
AcDbEntity
8
SK1
62
256
6
ByLayer
370
13
48
1
60
0
100
AcDbLine
10
-17.8
20
14.500001
30
0
11
-17.8
21
-14.499999
31
0
39
0
210
0
220
0
230
1
0
LINE
5
79
100
AcDbEntity
8
SK1
62
256
6
ByLayer
370
13
48
1
60
0
100
AcDbLine
10
-13.727944
20
10.427945
30
0
11
-13.727944
21
1E-06
31
0
39
0
210
0
220
0
230
1
0
LINE
5
7A
100
AcDbEntity
8
SK1
62
256
6
ByLayer
370
13
48
1
60
0
100
AcDbLine
10
-13.727944
20
1E-06
30
0
11
-13.727944
21
-10.427943
31
0
39
0
210
0
220
0
230
1
0
LINE
5
7B
100
AcDbEntity
8
SK1
62
256
6
ByLayer
370
13
48
1
60
0
100
AcDbLine
10
-20.35
20
14.500001
30
0
11
-20.35
21
-14.499999
31
0
39
0
210
0
220
0
230
1
0
LINE
5
7C
100
AcDbEntity
8
SK1
62
256
6
ByLayer
370
13
48
1
60
0
100
AcDbLine
10
-25.15
20
-11.728719
30
0
11
-25.15
21
11.728719
31
0
39
0
210
0
220
0
230
1
0
LINE
5
7D
100
AcDbEntity
8
SK1
62
256
6
ByLayer
370
13
48
1
60
0
100
AcDbLine
10
-7.5
20
-9.724999
30
0
11
-7.5
21
9.725
31
0
39
0
210
0
220
0
230
1
0
LINE
5
7E
100
AcDbEntity
8
SK1
62
256
6
ByLayer
370
13
48
1
60
0
100
AcDbLine
10
10.897114
20
12.000001
30
0
11
10.897114
21
-11.999999
31
0
39
0
210
0
220
0
230
1
0
LINE
5
7F
100
AcDbEntity
8
SK1
62
256
6
ByLayer
370
13
48
1
60
0
100
AcDbLine
10
7.580127
20
10.084936
30
0
11
7.580127
21
-10.084936
31
0
39
0
210
0
220
0
230
1
0
LINE
5
80
100
AcDbEntity
8
SK1
62
256
6
ByLayer
370
13
48
1
60
0
100
AcDbLine
10
31
20
12.000001
30
0
11
31
21
-11.999999
31
0
39
0
210
0
220
0
230
1
0
LINE
5
81
100
AcDbEntity
8
SK1
62
256
6
ByLayer
370
13
48
1
60
0
100
AcDbLine
10
33
20
10.000001
30
0
11
33
21
-9.999999
31
0
39
0
210
0
220
0
230
1
0
LINE
5
82
100
AcDbEntity
8
SK1
62
256
6
ByLayer
370
13
48
1
60
0
100
AcDbLine
10
-25.4
20
-11.295706
30
0
11
-25.4
21
11.295706
31
0
39
0
210
0
220
0
230
1
0
LINE
5
83
100
AcDbEntity
8
SK1
62
256
6
ByLayer
370
13
48
1
60
0
100
AcDbLine
10
-12.030887
20
9.725
30
0
11
-12.030887
21
-9.724999
31
0
39
0
210
0
220
0
230
1
0
LINE
5
84
100
AcDbEntity
8
SK1
62
256
6
ByLayer
370
13
48
1
60
0
100
AcDbLine
10
6.330127
20
-9.749999
30
0
11
6.330127
21
9.750001
31
0
39
0
210
0
220
0
230
1
0
LINE
5
85
100
AcDbEntity
8
SK1
62
256
6
ByLayer
370
13
48
1
60
0
100
AcDbLine
10
-5.1
20
-17.25
30
0
11
-4.1
21
-18.25
31
0
39
0
210
0
220
0
230
1
0
LINE
5
86
100
AcDbEntity
8
SK1
62
256
6
ByLayer
370
13
48
1
60
0
100
AcDbLine
10
-4.1
20
18.25
30
0
11
-5.1
21
17.25
31
0
39
0
210
0
220
0
230
1
0
LINE
5
87
100
AcDbEntity
8
SK1
62
256
6
ByLayer
370
13
48
1
60
0
100
AcDbLine
10
-4.1
20
-18.25
30
0
11
0
21
-18.25
31
0
39
0
210
0
220
0
230
1
0
LINE
5
88
100
AcDbEntity
8
SK1
62
256
6
ByLayer
370
13
48
1
60
0
100
AcDbLine
10
0
20
18.25
30
0
11
-4.1
21
18.25
31
0
39
0
210
0
220
0
230
1
0
LINE
5
89
100
AcDbEntity
8
SK1
62
256
6
ByLayer
370
13
48
1
60
0
100
AcDbLine
10
-17.8
20
-14.499999
30
0
11
-13.727944
21
-10.427943
31
0
39
0
210
0
220
0
230
1
0
LINE
5
8A
100
AcDbEntity
8
SK1
62
256
6
ByLayer
370
13
48
1
60
0
100
AcDbLine
10
-13.727944
20
10.427945
30
0
11
-17.8
21
14.500001
31
0
39
0
210
0
220
0
230
1
0
LINE
5
8B
100
AcDbEntity
8
SK1
62
256
6
ByLayer
370
13
48
1
60
0
100
AcDbLine
10
-17.8
20
14.500001
30
0
11
-20.35
21
14.500001
31
0
39
0
210
0
220
0
230
1
0
LINE
5
8C
100
AcDbEntity
8
SK1
62
256
6
ByLayer
370
13
48
1
60
0
100
AcDbLine
10
-20.35
20
-14.499999
30
0
11
-17.8
21
-14.499999
31
0
39
0
210
0
220
0
230
1
0
LINE
5
8D
100
AcDbEntity
8
SK1
62
256
6
ByLayer
370
13
48
1
60
0
100
AcDbLine
10
-20.35
20
14.500001
30
0
11
-25.15
21
11.728719
31
0
39
0
210
0
220
0
230
1
0
LINE
5
8E
100
AcDbEntity
8
SK1
62
256
6
ByLayer
370
13
48
1
60
0
100
AcDbLine
10
-25.15
20
-11.728719
30
0
11
-20.35
21
-14.499999
31
0
39
0
210
0
220
0
230
1
0
LINE
5
8F
100
AcDbEntity
8
SK1
62
256
6
ByLayer
370
13
48
1
60
0
100
AcDbLine
10
10.897114
20
12.000001
30
0
11
7.580127
21
10.084936
31
0
39
0
210
0
220
0
230
1
0
LINE
5
90
100
AcDbEntity
8
SK1
62
256
6
ByLayer
370
13
48
1
60
0
100
AcDbLine
10
7.580127
20
-10.084936
30
0
11
10.897114
21
-11.999999
31
0
39
0
210
0
220
0
230
1
0
LINE
5
91
100
AcDbEntity
8
SK1
62
256
6
ByLayer
370
13
48
1
60
0
100
AcDbLine
10
31
20
12.000001
30
0
11
10.897114
21
12.000001
31
0
39
0
210
0
220
0
230
1
0
LINE
5
92
100
AcDbEntity
8
SK1
62
256
6
ByLayer
370
13
48
1
60
0
100
AcDbLine
10
10.897114
20
-11.999999
30
0
11
31
21
-11.999999
31
0
39
0
210
0
220
0
230
1
0
LINE
5
93
100
AcDbEntity
8
SK1
62
256
6
ByLayer
370
13
48
1
60
0
100
AcDbLine
10
31
20
-11.999999
30
0
11
33
21
-9.999999
31
0
39
0
210
0
220
0
230
1
0
LINE
5
94
100
AcDbEntity
8
SK1
62
256
6
ByLayer
370
13
48
1
60
0
100
AcDbLine
10
33
20
10.000001
30
0
11
31
21
12.000001
31
0
39
0
210
0
220
0
230
1
0
LINE
5
95
100
AcDbEntity
8
SK1
62
256
6
ByLayer
370
13
48
1
60
0
100
AcDbLine
10
6.330127
20
9.750001
30
0
11
2.4
21
9.750001
31
0
39
0
210
0
220
0
230
1
0
LINE
5
96
100
AcDbEntity
8
SK1
62
256
6
ByLayer
370
13
48
1
60
0
100
AcDbLine
10
2.4
20
-9.749999
30
0
11
6.330127
21
-9.749999
31
0
39
0
210
0
220
0
230
1
0
LINE
5
97
100
AcDbEntity
8
SK1
62
256
6
ByLayer
370
13
48
1
60
0
100
AcDbLine
10
-7.5
20
9.725
30
0
11
-12.030887
21
9.725
31
0
39
0
210
0
220
0
230
1
0
LINE
5
98
100
AcDbEntity
8
SK1
62
256
6
ByLayer
370
13
48
1
60
0
100
AcDbLine
10
-12.030887
20
-9.724999
30
0
11
-7.5
21
-9.724999
31
0
39
0
210
0
220
0
230
1
0
LINE
5
99
100
AcDbEntity
8
SK3
62
256
6
ByLayer
370
13
48
0.05
60
0
100
AcDbLine
10
33
20
-6.8985
30
0
11
7.580127
21
-6.8985
31
0
39
0
210
0
220
0
230
1
0
LINE
5
9B
100
AcDbEntity
8
SK3
62
256
6
ByLayer
370
13
48
0.05
60
0
100
AcDbLine
10
33
20
6.8985
30
0
11
7.580127
21
6.8985
31
0
39
0
210
0
220
0
230
1
0
LINE
5
9C
100
AcDbEntity
8
SK4
62
256
6
ByLayer
370
25
48
0.05
60
0
100
AcDbLine
10
36.5
20
0
30
0
11
0
21
0
31
0
39
0
210
0
220
0
230
1
0
LINE
5
9E
100
AcDbEntity
8
80
62
256
6
ByLayer
370
18
48
1
60
0
100
AcDbLine
10
0
20
0
30
0
11
-10.386577
21
0
31
0
39
0
210
0
220
0
230
1
0
LINE
5
9F
100
AcDbEntity
8
81
62
256
6
ByLayer
370
18
48
1
60
0
100
AcDbLine
10
0
20
0
30
0
11
12.374415
21
0
31
0
39
0
210
0
220
0
230
1
0
MTEXT
5
AD
100
AcDbEntity
8
SK6
62
256
6
ByLayer
370
13
48
1
60
0
100
AcDbMText
10
-24.405236
20
-49.001447
30
0
210
0
220
0
230
1
1
\W1.1369;PS-V50C-45-001\P 
40
3.5
41
0
44
1
50
0
71
7
72
5
7
Arial Unicode MS
0
ENDSEC
0
SECTION
2
OBJECTS
0
DICTIONARY
5
16f
330
0
100
AcDbDictionary
280
0
281
1
3
ACAD_GROUP
350
170
3
ACAD_GROUP
350
171
3
ACAD_MLINESTYLE
350
172
0
DICTIONARY
5
170
330
0
100
AcDbDictionary
280
0
281
1
0
DICTIONARY
5
171
330
0
100
AcDbDictionary
280
0
281
1
3
<201129876MOD000_00>
350
10A
0
DICTIONARY
5
172
330
0
100
AcDbDictionary
280
0
281
1
3
Standard
350
18
0
GROUP
5
10A
330
171
100
AcDbGroup
300

70
0
71
1
340
6C
340
6E
340
70
340
72
340
73
340
74
340
75
340
76
340
77
340
78
340
79
340
7A
340
7B
340
7C
340
7D
340
7E
340
7F
340
80
340
81
340
82
340
83
340
84
340
85
340
86
340
87
340
88
340
89
340
8A
340
8B
340
8C
340
8D
340
8E
340
8F
340
90
340
91
340
92
340
93
340
94
340
95
340
96
340
97
340
98
340
99
340
9B
340
9C
340
9E
340
9F
340
A0
340
A1
340
A2
340
A3
340
A4
340
A5
340
A6
340
A7
340
A8
340
A9
340
AA
340
AB
340
AC
340
AD
340
B8
340
C3
340
CD
340
D7
340
E1
340
EB
340
F5
340
FF
0
MLINESTYLE
5
18
330
172
100
AcDbMlineStyle
2
Standard
70
0
3

62
256
51
90
52
90
71
2
49
-0.5
62
256
6
ByLayer
49
0.5
62
256
6
ByLayer
0
RASTERVARIABLES
5
15b
330

100
AcDbRasterVariables
90
0
70
1
71
1
72
1
0
ENDSEC
0
EOF
