  0
SECTION
  2
HEADER
  9
$ACADVER
  1
AC1015
  9
$ACADMAINTVER
 70
    20
  9
$DWGCODEPAGE
  3
ANSI_1252
  9
$INSBASE
 10
0.0
 20
0.0
 30
0.0
  9
$EXTMIN
 10
-69.46060139855905
 20
-35.74278194287649
 30
-0.0015258207003583
  9
$EXTMAX
 10
46.53671294513242
 20
52.44722025544297
 30
0.0000000349246037
  9
$LIMMIN
 10
0.0
 20
0.0
  9
$LIMMAX
 10
210.0
 20
297.0
  9
$ORTHOMODE
 70
     0
  9
$REGENMODE
 70
     1
  9
$FILLMODE
 70
     1
  9
$QTEXTMODE
 70
     0
  9
$MIRRTEXT
 70
     1
  9
$LTSCALE
 40
1.0
  9
$ATTMODE
 70
     1
  9
$TEXTSIZE
 40
2.5
  9
$TRACEWID
 40
1.0
  9
$TEXTSTYLE
  7
STANDARD
  9
$CLAYER
  8
0
  9
$CELTYPE
  6
ByLayer
  9
$CECOLOR
 62
   256
  9
$CELTSCALE
 40
1.0
  9
$DISPSILH
 70
     0
  9
$DIMSCALE
 40
1.0
  9
$DIMASZ
 40
2.5
  9
$DIMEXO
 40
0.625
  9
$DIMDLI
 40
3.75
  9
$DIMRND
 40
0.0
  9
$DIMDLE
 40
0.0
  9
$DIMEXE
 40
1.25
  9
$DIMTP
 40
0.0
  9
$DIMTM
 40
0.0
  9
$DIMTXT
 40
2.5
  9
$DIMCEN
 40
2.5
  9
$DIMTSZ
 40
0.0
  9
$DIMTOL
 70
     0
  9
$DIMLIM
 70
     0
  9
$DIMTIH
 70
     0
  9
$DIMTOH
 70
     0
  9
$DIMSE1
 70
     0
  9
$DIMSE2
 70
     0
  9
$DIMTAD
 70
     1
  9
$DIMZIN
 70
     8
  9
$DIMBLK
  1

  9
$DIMASO
 70
     1
  9
$DIMSHO
 70
     1
  9
$DIMPOST
  1

  9
$DIMAPOST
  1

  9
$DIMALT
 70
     0
  9
$DIMALTD
 70
     3
  9
$DIMALTF
 40
0.0393700787
  9
$DIMLFAC
 40
1.0
  9
$DIMTOFL
 70
     1
  9
$DIMTVP
 40
0.0
  9
$DIMTIX
 70
     0
  9
$DIMSOXD
 70
     0
  9
$DIMSAH
 70
     0
  9
$DIMBLK1
  1

  9
$DIMBLK2
  1

  9
$DIMSTYLE
  2
ISO-25
  9
$DIMCLRD
 70
     0
  9
$DIMCLRE
 70
     0
  9
$DIMCLRT
 70
     0
  9
$DIMTFAC
 40
1.0
  9
$DIMGAP
 40
0.625
  9
$DIMJUST
 70
     0
  9
$DIMSD1
 70
     0
  9
$DIMSD2
 70
     0
  9
$DIMTOLJ
 70
     1
  9
$DIMTZIN
 70
     0
  9
$DIMALTZ
 70
     0
  9
$DIMALTTZ
 70
     0
  9
$DIMUPT
 70
     0
  9
$DIMDEC
 70
     4
  9
$DIMTDEC
 70
     4
  9
$DIMALTU
 70
     2
  9
$DIMALTTD
 70
     2
  9
$DIMTXSTY
  7
STANDARD
  9
$DIMAUNIT
 70
     0
  9
$DIMADEC
 70
     0
  9
$DIMALTRND
 40
0.0
  9
$DIMAZIN
 70
     0
  9
$DIMDSEP
 70
    46
  9
$DIMATFIT
 70
     3
  9
$DIMFRAC
 70
     0
  9
$DIMLDRBLK
  1

  9
$DIMLUNIT
 70
     2
  9
$DIMLWD
 70
    -2
  9
$DIMLWE
 70
    -2
  9
$DIMTMOVE
 70
     0
  9
$LUNITS
 70
     2
  9
$LUPREC
 70
     4
  9
$SKETCHINC
 40
1.0
  9
$FILLETRAD
 40
10.0
  9
$AUNITS
 70
     0
  9
$AUPREC
 70
     0
  9
$MENU
  1
.
  9
$ELEVATION
 40
0.0
  9
$PELEVATION
 40
0.0
  9
$THICKNESS
 40
0.0
  9
$LIMCHECK
 70
     0
  9
$CHAMFERA
 40
10.0
  9
$CHAMFERB
 40
10.0
  9
$CHAMFERC
 40
0.0
  9
$CHAMFERD
 40
0.0
  9
$SKPOLY
 70
     0
  9
$TDCREATE
 40
2455888.584730602
  9
$TDUCREATE
 40
2455888.501397268
  9
$TDUPDATE
 40
2456818.547393125
  9
$TDUUPDATE
 40
2456818.464059792
  9
$TDINDWG
 40
0.0000086690
  9
$TDUSRTIMER
 40
0.0000084954
  9
$USRTIMER
 70
     1
  9
$ANGBASE
 50
0.0
  9
$ANGDIR
 70
     0
  9
$PDMODE
 70
     0
  9
$PDSIZE
 40
0.0
  9
$PLINEWID
 40
0.0
  9
$SPLFRAME
 70
     0
  9
$SPLINETYPE
 70
     6
  9
$SPLINESEGS
 70
     8
  9
$HANDSEED
  5
764
  9
$SURFTAB1
 70
     6
  9
$SURFTAB2
 70
     6
  9
$SURFTYPE
 70
     6
  9
$SURFU
 70
     6
  9
$SURFV
 70
     6
  9
$UCSBASE
  2

  9
$UCSNAME
  2

  9
$UCSORG
 10
0.0
 20
0.0
 30
0.0
  9
$UCSXDIR
 10
1.0
 20
0.0
 30
0.0
  9
$UCSYDIR
 10
0.0
 20
1.0
 30
0.0
  9
$UCSORTHOREF
  2

  9
$UCSORTHOVIEW
 70
     0
  9
$UCSORGTOP
 10
0.0
 20
0.0
 30
0.0
  9
$UCSORGBOTTOM
 10
0.0
 20
0.0
 30
0.0
  9
$UCSORGLEFT
 10
0.0
 20
0.0
 30
0.0
  9
$UCSORGRIGHT
 10
0.0
 20
0.0
 30
0.0
  9
$UCSORGFRONT
 10
0.0
 20
0.0
 30
0.0
  9
$UCSORGBACK
 10
0.0
 20
0.0
 30
0.0
  9
$PUCSBASE
  2

  9
$PUCSNAME
  2

  9
$PUCSORG
 10
0.0
 20
0.0
 30
0.0
  9
$PUCSXDIR
 10
1.0
 20
0.0
 30
0.0
  9
$PUCSYDIR
 10
0.0
 20
1.0
 30
0.0
  9
$PUCSORTHOREF
  2

  9
$PUCSORTHOVIEW
 70
     0
  9
$PUCSORGTOP
 10
0.0
 20
0.0
 30
0.0
  9
$PUCSORGBOTTOM
 10
0.0
 20
0.0
 30
0.0
  9
$PUCSORGLEFT
 10
0.0
 20
0.0
 30
0.0
  9
$PUCSORGRIGHT
 10
0.0
 20
0.0
 30
0.0
  9
$PUCSORGFRONT
 10
0.0
 20
0.0
 30
0.0
  9
$PUCSORGBACK
 10
0.0
 20
0.0
 30
0.0
  9
$USERI1
 70
     0
  9
$USERI2
 70
     0
  9
$USERI3
 70
     0
  9
$USERI4
 70
     0
  9
$USERI5
 70
     0
  9
$USERR1
 40
0.0
  9
$USERR2
 40
0.0
  9
$USERR3
 40
0.0
  9
$USERR4
 40
0.0
  9
$USERR5
 40
0.0
  9
$WORLDVIEW
 70
     1
  9
$SHADEDGE
 70
     3
  9
$SHADEDIF
 70
    70
  9
$TILEMODE
 70
     1
  9
$MAXACTVP
 70
    64
  9
$PINSBASE
 10
0.0
 20
0.0
 30
0.0
  9
$PLIMCHECK
 70
     0
  9
$PEXTMIN
 10
0.0
 20
0.0
 30
0.0
  9
$PEXTMAX
 10
210.0
 20
297.0
 30
0.0
  9
$PLIMMIN
 10
0.0
 20
0.0
  9
$PLIMMAX
 10
210.0
 20
297.0
  9
$UNITMODE
 70
     0
  9
$VISRETAIN
 70
     1
  9
$PLINEGEN
 70
     0
  9
$PSLTSCALE
 70
     1
  9
$TREEDEPTH
 70
  3020
  9
$CMLSTYLE
  2
Standard
  9
$CMLJUST
 70
     0
  9
$CMLSCALE
 40
1.0
  9
$PROXYGRAPHICS
 70
     1
  9
$MEASUREMENT
 70
     0
  9
$CELWEIGHT
370
    -1
  9
$ENDCAPS
280
     0
  9
$JOINSTYLE
280
     0
  9
$LWDISPLAY
290
     0
  9
$INSUNITS
 70
     0
  9
$HYPERLINKBASE
  1

  9
$STYLESHEET
  1

  9
$XEDIT
290
     1
  9
$CEPSNTYPE
380
     0
  9
$PSTYLEMODE
290
     1
  9
$FINGERPRINTGUID
  2
{73E15937-87C3-4D89-84CC-DE30D1970D2D}
  9
$VERSIONGUID
  2
{633D9D6E-71E0-4393-A92F-566ED2FA3C67}
  9
$EXTNAMES
290
     1
  9
$PSVPSCALE
 40
0.0
  9
$OLESTARTUP
290
     0
  0
ENDSEC
  0
SECTION
  2
CLASSES
  0
CLASS
  1
ACDBDICTIONARYWDFLT
  2
AcDbDictionaryWithDefault
  3
ObjectDBX Classes
 90
        0
280
     0
281
     0
  0
CLASS
  1
MATERIAL
  2
AcDbMaterial
  3
ObjectDBX Classes
 90
     1153
280
     0
281
     0
  0
CLASS
  1
VISUALSTYLE
  2
AcDbVisualStyle
  3
ObjectDBX Classes
 90
     4095
280
     0
281
     0
  0
CLASS
  1
SCALE
  2
AcDbScale
  3
ObjectDBX Classes
 90
     1153
280
     0
281
     0
  0
CLASS
  1
TABLESTYLE
  2
AcDbTableStyle
  3
ObjectDBX Classes
 90
     4095
280
     0
281
     0
  0
CLASS
  1
MLEADERSTYLE
  2
AcDbMLeaderStyle
  3
ACDB_MLEADERSTYLE_CLASS
 90
     4095
280
     0
281
     0
  0
CLASS
  1
ACDBSECTIONVIEWSTYLE
  2
AcDbSectionViewStyle
  3
ObjectDBX Classes
 90
     1025
280
     0
281
     0
  0
CLASS
  1
ACDBDETAILVIEWSTYLE
  2
AcDbDetailViewStyle
  3
ObjectDBX Classes
 90
     1025
280
     0
281
     0
  0
CLASS
  1
EXACXREFPANELOBJECT
  2
ExAcXREFPanelObject
  3
EXAC_ESW
 90
     1025
280
     0
281
     0
  0
CLASS
  1
NPOCOLLECTION
  2
AcDbImpNonPersistentObjectsCollection
  3
ObjectDBX Classes
 90
     1153
280
     0
281
     0
  0
CLASS
  1
DICTIONARYVAR
  2
AcDbDictionaryVar
  3
ObjectDBX Classes
 90
        0
280
     0
281
     0
  0
CLASS
  1
CELLSTYLEMAP
  2
AcDbCellStyleMap
  3
ObjectDBX Classes
 90
     1152
280
     0
281
     0
  0
CLASS
  1
ACDBPLACEHOLDER
  2
AcDbPlaceHolder
  3
ObjectDBX Classes
 90
        0
280
     0
281
     0
  0
CLASS
  1
LAYOUT
  2
AcDbLayout
  3
ObjectDBX Classes
 90
        0
280
     0
281
     0
  0
ENDSEC
  0
SECTION
  2
TABLES
  0
TABLE
  2
VPORT
  5
671
330
0
100
AcDbSymbolTable
 70
     1
  0
VPORT
  5
6DD
330
671
100
AcDbSymbolTableRecord
100
AcDbViewportTableRecord
  2
*ACTIVE
 70
     0
 10
0.0
 20
0.0
 11
1.0
 21
1.0
 12
-11.46194422671331
 22
8.35221915628324
 13
0.0
 23
0.0
 14
10.0
 24
10.0
 15
10.0
 25
10.0
 16
0.0
 26
0.0
 36
1.0
 17
0.0
 27
0.0
 37
0.0
 40
98.69216088647661
 41
2.2
 42
50.0
 43
0.0
 44
0.0
 50
0.0
 51
0.0
 71
     0
 72
   100
 73
     1
 74
     3
 75
     0
 76
     0
 77
     0
 78
     0
281
     0
 65
     1
110
0.0
120
0.0
130
0.0
111
1.0
121
0.0
131
0.0
112
0.0
122
1.0
132
0.0
 79
     0
146
0.0
1001
ACAD_NAV_VCDISPLAY
1070
     3
  0
ENDTAB
  0
TABLE
  2
LTYPE
  5
66E
330
0
100
AcDbSymbolTable
 70
     4
  0
LTYPE
  5
6C3
330
66E
100
AcDbSymbolTableRecord
100
AcDbLinetypeTableRecord
  2
ByBlock
 70
     0
  3

 72
    65
 73
     0
 40
0.0
  0
LTYPE
  5
6C4
330
66E
100
AcDbSymbolTableRecord
100
AcDbLinetypeTableRecord
  2
ByLayer
 70
     0
  3

 72
    65
 73
     0
 40
0.0
  0
LTYPE
  5
6C5
330
66E
100
AcDbSymbolTableRecord
100
AcDbLinetypeTableRecord
  2
CONTINUOUS
 70
     0
  3
Solid line
 72
    65
 73
     0
 40
0.0
  0
LTYPE
  5
6D1
330
66E
100
AcDbSymbolTableRecord
100
AcDbLinetypeTableRecord
  2
PHANTOM2
 70
     0
  3
Phantom (.5x) ___ _ _ ___ _ _ ___ _ _ ___ _ _
 72
    65
 73
     6
 40
1.25
 49
0.625
 74
     0
 49
-0.125
 74
     0
 49
0.125
 74
     0
 49
-0.125
 74
     0
 49
0.125
 74
     0
 49
-0.125
 74
     0
  0
LTYPE
  5
6DE
330
66E
100
AcDbSymbolTableRecord
100
AcDbLinetypeTableRecord
  2
CENTER2
 70
     0
  3
Center (.5x) ___ _ ___ _ ___ _ ___ _ ___ _ ___
 72
    65
 73
     4
 40
28.575
 49
19.05
 74
     0
 49
-3.174999999999999
 74
     0
 49
3.174999999999999
 74
     0
 49
-3.174999999999999
 74
     0
  0
LTYPE
  5
6DF
330
66E
100
AcDbSymbolTableRecord
100
AcDbLinetypeTableRecord
  2
HIDDEN2
 70
     0
  3
Hidden (.5x) _ _ _ _ _ _ _ _ _ _ _ _ _ _ _ _ _ 
 72
    65
 73
     2
 40
4.7625
 49
3.174999999999999
 74
     0
 49
-1.587499999999999
 74
     0
  0
ENDTAB
  0
TABLE
  2
LAYER
  5
66B
330
0
100
AcDbSymbolTable
 70
    11
  0
LAYER
  5
6BD
102
{ACAD_XDICTIONARY
360
702
102
}
330
66B
100
AcDbSymbolTableRecord
100
AcDbLayerTableRecord
  2
0
 70
     0
 62
     7
  6
CONTINUOUS
370
    -3
390
678
  0
LAYER
  5
6E0
102
{ACAD_XDICTIONARY
360
704
102
}
330
66B
100
AcDbSymbolTableRecord
100
AcDbLayerTableRecord
  2
SK6
 70
     0
 62
     5
  6
CONTINUOUS
370
    -3
390
678
  0
LAYER
  5
6E1
102
{ACAD_XDICTIONARY
360
706
102
}
330
66B
100
AcDbSymbolTableRecord
100
AcDbLayerTableRecord
  2
SK2
 70
     0
 62
     7
  6
CONTINUOUS
370
    -3
390
678
  0
LAYER
  5
6E2
102
{ACAD_XDICTIONARY
360
708
102
}
330
66B
100
AcDbSymbolTableRecord
100
AcDbLayerTableRecord
  2
2
 70
     0
 62
     7
  6
CONTINUOUS
370
    -3
390
678
  0
LAYER
  5
6E3
102
{ACAD_XDICTIONARY
360
70A
102
}
330
66B
100
AcDbSymbolTableRecord
100
AcDbLayerTableRecord
  2
SK4
 70
     0
 62
     2
  6
CENTER2
370
    -3
390
678
  0
LAYER
  5
6E4
102
{ACAD_XDICTIONARY
360
70C
102
}
330
66B
100
AcDbSymbolTableRecord
100
AcDbLayerTableRecord
  2
SK1
 70
     0
 62
     4
  6
CONTINUOUS
370
    -3
390
678
  0
LAYER
  5
6E5
102
{ACAD_XDICTIONARY
360
70E
102
}
330
66B
100
AcDbSymbolTableRecord
100
AcDbLayerTableRecord
  2
SK3
 70
     0
 62
     1
  6
HIDDEN2
370
    -3
390
678
  0
LAYER
  5
6E6
102
{ACAD_XDICTIONARY
360
710
102
}
330
66B
100
AcDbSymbolTableRecord
100
AcDbLayerTableRecord
  2
1
 70
     0
 62
     4
  6
CONTINUOUS
370
    -3
390
678
  0
LAYER
  5
6E7
102
{ACAD_XDICTIONARY
360
712
102
}
330
66B
100
AcDbSymbolTableRecord
100
AcDbLayerTableRecord
  2
80
 70
     0
 62
     6
  6
CONTINUOUS
370
    -3
390
678
  0
LAYER
  5
6E8
102
{ACAD_XDICTIONARY
360
714
102
}
330
66B
100
AcDbSymbolTableRecord
100
AcDbLayerTableRecord
  2
81
 70
     0
 62
     3
  6
CONTINUOUS
370
    -3
390
678
  0
LAYER
  5
6E9
102
{ACAD_XDICTIONARY
360
716
102
}
330
66B
100
AcDbSymbolTableRecord
100
AcDbLayerTableRecord
  2
4
 70
     0
 62
     2
  6
CENTER2
370
    -3
390
678
  0
ENDTAB
  0
TABLE
  2
STYLE
  5
66C
330
0
100
AcDbSymbolTable
 70
     4
  0
STYLE
  5
6BE
330
66C
100
AcDbSymbolTableRecord
100
AcDbTextStyleTableRecord
  2
STANDARD
 70
     0
 40
0.0
 41
1.0
 50
0.0
 71
     0
 42
2.5
  3
txt
  4

  0
STYLE
  5
6C2
330
66C
100
AcDbSymbolTableRecord
100
AcDbTextStyleTableRecord
  2
Annotative
 70
     0
 40
0.0
 41
1.0
 50
0.0
 71
     0
 42
0.2
  3
txt
  4

1001
AcadAnnotative
1000
AnnotativeData
1002
{
1070
     1
1070
     1
1002
}
  0
STYLE
  5
6EA
330
66C
100
AcDbSymbolTableRecord
100
AcDbTextStyleTableRecord
  2
SEACAD_SEISO_TTF
 70
     0
 40
0.0
 41
1.0
 50
0.0
 71
     0
 42
0.2
  3
seiso.ttf
  4

  0
STYLE
  5
6EB
330
66C
100
AcDbSymbolTableRecord
100
AcDbTextStyleTableRecord
  2
SEACAD_SEMECI1_TTF
 70
     0
 40
0.0
 41
1.0
 50
0.0
 71
     0
 42
0.2
  3
semeci1.ttf
  4

  0
ENDTAB
  0
TABLE
  2
VIEW
  5
66F
330
0
100
AcDbSymbolTable
 70
     0
  0
ENDTAB
  0
TABLE
  2
UCS
  5
670
330
0
100
AcDbSymbolTable
 70
     0
  0
ENDTAB
  0
TABLE
  2
APPID
  5
672
330
0
100
AcDbSymbolTable
 70
     5
  0
APPID
  5
6BF
330
672
100
AcDbSymbolTableRecord
100
AcDbRegAppTableRecord
  2
ACAD
 70
     0
  0
APPID
  5
6C6
330
672
100
AcDbSymbolTableRecord
100
AcDbRegAppTableRecord
  2
AcadAnnotative
 70
     0
  0
APPID
  5
71A
330
672
100
AcDbSymbolTableRecord
100
AcDbRegAppTableRecord
  2
DCO15
 70
     0
  0
APPID
  5
726
330
672
100
AcDbSymbolTableRecord
100
AcDbRegAppTableRecord
  2
ACAD_NAV_VCDISPLAY
 70
     0
  0
APPID
  5
75F
330
672
100
AcDbSymbolTableRecord
100
AcDbRegAppTableRecord
  2
ACAD_MLEADERVER
 70
     0
  0
ENDTAB
  0
TABLE
  2
DIMSTYLE
  5
673
330
0
100
AcDbSymbolTable
 70
     3
100
AcDbDimStyleTable
 71
     0
  0
DIMSTYLE
105
6C0
330
673
100
AcDbSymbolTableRecord
100
AcDbDimStyleTableRecord
  2
Standard
 70
     0
340
6BE
  0
DIMSTYLE
105
6C1
330
673
100
AcDbSymbolTableRecord
100
AcDbDimStyleTableRecord
  2
Annotative
 70
     0
340
6BE
1001
AcadAnnotative
1000
AnnotativeData
1002
{
1070
     1
1070
     1
1002
}
  0
DIMSTYLE
105
6EC
330
673
100
AcDbSymbolTableRecord
100
AcDbDimStyleTableRecord
  2
ISO-25
 70
     0
 41
2.5
 42
0.625
 43
3.75
 44
1.25
 73
     0
 74
     0
 77
     1
 78
     8
140
2.5
141
2.5
143
0.0393700787
147
0.625
171
     3
172
     1
274
     3
279
     2
284
     8
285
     8
286
     8
340
6BE
  0
ENDTAB
  0
TABLE
  2
BLOCK_RECORD
  5
66A
330
0
100
AcDbSymbolTable
 70
     8
  0
BLOCK_RECORD
  5
6D9
330
66A
100
AcDbSymbolTableRecord
100
AcDbBlockTableRecord
  2
*Model_Space
340
6DC
  0
BLOCK_RECORD
  5
6D5
330
66A
100
AcDbSymbolTableRecord
100
AcDbBlockTableRecord
  2
*Paper_Space
340
6D8
  0
BLOCK_RECORD
  5
6EF
330
66A
100
AcDbSymbolTableRecord
100
AcDbBlockTableRecord
  2
$MODEL_SPACE
340
0
  0
BLOCK_RECORD
  5
6F1
330
66A
100
AcDbSymbolTableRecord
100
AcDbBlockTableRecord
  2
$PAPER_SPACE
340
0
  0
BLOCK_RECORD
  5
6F3
330
66A
100
AcDbSymbolTableRecord
100
AcDbBlockTableRecord
  2
GDIMGGROUP
340
0
102
{BLKREFS
331
62
102
}
  0
BLOCK_RECORD
  5
6F5
330
66A
100
AcDbSymbolTableRecord
100
AcDbBlockTableRecord
  2
GDIMGGROUP1
340
0
102
{BLKREFS
331
6E
102
}
  0
BLOCK_RECORD
  5
6F7
330
66A
100
AcDbSymbolTableRecord
100
AcDbBlockTableRecord
  2
GDIMGGROUP2
340
0
102
{BLKREFS
331
79
102
}
  0
BLOCK_RECORD
  5
6F9
330
66A
100
AcDbSymbolTableRecord
100
AcDbBlockTableRecord
  2
GDIMGGROUP3
340
0
102
{BLKREFS
331
84
102
}
  0
BLOCK_RECORD
  5
6FB
330
66A
100
AcDbSymbolTableRecord
100
AcDbBlockTableRecord
  2
GDIMGGROUP4
340
0
102
{BLKREFS
331
8E
102
}
  0
BLOCK_RECORD
  5
6FD
330
66A
100
AcDbSymbolTableRecord
100
AcDbBlockTableRecord
  2
GDIMGGROUP5
340
0
102
{BLKREFS
331
99
102
}
  0
ENDTAB
  0
ENDSEC
  0
SECTION
  2
BLOCKS
  0
BLOCK
  5
6DA
330
6D9
100
AcDbEntity
  8
0
100
AcDbBlockBegin
  2
*Model_Space
 70
     0
 10
0.0
 20
0.0
 30
0.0
  3
*Model_Space
  1

  0
ENDBLK
  5
6DB
330
6D9
100
AcDbEntity
  8
0
100
AcDbBlockEnd
  0
BLOCK
  5
6D6
330
6D5
100
AcDbEntity
 67
     1
  8
0
100
AcDbBlockBegin
  2
*Paper_Space
 70
     0
 10
0.0
 20
0.0
 30
0.0
  3
*Paper_Space
  1

  0
ENDBLK
  5
6D7
330
6D5
100
AcDbEntity
 67
     1
  8
0
100
AcDbBlockEnd
  0
BLOCK
  5
6F0
330
6EF
100
AcDbEntity
  8
0
100
AcDbBlockBegin
  2
$MODEL_SPACE
 70
     0
 10
0.0
 20
0.0
 30
0.0
  3
$MODEL_SPACE
  1

  0
ENDBLK
  5
21
330
6EF
100
AcDbEntity
  8
0
100
AcDbBlockEnd
  0
BLOCK
  5
6F2
330
6F1
100
AcDbEntity
  8
0
100
AcDbBlockBegin
  2
$PAPER_SPACE
 70
     0
 10
0.0
 20
0.0
 30
0.0
  3
$PAPER_SPACE
  1

  0
ENDBLK
  5
1D
330
6F1
100
AcDbEntity
  8
0
100
AcDbBlockEnd
  0
BLOCK
  5
6F4
330
6F3
100
AcDbEntity
  8
0
100
AcDbBlockBegin
  2
GDIMGGROUP
 70
     0
 10
0.0
 20
0.0
 30
0.0
  3
GDIMGGROUP
  1

  0
LWPOLYLINE
  5
63
330
6F3
100
AcDbEntity
  8
SK2
  6
Continuous
 62
     7
100
AcDbPolyline
 90
        4
 70
     0
 43
0.0
 10
-65.83337580770001
 20
6.499999892
 10
-64.66670910499999
 20
6.499999892
 10
-65.25004245640001
 20
10.0
 10
-65.83337580770001
 20
6.499999892
  0
LWPOLYLINE
  5
64
330
6F3
100
AcDbEntity
  8
SK2
  6
Continuous
 62
     7
100
AcDbPolyline
 90
        4
 70
     0
 43
0.0
 10
-65.83337580770001
 20
-6.4999994449
 10
-64.66670910499999
 20
-6.4999994449
 10
-65.25004245640001
 20
-9.999999553
 10
-65.83337580770001
 20
-6.4999994449
  0
LINE
  5
65
330
6F3
100
AcDbEntity
  8
SK2
  6
Continuous
 62
     7
100
AcDbLine
 10
-25.55
 20
10.0
 30
0.0
 11
-67.00004251039999
 21
10.0
 31
0.0
  0
LINE
  5
66
330
6F3
100
AcDbEntity
  8
SK2
  6
Continuous
 62
     7
100
AcDbLine
 10
-25.55
 20
-10.0
 30
0.0
 11
-67.00004251039999
 21
-10.0
 31
0.0
  0
LINE
  5
67
330
6F3
100
AcDbEntity
  8
SK2
  6
Continuous
 62
     7
100
AcDbLine
 10
-65.25004245640001
 20
10.0
 30
0.0
 11
-65.25004245640001
 21
-9.999999553
 31
0.0
  0
TEXT
  5
69
330
6F3
100
AcDbEntity
  8
SK2
  6
Continuous
 62
     7
100
AcDbText
 10
-66.12504245640001
 20
-5.1066442783
 30
0.0
 40
3.5
  1
O
 50
90.0
  7
SEACAD_SEMECI1_TTF
 11
-69.62504245640001
 21
-5.1066442783
 31
0.0
100
AcDbText
 73
     3
  0
TEXT
  5
6A
330
6F3
100
AcDbEntity
  8
SK2
  6
Continuous
 62
     7
100
AcDbText
 10
-66.12504245640001
 20
0.8907356343999996
 30
0.0
 40
3.5
  1
20
 50
90.0
  7
SEACAD_SEISO_TTF
 11
-69.62504245640001
 21
0.8907356344
 31
0.0
100
AcDbText
 73
     3
  0
ENDBLK
  5
6C
330
6F3
100
AcDbEntity
  8
0
100
AcDbBlockEnd
  0
BLOCK
  5
6F6
330
6F5
100
AcDbEntity
  8
0
100
AcDbBlockBegin
  2
GDIMGGROUP1
 70
     0
 10
0.0
 20
0.0
 30
0.0
  3
GDIMGGROUP1
  1

  0
LWPOLYLINE
  5
6F
330
6F5
100
AcDbEntity
  8
SK2
  6
Continuous
 62
     7
100
AcDbPolyline
 90
        4
 70
     0
 43
0.0
 10
22.08333392550001
 20
6.675000107999999
 10
20.9166672228
 20
6.675000107999999
 10
21.5000005742
 20
3.174999999999999
 10
22.08333392550001
 20
6.675000107999999
  0
LWPOLYLINE
  5
70
330
6F5
100
AcDbEntity
  8
SK2
  6
Continuous
 62
     7
100
AcDbPolyline
 90
        4
 70
     0
 43
0.0
 10
22.08333392550001
 20
-6.675000107999999
 10
20.9166672228
 20
-6.675000107999999
 10
21.5000005742
 20
-3.174999999999999
 10
22.08333392550001
 20
-6.675000107999999
  0
LINE
  5
71
330
6F5
100
AcDbEntity
  8
SK2
  6
Continuous
 62
     7
100
AcDbLine
 10
3.610288568299999
 20
3.174999999999999
 30
0.0
 11
23.2500006282
 21
3.174999999999999
 31
0.0
  0
LINE
  5
72
330
6F5
100
AcDbEntity
  8
SK2
  6
Continuous
 62
     7
100
AcDbLine
 10
3.610288568299999
 20
-3.174999999999999
 30
0.0
 11
23.2500006282
 21
-3.174999999999999
 31
0.0
  0
LINE
  5
73
330
6F5
100
AcDbEntity
  8
SK2
  6
Continuous
 62
     7
100
AcDbLine
 10
21.5000005742
 20
28.8285671651
 30
0.0
 11
21.5000005742
 21
-10.1749996737
 31
0.0
  0
TEXT
  5
74
330
6F5
100
AcDbEntity
  8
SK2
  6
Continuous
 62
     7
100
AcDbText
 10
20.6250005742
 20
15.0039149687
 30
0.0
 40
3.5
  1
O
 50
90.0
  7
SEACAD_SEMECI1_TTF
 11
17.1250005742
 21
15.0039149687
 31
0.0
100
AcDbText
 73
     3
  0
TEXT
  5
75
330
6F5
100
AcDbEntity
  8
SK2
  6
Continuous
 62
     7
100
AcDbText
 10
20.6250005742
 20
21.0012948813
 30
0.0
 40
3.5
  1
6,35
 50
90.0
  7
SEACAD_SEISO_TTF
 11
17.1250005742
 21
21.0012948813
 31
0.0
100
AcDbText
 73
     3
  0
ENDBLK
  5
77
330
6F5
100
AcDbEntity
  8
0
100
AcDbBlockEnd
  0
BLOCK
  5
6F8
330
6F7
100
AcDbEntity
  8
0
100
AcDbBlockBegin
  2
GDIMGGROUP2
 70
     0
 10
0.0
 20
0.0
 30
0.0
  3
GDIMGGROUP2
  1

  0
LWPOLYLINE
  5
7A
330
6F7
100
AcDbEntity
  8
SK2
  6
Continuous
 62
     7
100
AcDbPolyline
 90
        4
 70
     0
 43
0.0
 10
30.4833343855
 20
8.999999891999999
 10
29.3166676828
 20
8.999999891999999
 10
29.9000010341
 20
12.5
 10
30.4833343855
 20
8.999999891999999
  0
LWPOLYLINE
  5
7B
330
6F7
100
AcDbEntity
  8
SK2
  6
Continuous
 62
     7
100
AcDbPolyline
 90
        4
 70
     0
 43
0.0
 10
30.4833343855
 20
-9.0000002645
 10
29.3166676828
 20
-9.0000002645
 10
29.9000010341
 20
-12.5000003725
 10
30.4833343855
 20
-9.0000002645
  0
LINE
  5
7C
330
6F7
100
AcDbEntity
  8
SK2
  6
Continuous
 62
     7
100
AcDbLine
 10
2.0
 20
12.5
 30
0.0
 11
31.65000108820001
 21
12.5
 31
0.0
  0
LINE
  5
7D
330
6F7
100
AcDbEntity
  8
SK2
  6
Continuous
 62
     7
100
AcDbLine
 10
2.0
 20
-12.5
 30
0.0
 11
31.65000108820001
 21
-12.5
 31
0.0
  0
LINE
  5
7E
330
6F7
100
AcDbEntity
  8
SK2
  6
Continuous
 62
     7
100
AcDbLine
 10
29.9000010341
 20
12.5
 30
0.0
 11
29.9000010341
 21
-12.5000003725
 31
0.0
  0
TEXT
  5
7F
330
6F7
100
AcDbEntity
  8
SK2
  6
Continuous
 62
     7
100
AcDbText
 10
29.0250010341
 20
-5.066871960799999
 30
0.0
 40
3.5
  1
O
 50
90.0
  7
SEACAD_SEMECI1_TTF
 11
25.5250010341
 21
-5.066871960799999
 31
0.0
100
AcDbText
 73
     3
  0
TEXT
  5
80
330
6F7
100
AcDbEntity
  8
SK2
  6
Continuous
 62
     7
100
AcDbText
 10
29.0250010341
 20
0.9305079518999995
 30
0.0
 40
3.5
  1
25
 50
90.0
  7
SEACAD_SEISO_TTF
 11
25.5250010341
 21
0.9305079518999999
 31
0.0
100
AcDbText
 73
     3
  0
ENDBLK
  5
82
330
6F7
100
AcDbEntity
  8
0
100
AcDbBlockEnd
  0
BLOCK
  5
6FA
330
6F9
100
AcDbEntity
  8
0
100
AcDbBlockBegin
  2
GDIMGGROUP3
 70
     0
 10
0.0
 20
0.0
 30
0.0
  3
GDIMGGROUP3
  1

  0
LWPOLYLINE
  5
85
330
6F9
100
AcDbEntity
  8
SK2
  6
Continuous
 62
     7
100
AcDbPolyline
 90
        4
 70
     0
 43
0.0
 10
-46.499999892
 20
-26.1635067097
 10
-46.499999892
 20
-24.996840007
 10
-50.0
 20
-25.5801733583
 10
-46.499999892
 20
-26.1635067097
  0
LWPOLYLINE
  5
86
330
6F9
100
AcDbEntity
  8
SK2
  6
Continuous
 62
     7
100
AcDbPolyline
 90
        4
 70
     0
 43
0.0
 10
-3.499999363
 20
-26.1635067097
 10
-3.499999363
 20
-24.996840007
 10
0.0000007451
 20
-25.5801733583
 10
-3.499999363
 20
-26.1635067097
  0
LINE
  5
87
330
6F9
100
AcDbEntity
  8
SK2
  6
Continuous
 62
     7
100
AcDbLine
 10
-50.0
 20
0.0
 30
0.0
 11
-50.0
 21
-27.3301734123
 31
0.0
  0
LINE
  5
88
330
6F9
100
AcDbEntity
  8
SK2
  6
Continuous
 62
     7
100
AcDbLine
 10
0.0
 20
-11.3343145751
 30
0.0
 11
0.0
 21
-27.3301734123
 31
0.0
  0
LINE
  5
89
330
6F9
100
AcDbEntity
  8
SK2
  6
Continuous
 62
     7
100
AcDbLine
 10
-50.0
 20
-25.5801733583
 30
0.0
 11
0.0000007451
 21
-25.5801733583
 31
0.0
  0
TEXT
  5
8A
330
6F9
100
AcDbEntity
  8
SK2
  6
Continuous
 62
     7
100
AcDbText
 10
-27.0284087184
 20
-24.7051733583
 30
0.0
 40
3.5
  1
50
  7
SEACAD_SEISO_TTF
 11
-27.0284087184
 21
-21.2051733583
 31
0.0
100
AcDbText
 73
     3
  0
ENDBLK
  5
8C
330
6F9
100
AcDbEntity
  8
0
100
AcDbBlockEnd
  0
BLOCK
  5
6FC
330
6FB
100
AcDbEntity
  8
0
100
AcDbBlockBegin
  2
GDIMGGROUP4
 70
     0
 10
0.0
 20
0.0
 30
0.0
  3
GDIMGGROUP4
  1

  0
LWPOLYLINE
  5
8F
330
6FB
100
AcDbEntity
  8
SK2
  6
Continuous
 62
     7
100
AcDbPolyline
 90
        4
 70
     0
 43
0.0
 10
-46.499999892
 20
-34.5635054788
 10
-46.499999892
 20
-33.39683877610001
 10
-50.0
 20
-33.9801721275
 10
-46.499999892
 20
-34.5635054788
  0
LWPOLYLINE
  5
90
330
6FB
100
AcDbEntity
  8
SK2
  6
Continuous
 62
     7
100
AcDbPolyline
 90
        4
 70
     0
 43
0.0
 10
0.5000012927000001
 20
-34.5635054788
 10
0.5000012927000001
 20
-33.39683877610001
 10
4.000001400699999
 20
-33.9801721275
 10
0.5000012927000001
 20
-34.5635054788
  0
LINE
  5
91
330
6FB
100
AcDbEntity
  8
SK2
  6
Continuous
 62
     7
100
AcDbLine
 10
-50.0
 20
0.0
 30
0.0
 11
-50.0
 21
-35.7301721815
 31
0.0
  0
LINE
  5
92
330
6FB
100
AcDbEntity
  8
SK2
  6
Continuous
 62
     7
100
AcDbLine
 10
4.0
 20
-9.987847830899999
 30
0.0
 11
4.0
 21
-35.7301721815
 31
0.0
  0
LINE
  5
93
330
6FB
100
AcDbEntity
  8
SK2
  6
Continuous
 62
     7
100
AcDbLine
 10
-50.0
 20
-33.9801721275
 30
0.0
 11
4.000001400699999
 21
-33.9801721275
 31
0.0
  0
TEXT
  5
94
330
6FB
100
AcDbEntity
  8
SK2
  6
Continuous
 62
     7
100
AcDbText
 10
-25.0284083906
 20
-33.1051721275
 30
0.0
 40
3.5
  1
54
  7
SEACAD_SEISO_TTF
 11
-25.0284083906
 21
-29.6051721275
 31
0.0
100
AcDbText
 73
     3
  0
ENDBLK
  5
96
330
6FB
100
AcDbEntity
  8
0
100
AcDbBlockEnd
  0
BLOCK
  5
6FE
330
6FD
100
AcDbEntity
  8
0
100
AcDbBlockBegin
  2
GDIMGGROUP5
 70
     0
 10
0.0
 20
0.0
 30
0.0
  3
GDIMGGROUP5
  1

  0
LWPOLYLINE
  5
9A
330
6FD
100
AcDbEntity
  8
2
  6
Continuous
 62
     7
100
AcDbPolyline
 90
        4
 70
     0
 43
0.0
 10
7.500000107999999
 20
32.9767318663
 10
7.500000107999999
 20
31.8100651637
 10
4.0
 20
32.393398515
 10
7.500000107999999
 20
32.9767318663
  0
LWPOLYLINE
  5
9B
330
6FD
100
AcDbEntity
  8
2
  6
Continuous
 62
     7
100
AcDbPolyline
 90
        4
 70
     0
 43
0.0
 10
-3.500000108
 20
32.9767318663
 10
-3.500000108
 20
31.8100651637
 10
0.0
 20
32.393398515
 10
-3.500000108
 20
32.9767318663
  0
LINE
  5
9C
330
6FD
100
AcDbEntity
  8
2
  6
Continuous
 62
     7
100
AcDbLine
 10
4.0
 20
11.4988897062
 30
0.0
 11
4.0
 21
34.143398569
 31
0.0
  0
LINE
  5
9D
330
6FD
100
AcDbEntity
  8
2
  6
Continuous
 62
     7
100
AcDbLine
 10
0.0
 20
11.3343145751
 30
0.0
 11
0.0
 21
34.143398569
 31
0.0
  0
LINE
  5
9E
330
6FD
100
AcDbEntity
  8
2
  6
Continuous
 62
     7
100
AcDbLine
 10
11.0000002161
 20
32.393398515
 30
0.0
 11
-6.999999940399999
 21
32.393398515
 31
0.0
  0
TEXT
  5
9F
330
6FD
100
AcDbEntity
  8
2
  6
Continuous
 62
     7
100
AcDbText
 10
0.9659089958999997
 20
33.268398515
 30
0.0
 40
3.5
  1
4
  7
SEACAD_SEISO_TTF
 11
0.9659089958999999
 21
36.768398515
 31
0.0
100
AcDbText
 73
     3
  0
ENDBLK
  5
A1
330
6FD
100
AcDbEntity
  8
0
100
AcDbBlockEnd
  0
ENDSEC
  0
SECTION
  2
ENTITIES
  0
TEXT
  5
5E
330
6D9
100
AcDbEntity
  8
SK6
  6
Continuous
100
AcDbText
 10
-37.0978983367
 20
44.8265782047
 30
0.0
 40
8.0
  1
A393.CG-20 04 52
  7
SEACAD_SEISO_TTF
 11
-37.0978983367
 21
52.8265782047
 31
0.0
100
AcDbText
 73
     3
  0
INSERT
  5
62
330
6D9
100
AcDbEntity
  8
SK2
100
AcDbBlockReference
  2
GDIMGGROUP
 10
0.0
 20
0.0
 30
0.0
  0
INSERT
  5
6E
330
6D9
100
AcDbEntity
  8
SK2
100
AcDbBlockReference
  2
GDIMGGROUP1
 10
0.0
 20
0.0
 30
0.0
  0
INSERT
  5
79
330
6D9
100
AcDbEntity
  8
SK2
100
AcDbBlockReference
  2
GDIMGGROUP2
 10
0.0
 20
0.0
 30
0.0
  0
INSERT
  5
84
330
6D9
100
AcDbEntity
  8
SK2
100
AcDbBlockReference
  2
GDIMGGROUP3
 10
0.0
 20
0.0
 30
0.0
  0
INSERT
  5
8E
330
6D9
100
AcDbEntity
  8
SK2
100
AcDbBlockReference
  2
GDIMGGROUP4
 10
0.0
 20
0.0
 30
0.0
  0
INSERT
  5
99
330
6D9
100
AcDbEntity
  8
2
100
AcDbBlockReference
  2
GDIMGGROUP5
 10
0.0
 20
0.0
 30
0.0
  0
LINE
  5
A4
330
6D9
100
AcDbEntity
  8
SK4
100
AcDbLine
 10
-52.0
 20
0.0
 30
0.0
 11
6.0
 21
0.0
 31
0.0
  0
LINE
  5
A6
330
6D9
100
AcDbEntity
  8
SK1
  6
Continuous
100
AcDbLine
 10
-0.4
 20
9.849999999999999
 30
0.0
 11
-0.4
 21
7.309575961
 31
0.0
  0
LINE
  5
A7
330
6D9
100
AcDbEntity
  8
SK1
  6
Continuous
100
AcDbLine
 10
-1.566987298099999
 20
9.849999999999999
 30
0.0
 11
-1.566987298099999
 21
7.309575961
 31
0.0
  0
LINE
  5
AA
330
6D9
100
AcDbEntity
  8
SK3
100
AcDbLine
 10
-40.0
 20
-8.25
 30
0.0
 11
-40.0
 21
8.25
 31
0.0
  0
LINE
  5
AB
330
6D9
100
AcDbEntity
  8
SK3
100
AcDbLine
 10
-49.5
 20
-8.25
 30
0.0
 11
-49.5
 21
8.25
 31
0.0
  0
LINE
  5
AC
330
6D9
100
AcDbEntity
  8
SK3
100
AcDbLine
 10
-34.0
 20
3.1642584293
 30
0.0
 11
-34.0
 21
-3.1642584293
 31
0.0
  0
LINE
  5
AD
330
6D9
100
AcDbEntity
  8
SK3
100
AcDbLine
 10
-30.8390072762
 20
3.174999999999999
 30
0.0
 11
-30.8390072762
 21
2.570603795999999
 31
0.0
  0
LINE
  5
AE
330
6D9
100
AcDbEntity
  8
SK3
100
AcDbLine
 10
-36.75
 20
-5.0
 30
0.0
 11
-36.75
 21
5.0
 31
0.0
  0
LINE
  5
B0
330
6D9
100
AcDbEntity
  8
1
  6
Continuous
100
AcDbLine
 10
3.9828427125
 20
11.5171572875
 30
0.0
 11
3.9828427125
 21
8.4897352957
 31
0.0
  0
LINE
  5
B1
330
6D9
100
AcDbEntity
  8
1
  6
Continuous
100
AcDbLine
 10
2.8343145751
 20
12.5
 30
0.0
 11
2.8343145751
 21
9.185314256899999
 31
0.0
  0
LINE
  5
B2
330
6D9
100
AcDbEntity
  8
1
  6
Continuous
100
AcDbLine
 10
3.117157287499999
 20
8.3952977809
 30
0.0
 11
3.117157287499999
 21
-8.3952977809
 31
0.0
  0
LINE
  5
B3
330
6D9
100
AcDbEntity
  8
1
  6
Continuous
100
AcDbLine
 10
1.165685424899999
 20
8.478207475699999
 30
0.0
 11
1.165685424899999
 21
-8.478207475699999
 31
0.0
  0
LINE
  5
B4
330
6D9
100
AcDbEntity
  8
1
  6
Continuous
100
AcDbLine
 10
0.8828427125000001
 20
12.3828427125
 30
0.0
 11
0.8828427125000001
 21
9.1024045621
 31
0.0
  0
LINE
  5
B5
330
6D9
100
AcDbEntity
  8
1
  6
Continuous
100
AcDbLine
 10
0.0
 20
11.3343145751
 30
0.0
 11
0.0
 21
8.360321992399999
 31
0.0
  0
LINE
  5
B6
330
6D9
100
AcDbEntity
  8
1
  6
Continuous
100
AcDbLine
 10
0.1171572875
 20
7.8534053471
 30
0.0
 11
0.1171572875
 21
-7.8534053471
 31
0.0
  0
LINE
  5
B7
330
6D9
100
AcDbEntity
  8
SK1
  6
Continuous
100
AcDbLine
 10
-50.0
 20
-9.176239569299999
 30
0.0
 11
-50.0
 21
9.176239569299999
 31
0.0
  0
LINE
  5
B8
330
6D9
100
AcDbEntity
  8
SK1
  6
Continuous
100
AcDbLine
 10
-49.8
 20
-9.522649730799999
 30
0.0
 11
-49.8
 21
9.522649730799999
 31
0.0
  0
LINE
  5
B9
330
6D9
100
AcDbEntity
  8
1
  6
Continuous
100
AcDbLine
 10
4.0
 20
11.4988897062
 30
0.0
 11
4.0
 21
8.476805955699999
 31
0.0
  0
LINE
  5
BA
330
6D9
100
AcDbEntity
  8
SK1
  6
Continuous
100
AcDbLine
 10
-48.97320508079999
 20
-10.0
 30
0.0
 11
-48.97320508079999
 21
10.0
 31
0.0
  0
LINE
  5
BB
330
6D9
100
AcDbEntity
  8
SK1
  6
Continuous
100
AcDbLine
 10
-2.126794919199999
 20
6.708670055299999
 30
0.0
 11
-2.126794919199999
 21
-6.708670055299999
 31
0.0
  0
LINE
  5
BC
330
6D9
100
AcDbEntity
  8
SK3
100
AcDbLine
 10
3.610288568299999
 20
3.174999999999999
 30
0.0
 11
3.610288568299999
 21
2.570603795999999
 31
0.0
  0
LINE
  5
BD
330
6D9
100
AcDbEntity
  8
SK3
100
AcDbLine
 10
4.0
 20
2.0244709995
 30
0.0
 11
3.610288568299999
 21
1.863497014799999
 31
0.0
  0
LWPOLYLINE
  5
BE
330
6D9
100
AcDbEntity
  8
SK1
  6
Continuous
100
AcDbPolyline
 90
      265
 70
     0
 43
0.0
 10
-40.3368453697
 20
6.708670055299999
 10
-40.3440087315
 20
6.708690333899999
 10
-40.3511718939
 20
6.708751152799999
 10
-40.3583342322
 20
6.708852487
 10
-40.3654951215
 20
6.708994311299999
 10
-40.37257889449999
 20
6.7091745802
 10
-40.3796579478
 20
6.709394589099999
 10
-40.3867393426
 20
6.709654536699999
 10
-40.3938223877
 20
6.7099544452
 10
-40.40090639199999
 20
6.710294336399999
 10
-40.40799066429999
 20
6.710674232699999
 10
-40.4150745134
 20
6.711094156
 10
-40.4221572482
 20
6.7115541285
 10
-40.4292381775
 20
6.7120541722
 10
-40.4363166101
 20
6.712594309199999
 10
-40.4433918549
 20
6.713174561699999
 10
-40.4504632207
 20
6.713794951699999
 10
-40.45753001629999
 20
6.714455501399999
 10
-40.46459155069999
 20
6.7151562327
 10
-40.4716471325
 20
6.715897167899999
 10
-40.47869607079999
 20
6.716678328999999
 10
-40.4857376742
 20
6.717499738099999
 10
-40.49277125159999
 20
6.7183614172
 10
-40.4997961119
 20
6.719263388599999
 10
-40.5068115639
 20
6.720205674199999
 10
-40.51381691639999
 20
6.7211882962
 10
-40.5208114783
 20
6.722211276599999
 10
-40.52779455849999
 20
6.723274637699999
 10
-40.53476546559999
 20
6.7243784013
 10
-40.5417235086
 20
6.7255225897
 10
-40.5486679964
 20
6.726707225
 10
-40.55559823769999
 20
6.727932329199999
 10
-40.5625135414
 20
6.7291979244
 10
-40.5694132163
 20
6.730504032699999
 10
-40.57629657129999
 20
6.731850676299999
 10
-40.5831629151
 20
6.7332378771
 10
-40.59001155669999
 20
6.734665657299999
 10
-40.59684180489999
 20
6.736134039099999
 10
-40.60365296839999
 20
6.7376430444
 10
-40.6104443562
 20
6.739192695399999
 10
-40.6172152771
 20
6.740783014199999
 10
-40.6239650399
 20
6.742414022799999
 10
-40.6306929534
 20
6.7440857434
 10
-40.6373983266
 20
6.745798198099999
 10
-40.6440804681
 20
6.747551408899999
 10
-40.65073868689999
 20
6.749345397999999
 10
-40.65737229169999
 20
6.7511801873
 10
-40.66398059159999
 20
6.753055799199999
 10
-40.6705891133
 20
6.754980083099999
 10
-40.67718502369999
 20
6.7569501148
 10
-40.6837624686
 20
6.758964575399999
 10
-40.6903201677
 20
6.7610234564
 10
-40.6968568406
 20
6.763126749299999
 10
-40.70337120699999
 20
6.765274445499999
 10
-40.7098619867
 20
6.767466536599999
 10
-40.7163278992
 20
6.769703014
 10
-40.72276766429999
 20
6.771983869199999
 10
-40.7291800017
 20
6.7743090937
 10
-40.73556363099999
 20
6.776678678999999
 10
-40.74191727179999
 20
6.779092616599999
 10
-40.748239644
 20
6.781550897999999
 10
-40.7545294671
 20
6.7840535146
 10
-40.7607854608
 20
6.786600457999999
 10
-40.7670063448
 20
6.7891917196
 10
-40.77319083879999
 20
6.7918272909
 10
-40.7793376625
 20
6.7945071633
 10
-40.7854455355
 20
6.7972313285
 10
-40.7915131775
 20
6.7999997778
 10
-40.79753930819999
 20
6.802812502799999
 10
-40.8035226473
 20
6.8056694949
 10
-40.8094619144
 20
6.8085707457
 10
-40.81535582919999
 20
6.8115162466
 10
-40.8212031115
 20
6.814505988999999
 10
-40.8270024808
 20
6.8175399646
 10
-40.8327526568
 20
6.820618164699999
 10
-40.8384523593
 20
6.8237405808
 10
-40.84410030789999
 20
6.8269072045
 10
-40.84969522219999
 20
6.8301180273
 10
-40.8552358221
 20
6.833373040499999
 10
-40.8607296173
 20
6.836677813699999
 10
-40.8661794921
 20
6.840036147899999
 10
-40.8715789298
 20
6.8434450794
 10
-40.8769256548
 20
6.846904044299999
 10
-40.8822173916
 20
6.8504124785
 10
-40.8874518646
 20
6.853969817999999
 10
-40.8926267983
 20
6.8575754988
 10
-40.8977399172
 20
6.861228956799999
 10
-40.90278894579999
 20
6.864929628099999
 10
-40.9077716084
 20
6.8686769485
 10
-40.91268562969999
 20
6.872470354099999
 10
-40.91752873389999
 20
6.8763092808
 10
-40.9222986457
 20
6.8801931646
 10
-40.9269930895
 20
6.884121441499999
 10
-40.9316097897
 20
6.8880935474
 10
-40.93614647079999
 20
6.892108918399999
 10
-40.94060085729999
 20
6.896166990299999
 10
-40.94497067369999
 20
6.900267199199999
 10
-40.9492536444
 20
6.904408981
 10
-40.95344749379999
 20
6.908591771699999
 10
-40.9575499465
 20
6.912815007299999
 10
-40.96155872699999
 20
6.917078123799999
 10
-40.96547155959999
 20
6.921380557099999
 10
-40.9692888259
 20
6.925725091599999
 10
-40.97301397079999
 20
6.930119844299999
 10
-40.97664298749999
 20
6.9345617836
 10
-40.980173378
 20
6.9390489928
 10
-40.983602644
 20
6.943579555
 10
-40.98692828739999
 20
6.9481515534
 10
-40.99014781010001
 20
6.952763071299999
 10
-40.9932587138
 20
6.957412191699999
 10
-40.9962585005
 20
6.962096997799999
 10
-40.999144672
 20
6.966815572999999
 10
-41.00191473
 20
6.9715660002
 10
-41.00456617659999
 20
6.9763463627
 10
-41.00709651339999
 20
6.9811547437
 10
-41.0095032423
 20
6.9859892264
 10
-41.01178386519999
 20
6.990847893899999
 10
-41.01393588389999
 20
6.9957288295
 10
-41.0159568003
 20
7.000630116199999
 10
-41.01784411619999
 20
7.0055498373
 10
-41.01959533339999
 20
7.010486076
 10
-41.0212192095
 20
7.015470860299999
 10
-41.0227090342
 20
7.0204872398
 10
-41.0240610983
 20
7.025524151099999
 10
-41.0252744068
 20
7.030578595299999
 10
-41.0263479648
 20
7.0356475732
 10
-41.0272807773
 20
7.0407280857
 10
-41.0280718494
 20
7.045817133699999
 10
-41.0287201862
 20
7.0509117182
 10
-41.0292247927
 20
7.056008839999999
 10
-41.02958467399999
 20
7.0611055001
 10
-41.0297988351
 20
7.066198699400001
 10
-41.0298662818
 20
7.0712846532
 10
-41.0297860777
 20
7.0763163282
 10
-41.0295588602
 20
7.0813491657
 10
-41.0291860818
 20
7.0863805345
 10
-41.028669195
 20
7.0914078036
 10
-41.0280096523
 20
7.096428342
 10
-41.0272089063
 20
7.1014395184
 10
-41.0262684096
 20
7.106438701799999
 10
-41.02518961469999
 20
7.111423261199999
 10
-41.0239739742
 20
7.116390565399999
 10
-41.02262294059999
 20
7.1213379833
 10
-41.0211379664
 20
7.126262883899999
 10
-41.01952050429999
 20
7.131162635999999
 10
-41.01777200669999
 20
7.1360346087
 10
-41.0158939262
 20
7.1408761707
 10
-41.0138877154
 20
7.145684691
 10
-41.0117548268
 20
7.1504575385
 10
-41.0094967129
 20
7.1551920822
 10
-41.0071148264
 20
7.1598856909
 10
-41.0046090712
 20
7.164538627399999
 10
-41.0019721255
 20
7.169168551799999
 10
-40.99921243069999
 20
7.173765225399999
 10
-40.9963326274
 20
7.1783274822
 10
-40.99333535639999
 20
7.1828541561
 10
-40.9902232583
 20
7.1873440812
 10
-40.9869989739
 20
7.191796091499999
 10
-40.9836651439
 20
7.1962090209
 10
-40.980224409
 20
7.2005817034
 10
-40.9766794099
 20
7.204912972999999
 10
-40.9730327872
 20
7.2092016638
 10
-40.9692871817
 20
7.2134466096
 10
-40.9654452342
 20
7.2176466446
 10
-40.96150958519999
 20
7.2218006026
 10
-40.9574828755
 20
7.225907317699999
 10
-40.9533677458
 20
7.2299656238
 10
-40.9491668368
 20
7.233974354999999
 10
-40.9448827893
 20
7.237932345299999
 10
-40.9405182438
 20
7.2418384285
 10
-40.9360831365
 20
7.2456854525
 10
-40.93157527089999
 20
7.2494788773
 10
-40.92698628159999
 20
7.2532278928
 10
-40.9223180852
 20
7.2569323665
 10
-40.91757259829999
 20
7.260592165599999
 10
-40.9127517376
 20
7.264207157499999
 10
-40.9078574197
 20
7.2677772096
 10
-40.90289156119999
 20
7.271302189199999
 10
-40.8978560787
 20
7.274781963799999
 10
-40.89275288889999
 20
7.278216400599999
 10
-40.8875839084
 20
7.281605367
 10
-40.88235105389999
 20
7.284948730499999
 10
-40.87705624189999
 20
7.2882463584
 10
-40.8717013892
 20
7.291498117899999
 10
-40.8662884123
 20
7.294703876599999
 10
-40.8608192278
 20
7.297863501699999
 10
-40.85529575249999
 20
7.3009768607
 10
-40.84971990289999
 20
7.3040438208
 10
-40.8440935957
 20
7.3070642496
 10
-40.8384187475
 20
7.310038014199999
 10
-40.8326972749
 20
7.3129649821
 10
-40.8269310946
 20
7.3158450207
 10
-40.8211221232
 20
7.3186779972
 10
-40.8152722773
 20
7.321463779199999
 10
-40.8093834735
 20
7.324202233899999
 10
-40.8034576286
 20
7.3268932287
 10
-40.7974975032
 20
7.329536262499999
 10
-40.7915140488
 20
7.3321279557
 10
-40.78548840799999
 20
7.334677752899999
 10
-40.77942156599999
 20
7.3371857541
 10
-40.7733145078
 20
7.339652058999999
 10
-40.76716821849999
 20
7.3420767675
 10
-40.7609836832
 20
7.3444599795
 10
-40.754761887
 20
7.3468017947
 10
-40.748503815
 20
7.349102313099999
 10
-40.7422104521
 20
7.3513616345
 10
-40.73588278369999
 20
7.353579858699999
 10
-40.7295217946
 20
7.355757085499999
 10
-40.7231284701
 20
7.3578934149
 10
-40.7167037951
 20
7.359988946599999
 10
-40.7102487549
 20
7.362043780599999
 10
-40.70376433439999
 20
7.364058016599999
 10
-40.6972515188
 20
7.3660317545
 10
-40.6907112932
 20
7.367965094099999
 10
-40.68414464249999
 20
7.369858135399999
 10
-40.677552552
 20
7.371710977999999
 10
-40.67093600679999
 20
7.373523722
 10
-40.6642959918
 20
7.3752964671
 10
-40.6576334922
 20
7.3770293132
 10
-40.6509494931
 20
7.3787223601
 10
-40.6442449795
 20
7.380375707599999
 10
-40.63752093659999
 20
7.3819894557
 10
-40.6307783494
 20
7.383563704099999
 10
-40.62401820299999
 20
7.385098552799999
 10
-40.6172414826
 20
7.3865941015
 10
-40.6104491732
 20
7.388050450099999
 10
-40.60364225979999
 20
7.3894676984
 10
-40.5968217276
 20
7.390845946299999
 10
-40.5899885617
 20
7.392185293699999
 10
-40.5831437471
 20
7.393485840299999
 10
-40.576288269
 20
7.3947476861
 10
-40.5694231123
 20
7.3959709308
 10
-40.5625492623
 20
7.3971556744
 10
-40.5556517124
 20
7.3983046862
 10
-40.5487360558
 20
7.399417163999999
 10
-40.5418047091
 20
7.400492830499999
 10
-40.53485831199999
 20
7.4015317085
 10
-40.5278975039
 20
7.4025338209
 10
-40.5209229244
 20
7.403499190399999
 10
-40.5139352132
 20
7.40442784
 10
-40.5069350098
 20
7.4053197923
 10
-40.4999229538
 20
7.406175070299999
 10
-40.4928996847
 20
7.406993696799999
 10
-40.48586584209999
 20
7.4077756946
 10
-40.4788220657
 20
7.408521086499999
 10
-40.4717689949
 20
7.409229895299999
 10
-40.46470726939999
 20
7.4099021439
 10
-40.4576375288
 20
7.4105378551
 10
-40.4505604126
 20
7.411137051699999
 10
-40.4434765604
 20
7.4116997565
 10
-40.4363866117
 20
7.412225992399999
 10
-40.4292912062
 20
7.4127157821
 10
-40.4221909835
 20
7.413169148599999
 10
-40.415086583
 20
7.4135861146
 10
-40.40797864449999
 20
7.413966702899999
 10
-40.4008678074
 20
7.414310936399999
 10
-40.39375471129999
 20
7.414618837899999
 10
-40.3866399959
 20
7.414890430199999
 10
-40.37952430059999
 20
7.4151257362
 10
-40.3724082652
 20
7.4153247786
 10
-40.365292529
 20
7.415487580299999
 10
-40.35817773189999
 20
7.415614164099999
 10
-40.35106451319999
 20
7.415704552899999
 10
-40.3439535126
 20
7.4157587694
 10
-40.3368453697
 20
7.4157768365
  0
LINE
  5
BF
330
6D9
100
AcDbEntity
  8
SK1
  6
Continuous
100
AcDbLine
 10
-40.3368453697
 20
6.708670055299999
 30
0.0
 11
-2.126794919199999
 21
6.708670055299999
 31
0.0
  0
LINE
  5
C0
330
6D9
100
AcDbEntity
  8
SK1
  6
Continuous
100
AcDbLine
 10
-2.126794919199999
 20
6.708670055299999
 30
0.0
 11
-1.566987298099999
 21
6.602469179799999
 31
0.0
  0
LINE
  5
C1
330
6D9
100
AcDbEntity
  8
SK1
  6
Continuous
100
AcDbLine
 10
-1.566987298099999
 20
6.602469179799999
 30
0.0
 11
-0.4
 21
6.602469179799999
 31
0.0
  0
LWPOLYLINE
  5
C2
330
6D9
100
AcDbEntity
  8
SK1
  6
Continuous
100
AcDbPolyline
 90
       41
 70
     0
 43
0.0
 10
-0.4
 20
6.602469179799999
 10
-0.3842156840999999
 20
6.6026971207
 10
-0.3684794767
 20
6.6033766463
 10
-0.3528120911999999
 20
6.604501311199999
 10
-0.3372342409
 20
6.6060646698
 10
-0.3217666389
 20
6.608060276499999
 10
-0.3064299987
 20
6.610481685899999
 10
-0.2912450334
 20
6.6133224524
 10
-0.2762324563
 20
6.616576130499999
 10
-0.2614129807
 20
6.620236274699999
 10
-0.2468073198
 20
6.624296439400001
 10
-0.2324361871
 20
6.628750179099999
 10
-0.2183202956
 20
6.6335910483
 10
-0.2044803587
 20
6.638812601499999
 10
-0.1909370896
 20
6.644408393099999
 10
-0.1777112017
 20
6.650371977699999
 10
-0.1648234082
 20
6.6566969096
 10
-0.1522944223
 20
6.6633767434
 10
-0.1401449574
 20
6.670405033499999
 10
-0.1283957267
 20
6.6777753344
 10
-0.1170674435
 20
6.685481200599999
 10
-0.1061911127
 20
6.6935080007
 10
-0.0957898888
 20
6.701835206699999
 10
-0.0858727096
 20
6.7104475275
 10
-0.0764485124
 20
6.719329672399999
 10
-0.0675262349
 20
6.728466350499999
 10
-0.0591148148
 20
6.737842270999999
 10
-0.0512231896
 20
6.747442142899999
 10
-0.0438602968
 20
6.757250675599999
 10
-0.0370350741
 20
6.767252577999999
 10
-0.0307564591
 20
6.777432559299999
 10
-0.0250333893
 20
6.787775328799999
 10
-0.0198748024
 20
6.798265595499999
 10
-0.0152896359
 20
6.808888068599999
 10
-0.0112868274
 20
6.8196274572
 10
-0.0078753145
 20
6.830468470399999
 10
-0.0050640349
 20
6.841395817599999
 10
-0.002861926
 20
6.852394207599999
 10
-0.0012779255
 20
6.8634483498
 10
-0.000320971
 20
6.8745429533
 10
0.0
 20
6.8856627272
  0
ARC
  5
C3
330
6D9
100
AcDbEntity
  8
1
  6
Continuous
100
AcDbCircle
 10
0.2496049457
 20
7.641515942799999
 30
0.0
 40
0.2498789742676999
100
AcDbArc
 50
122.0086460217
 51
177.3164455018999
  0
LINE
  5
C4
330
6D9
100
AcDbEntity
  8
1
  6
Continuous
100
AcDbLine
 10
0.1171572875
 20
7.8534053471
 30
0.0
 11
0.8828427125000001
 21
8.3952977809
 31
0.0
  0
ARC
  5
C5
330
6D9
100
AcDbEntity
  8
1
  6
Continuous
100
AcDbCircle
 10
1.157406129399999
 20
7.9825444485
 30
0.0
 40
0.4957321688912898
100
AcDbArc
 50
89.04305030059999
 51
123.6318412799
  0
LINE
  5
C6
330
6D9
100
AcDbEntity
  8
1
  6
Continuous
100
AcDbLine
 10
1.165685424899999
 20
8.478207475699999
 30
0.0
 11
2.8343145751
 21
8.478207475699999
 31
0.0
  0
ARC
  5
C7
330
6D9
100
AcDbEntity
  8
1
  6
Continuous
100
AcDbCircle
 10
2.8425990354
 20
7.9825620679
 30
0.0
 40
0.4957146382995323
100
AcDbArc
 50
56.3675278378
 51
90.95758058139999
  0
LINE
  5
C8
330
6D9
100
AcDbEntity
  8
1
  6
Continuous
100
AcDbLine
 10
3.117157287499999
 20
8.3952977809
 30
0.0
 11
3.9828427125
 21
7.7826285145
 31
0.0
  0
LINE
  5
C9
330
6D9
100
AcDbEntity
  8
1
  6
Continuous
100
AcDbLine
 10
3.9828427125
 20
7.7826285145
 30
0.0
 11
4.0
 21
7.7696991746
 31
0.0
  0
LWPOLYLINE
  5
CA
330
6D9
100
AcDbEntity
  8
SK3
100
AcDbPolyline
 90
      265
 70
     0
 43
0.0
 10
-34.6395566381
 20
3.1642584293
 10
-34.647847292
 20
3.164276446399999
 10
-34.6561417424
 20
3.164330535099999
 10
-34.6644395255
 20
3.1644207518
 10
-34.6727401775
 20
3.164547152599999
 10
-34.6810432342
 20
3.164709793899999
 10
-34.6893482319
 20
3.164908731899999
 10
-34.6976547067
 20
3.165144022799999
 10
-34.7059621945
 20
3.165415723
 10
-34.7142702314
 20
3.1657238886
 10
-34.7225783536
 20
3.166068576
 10
-34.7308860971
 20
3.166449841299999
 10
-34.7391929979
 20
3.166867740899999
 10
-34.7474985922
 20
3.167322331
 10
-34.7558024161
 20
3.167813667799999
 10
-34.7641040056
 20
3.168341807699999
 10
-34.7724028967
 20
3.168906806799999
 10
-34.7806986256
 20
3.169508721499999
 10
-34.7889907283
 20
3.170147608
 10
-34.797278741
 20
3.1708235225
 10
-34.8055621996
 20
3.171536521299999
 10
-34.8138406403
 20
3.172286660699999
 10
-34.8221135991
 20
3.173073996899999
 10
-34.8303806121
 20
3.173898586199999
 10
-34.8386412154
 20
3.1747604848
 10
-34.8468949451
 20
3.1756597491
 10
-34.8551413372
 20
3.1765964351
 10
-34.86337992780001
 20
3.1775705993
 10
-34.871610253
 20
3.1785822979
 10
-34.8798318489
 20
3.179631587099999
 10
-34.8880442515
 20
3.180718523199999
 10
-34.89624699690001
 20
3.1818431624
 10
-34.9044396212
 20
3.183005561
 10
-34.9126216604
 20
3.184205775299999
 10
-34.9207926507
 20
3.185443861499999
 10
-34.9289521281
 20
3.186719875899999
 10
-34.9370996287
 20
3.1880338747
 10
-34.94523468860001
 20
3.1893859142
 10
-34.9533568438
 20
3.190776050699999
 10
-34.9614656304
 20
3.192204340299999
 10
-34.96956058449999
 20
3.1936708394
 10
-34.9776412421
 20
3.1951756043
 10
-34.9857071394
 20
3.1967186911
 10
-34.9937578124
 20
3.1983001562
 10
-35.0017927972
 20
3.199920055699999
 10
-35.0098116299
 20
3.2015784461
 10
-35.0178138465
 20
3.203275383399999
 10
-35.0257989831
 20
3.205010923999999
 10
-35.0337665758
 20
3.2067851241
 10
-35.0417161607
 20
3.20859804
 10
-35.0496472738
 20
3.210449727999999
 10
-35.0575982139
 20
3.212349691
 10
-35.0655464963
 20
3.214293505299999
 10
-35.07348197480001
 20
3.2162793695
 10
-35.0814034727
 20
3.218307598099999
 10
-35.0893098135
 20
3.220378505199999
 10
-35.0971998206
 20
3.222492405299999
 10
-35.10507231760001
 20
3.224649612599999
 10
-35.1129261277
 20
3.226850441399999
 10
-35.1207600746
 20
3.2290952061
 10
-35.1285729816
 20
3.231384221
 10
-35.1363636722
 20
3.2337178004
 10
-35.1441309699
 20
3.236096258599999
 10
-35.151873698
 20
3.238519909899999
 10
-35.1595906801
 20
3.2409890686
 10
-35.1672807396
 20
3.2435040491
 10
-35.1749426999
 20
3.2460651656
 10
-35.1825753845
 20
3.248672732599999
 10
-35.1901776168
 20
3.2513270642
 10
-35.1977482204
 20
3.2540284748
 10
-35.2052860185
 20
3.2567772787
 10
-35.2127898348
 20
3.259573790199999
 10
-35.2202584926
 20
3.262418323699999
 10
-35.2276908154
 20
3.2653111935
 10
-35.2350856266
 20
3.268252713799999
 10
-35.2424417497
 20
3.271243198999999
 10
-35.2497580081
 20
3.274282963399999
 10
-35.2570332253
 20
3.2773723213
 10
-35.26426622480001
 20
3.280511587099999
 10
-35.2714558299
 20
3.283701075
 10
-35.2786008642
 20
3.286941099299999
 10
-35.2857003613
 20
3.290232225899999
 10
-35.2927613152
 20
3.293579639999999
 10
-35.299782792
 20
3.296984740199999
 10
-35.3067614247
 20
3.3004477367
 10
-35.3136938461
 20
3.3039688397
 10
-35.320576689
 20
3.3075482593
 10
-35.3274065863
 20
3.311186205899999
 10
-35.3341801707
 20
3.314882889499999
 10
-35.3408940753
 20
3.3186385204
 10
-35.34754493280001
 20
3.3224533087
 10
-35.35412937610001
 20
3.3263274647
 10
-35.3606440379
 20
3.3302611986
 10
-35.3670855513
 20
3.3342547204
 10
-35.373450549
 20
3.338308240499999
 10
-35.3797356638
 20
3.342421968999999
 10
-35.3859375287
 20
3.3465961161
 10
-35.3920527764
 20
3.350830892099999
 10
-35.3980780398
 20
3.355126507
 10
-35.4040099518
 20
3.359483171099999
 10
-35.4098451452
 20
3.363901094599999
 10
-35.4155802529
 20
3.368380487699999
 10
-35.4212119077
 20
3.3729215606
 10
-35.4267405047
 20
3.3775278185
 10
-35.4321783374
 20
3.3822168323
 10
-35.4375084972
 20
3.386979975
 10
-35.4427241764
 20
3.3918153033
 10
-35.4478185673
 20
3.396720873999999
 10
-35.4527848622
 20
3.4016947437
 10
-35.4576162533
 20
3.406734969199999
 10
-35.4623059331
 20
3.411839606999999
 10
-35.4668470936
 20
3.4170067141
 10
-35.4712329274
 20
3.422234346899999
 10
-35.4754566266
 20
3.4275205622
 10
-35.4795113836
 20
3.4328634168
 10
-35.4833903906
 20
3.4382609673
 10
-35.48708684000001
 20
3.4437112704
 10
-35.490593924
 20
3.4492123829
 10
-35.4939072612
 20
3.4547695385
 10
-35.4970247584
 20
3.460391305199999
 10
-35.4999406514
 20
3.466071578299999
 10
-35.5026491136
 20
3.4718039673
 10
-35.5051443183
 20
3.4775820819
 10
-35.50742043870001
 20
3.483399531499999
 10
-35.5094716481
 20
3.489249925899999
 10
-35.5112921198
 20
3.495126874399999
 10
-35.5128760272
 20
3.501023986899999
 10
-35.5142175434
 20
3.506934872699999
 10
-35.5153108419
 20
3.512853141499999
 10
-35.5161500959
 20
3.5187724029
 10
-35.51674133440001
 20
3.524771680899999
 10
-35.5170757492
 20
3.530775469599999
 10
-35.5171517154
 20
3.536756417499999
 10
-35.5169673282
 20
3.5426622043
 10
-35.5165251886
 20
3.5485617666
 10
-35.515829647
 20
3.5544483094
 10
-35.5148850542
 20
3.560315037799999
 10
-35.5136957606
 20
3.5661551566
 10
-35.512266117
 20
3.5719618711
 10
-35.5106004739
 20
3.577728386099999
 10
-35.5087031819
 20
3.5834479068
 10
-35.5065785915
 20
3.589113638
 10
-35.5042310535
 20
3.594718784999999
 10
-35.5016649183
 20
3.600256552599999
 10
-35.4988851545
 20
3.605719926199999
 10
-35.4958946117
 20
3.6111193243
 10
-35.4926977875
 20
3.616460332299999
 10
-35.4893018295
 20
3.6217409416
 10
-35.4857138854
 20
3.6269591435
 10
-35.4819411029
 20
3.632112929399999
 10
-35.4779906297
 20
3.6372002907
 10
-35.4738696136
 20
3.642219218899999
 10
-35.4695852022
 20
3.647167705199999
 10
-35.4651445433
 20
3.652043741099999
 10
-35.4605547844
 20
3.6568453179
 10
-35.45582307340001
 20
3.661570427
 10
-35.4509565579
 20
3.6662170598
 10
-35.4459623856
 20
3.670783207799999
 10
-35.4408477042
 20
3.6752668622
 10
-35.4356275715
 20
3.679662631299999
 10
-35.4302890052
 20
3.6839897275
 10
-35.4248350997
 20
3.6882492741
 10
-35.4192697089
 20
3.6924417322
 10
-35.41359668630001
 20
3.6965675629
 10
-35.4078198856
 20
3.7006272273
 10
-35.4019431606
 20
3.704621186399999
 10
-35.3959703649
 20
3.708549901499999
 10
-35.3899053522
 20
3.7124138335
 10
-35.3837519762
 20
3.7162134435
 10
-35.3775140905
 20
3.719949192799999
 10
-35.371195549
 20
3.7236215423
 10
-35.3648002051
 20
3.727230953199999
 10
-35.3583319127
 20
3.7307778866
 10
-35.3517945254
 20
3.7342628035
 10
-35.345191897
 20
3.737686165099999
 10
-35.3385278809
 20
3.741048432499999
 10
-35.33180633110001
 20
3.7443500667
 10
-35.3250311011
 20
3.747591528999999
 10
-35.3182060447
 20
3.750773280199999
 10
-35.3113350155
 20
3.7538957817
 10
-35.3044302262
 20
3.756955948099999
 10
-35.2974951695
 20
3.759955904299999
 10
-35.2905105047
 20
3.762905810799999
 10
-35.2834774283
 20
3.7658061032
 10
-35.2763971371
 20
3.7686572167
 10
-35.2692708277
 20
3.7714595867
 10
-35.2620996967
 20
3.774213648699999
 10
-35.2548849408
 20
3.776919837999999
 10
-35.2476277567
 20
3.7795785899
 10
-35.240329341
 20
3.7821903398
 10
-35.2329908904
 20
3.784755523099999
 10
-35.2256136015
 20
3.7872745751
 10
-35.2181986711
 20
3.789747931299999
 10
-35.2107472958
 20
3.792176027
 10
-35.2032606721
 20
3.794559297599999
 10
-35.1957399969
 20
3.796898178399999
 10
-35.18818646670001
 20
3.7991931048
 10
-35.1806012782
 20
3.8014445122
 10
-35.1729856281
 20
3.803652835899999
 10
-35.1653407131
 20
3.8058185114
 10
-35.1576677297
 20
3.807941973999999
 10
-35.1499678747
 20
3.810023658999999
 10
-35.1422423447
 20
3.812064001799999
 10
-35.1344923363
 20
3.8140634379
 10
-35.1267190464
 20
3.816022402499999
 10
-35.1189236714
 20
3.8179413311
 10
-35.111107408
 20
3.819820658899999
 10
-35.10327145300001
 20
3.821660821499999
 10
-35.095417003
 20
3.8234622541
 10
-35.0875452546
 20
3.825225392099999
 10
-35.0796574045
 20
3.826950670899999
 10
-35.0717546493
 20
3.828638525899999
 10
-35.0638381858
 20
3.8302893924
 10
-35.0559092105
 20
3.831903705899999
 10
-35.0479689202
 20
3.8334819016
 10
-35.0400185115
 20
3.835024414899999
 10
-35.0320591811
 20
3.836531681299999
 10
-35.0241074829
 20
3.8380012726
 10
-35.0161567416
 20
3.839434740699999
 10
-35.0081892243
 20
3.840835521799999
 10
-35.00020537920001
 20
3.8422036977
 10
-34.9922056545
 20
3.8435393502
 10
-34.9841904986
 20
3.844842561
 10
-34.9761603598
 20
3.8461134117
 10
-34.9681156863
 20
3.847351984299999
 10
-34.9600569264
 20
3.8485583604
 10
-34.9519845284
 20
3.849732621799999
 10
-34.9438989406
 20
3.850874850099999
 10
-34.9358006113
 20
3.8519851273
 10
-34.9276899887
 20
3.853063535
 10
-34.9195675212
 20
3.8541101549
 10
-34.911433657
 20
3.855125068899999
 10
-34.9032888445
 20
3.8561083586
 10
-34.8951335318
 20
3.8570601058
 10
-34.8869681673
 20
3.8579803923
 10
-34.8787931993
 20
3.8588692998
 10
-34.8706090761
 20
3.8597269101
 10
-34.8624162459
 20
3.8605533048
 10
-34.854215157
 20
3.861348565799999
 10
-34.8460062578
 20
3.8621127748
 10
-34.8377899965
 20
3.8628460135
 10
-34.8295668213
 20
3.8635483638
 10
-34.8213371806
 20
3.8642199072
 10
-34.8131015227
 20
3.864860725699999
 10
-34.8048602959
 20
3.865470900899999
 10
-34.7966139483
 20
3.866050514599999
 10
-34.7883629284
 20
3.8665996485
 10
-34.7801076844
 20
3.867118384299999
 10
-34.7718486646
 20
3.867606803899999
 10
-34.7635863172
 20
3.868064988999999
 10
-34.7553210906
 20
3.868493021299999
 10
-34.7470534331
 20
3.868890982599999
 10
-34.7387837929
 20
3.869258954599999
 10
-34.7305126183
 20
3.869597019
 10
-34.7222403576
 20
3.869905257699999
 10
-34.7139674591
 20
3.8701837523
 10
-34.705694371
 20
3.870432584599999
 10
-34.6974215418
 20
3.8706518364
 10
-34.6891494195
 20
3.870841589399999
 10
-34.68087845260001
 20
3.871001925299999
 10
-34.6726090894
 20
3.871132925999999
 10
-34.664341778
 20
3.8712346731
 10
-34.6560769668
 20
3.871307248299999
 10
-34.6478151041
 20
3.871350733599999
 10
-34.6395566381
 20
3.8713652105
  0
LINE
  5
CB
330
6D9
100
AcDbEntity
  8
SK3
100
AcDbLine
 10
-34.6395566381
 20
3.1642584293
 30
0.0
 11
-34.0
 21
3.1642584293
 31
0.0
  0
LINE
  5
CC
330
6D9
100
AcDbEntity
  8
SK3
100
AcDbLine
 10
-34.0
 20
3.1642584293
 30
0.0
 11
-30.8390072762
 21
1.863497014799999
 31
0.0
  0
LINE
  5
CD
330
6D9
100
AcDbEntity
  8
SK3
100
AcDbLine
 10
-30.8390072762
 20
1.863497014799999
 30
0.0
 11
3.610288568299999
 21
1.863497014799999
 31
0.0
  0
LINE
  5
CE
330
6D9
100
AcDbEntity
  8
SK3
100
AcDbLine
 10
4.0
 20
2.731577780699999
 30
0.0
 11
3.610288568299999
 21
2.570603795999999
 31
0.0
  0
LINE
  5
CF
330
6D9
100
AcDbEntity
  8
SK3
100
AcDbLine
 10
-34.6395566381
 20
3.8713652105
 30
0.0
 11
-34.0
 21
3.8713652105
 31
0.0
  0
LINE
  5
D0
330
6D9
100
AcDbEntity
  8
SK3
100
AcDbLine
 10
-34.0
 20
3.8713652105
 30
0.0
 11
-30.8390072762
 21
2.570603795999999
 31
0.0
  0
LINE
  5
D1
330
6D9
100
AcDbEntity
  8
SK3
100
AcDbLine
 10
-30.8390072762
 20
2.570603795999999
 30
0.0
 11
3.610288568299999
 21
2.570603795999999
 31
0.0
  0
LWPOLYLINE
  5
D2
330
6D9
100
AcDbEntity
  8
SK1
  6
Continuous
100
AcDbPolyline
 90
        3
 70
     0
 43
0.0
 10
-40.3368453697
 20
7.4157768365
 10
-39.8557564569
 20
7.0591946511
 10
-39.3658449677
 20
6.708670055299999
  0
LINE
  5
D3
330
6D9
100
AcDbEntity
  8
SK1
  6
Continuous
100
AcDbLine
 10
-40.3368453697
 20
7.4157768365
 30
0.0
 11
-2.126794919199999
 21
7.4157768365
 31
0.0
  0
LINE
  5
D4
330
6D9
100
AcDbEntity
  8
SK1
  6
Continuous
100
AcDbLine
 10
-2.126794919199999
 20
7.4157768365
 30
0.0
 11
-1.566987298099999
 21
7.309575961
 31
0.0
  0
LINE
  5
D5
330
6D9
100
AcDbEntity
  8
SK1
  6
Continuous
100
AcDbLine
 10
-1.566987298099999
 20
7.309575961
 30
0.0
 11
-0.4
 21
7.309575961
 31
0.0
  0
LWPOLYLINE
  5
D6
330
6D9
100
AcDbEntity
  8
SK1
  6
Continuous
100
AcDbPolyline
 90
       41
 70
     0
 43
0.0
 10
-0.4
 20
7.309575961
 10
-0.3842156840999999
 20
7.3098039019
 10
-0.3684794767
 20
7.3104834275
 10
-0.3528120911999999
 20
7.3116080924
 10
-0.3372342409
 20
7.313171451
 10
-0.3217666389
 20
7.3151670577
 10
-0.3064299987
 20
7.3175884671
 10
-0.2912450334
 20
7.3204292336
 10
-0.2762324563
 20
7.323682911699999
 10
-0.2614129807
 20
7.3273430559
 10
-0.2468073198
 20
7.331403220599999
 10
-0.2324361871
 20
7.3358569603
 10
-0.2183202956
 20
7.3406978295
 10
-0.2044803587
 20
7.345919382699999
 10
-0.1909370896
 20
7.351515174299999
 10
-0.1777112017
 20
7.3574787589
 10
-0.1648234082
 20
7.3638036908
 10
-0.1522944223
 20
7.3704835245
 10
-0.1401449574
 20
7.3775118147
 10
-0.1283957267
 20
7.384882115599999
 10
-0.1170674435
 20
7.392587981799999
 10
-0.1061911127
 20
7.4006147819
 10
-0.0957898888
 20
7.408941987799999
 10
-0.0858727096
 20
7.417554308699999
 10
-0.0764485124
 20
7.4264364536
 10
-0.0675262349
 20
7.4355731317
 10
-0.0591148148
 20
7.4449490522
 10
-0.0512231896
 20
7.4545489241
 10
-0.0438602968
 20
7.464357456799999
 10
-0.0370350741
 20
7.474359359199999
 10
-0.0307564591
 20
7.484539340499999
 10
-0.0250333893
 20
7.494882109999999
 10
-0.0198748024
 20
7.505372376699999
 10
-0.0152896359
 20
7.5159948497
 10
-0.0112868274
 20
7.5267342384
 10
-0.0078753145
 20
7.537575251599999
 10
-0.0050640349
 20
7.548502598699999
 10
-0.002861926
 20
7.559500988799999
 10
-0.0012779255
 20
7.570555130999999
 10
-0.000320971
 20
7.5816497345
 10
0.0
 20
7.592769508399999
  0
LINE
  5
D7
330
6D9
100
AcDbEntity
  8
1
  6
Continuous
100
AcDbLine
 10
0.0
 20
7.6532152112
 30
0.0
 11
0.0
 21
8.360321992399999
 31
0.0
  0
ARC
  5
D8
330
6D9
100
AcDbEntity
  8
1
  6
Continuous
100
AcDbCircle
 10
0.2496049457
 20
8.348622724
 30
0.0
 40
0.2498789742676987
100
AcDbArc
 50
122.0086460217
 51
177.3164455018999
  0
LINE
  5
D9
330
6D9
100
AcDbEntity
  8
1
  6
Continuous
100
AcDbLine
 10
0.1171572875
 20
8.5605121282
 30
0.0
 11
0.8828427125000001
 21
9.1024045621
 31
0.0
  0
ARC
  5
DA
330
6D9
100
AcDbEntity
  8
1
  6
Continuous
100
AcDbCircle
 10
1.157406129399999
 20
8.6896512297
 30
0.0
 40
0.4957321688912967
100
AcDbArc
 50
89.04305030059999
 51
123.6318412799
  0
LINE
  5
DB
330
6D9
100
AcDbEntity
  8
1
  6
Continuous
100
AcDbLine
 10
1.165685424899999
 20
9.185314256899999
 30
0.0
 11
2.8343145751
 21
9.185314256899999
 31
0.0
  0
ARC
  5
DC
330
6D9
100
AcDbEntity
  8
1
  6
Continuous
100
AcDbCircle
 10
2.8425990354
 20
8.6896688491
 30
0.0
 40
0.4957146382995203
100
AcDbArc
 50
56.3675278378
 51
90.95758058139999
  0
LINE
  5
DD
330
6D9
100
AcDbEntity
  8
1
  6
Continuous
100
AcDbLine
 10
3.117157287499999
 20
9.1024045621
 30
0.0
 11
3.9828427125
 21
8.4897352957
 31
0.0
  0
LINE
  5
DE
330
6D9
100
AcDbEntity
  8
1
  6
Continuous
100
AcDbLine
 10
3.9828427125
 20
8.4897352957
 30
0.0
 11
4.0
 21
8.476805955699999
 31
0.0
  0
LINE
  5
DF
330
6D9
100
AcDbEntity
  8
1
  6
Continuous
100
AcDbLine
 10
4.0
 20
8.476805955699999
 30
0.0
 11
4.0
 21
7.7696991746
 31
0.0
  0
LINE
  5
E0
330
6D9
100
AcDbEntity
  8
SK3
100
AcDbLine
 10
-34.0
 20
3.8713652105
 30
0.0
 11
-34.0
 21
5.0
 31
0.0
  0
LINE
  5
E1
330
6D9
100
AcDbEntity
  8
1
  6
Continuous
100
AcDbLine
 10
3.117157287499999
 20
9.1024045621
 30
0.0
 11
3.117157287499999
 21
12.3828427125
 31
0.0
  0
LINE
  5
E2
330
6D9
100
AcDbEntity
  8
1
  6
Continuous
100
AcDbLine
 10
1.165685424899999
 20
9.185314256899999
 30
0.0
 11
1.165685424899999
 21
12.5
 31
0.0
  0
LINE
  5
E3
330
6D9
100
AcDbEntity
  8
1
  6
Continuous
100
AcDbLine
 10
0.1171572875
 20
8.5605121282
 30
0.0
 11
0.1171572875
 21
11.6171572875
 31
0.0
  0
LINE
  5
E4
330
6D9
100
AcDbEntity
  8
SK1
  6
Continuous
100
AcDbLine
 10
-2.126794919199999
 20
7.4157768365
 30
0.0
 11
-2.126794919199999
 21
10.0
 31
0.0
  0
LINE
  5
E5
330
6D9
100
AcDbEntity
  8
SK3
100
AcDbLine
 10
-30.8390072762
 20
-3.174999999999999
 30
0.0
 11
-30.8390072762
 21
-2.570603795999999
 31
0.0
  0
LINE
  5
E6
330
6D9
100
AcDbEntity
  8
SK3
100
AcDbLine
 10
3.610288568299999
 20
-3.174999999999999
 30
0.0
 11
3.610288568299999
 21
-2.570603795999999
 31
0.0
  0
LINE
  5
E7
330
6D9
100
AcDbEntity
  8
1
  6
Continuous
100
AcDbLine
 10
4.0
 20
-11.4988897062
 30
0.0
 11
4.0
 21
-8.476805955699999
 31
0.0
  0
LINE
  5
E8
330
6D9
100
AcDbEntity
  8
1
  6
Continuous
100
AcDbLine
 10
3.9828427125
 20
-8.4897352957
 30
0.0
 11
3.9828427125
 21
-11.5171572875
 31
0.0
  0
LINE
  5
E9
330
6D9
100
AcDbEntity
  8
1
  6
Continuous
100
AcDbLine
 10
2.8343145751
 20
-12.5
 30
0.0
 11
2.8343145751
 21
-9.185314256899999
 31
0.0
  0
LINE
  5
EA
330
6D9
100
AcDbEntity
  8
1
  6
Continuous
100
AcDbLine
 10
0.8828427125000001
 20
-12.3828427125
 30
0.0
 11
0.8828427125000001
 21
-9.1024045621
 31
0.0
  0
LINE
  5
EB
330
6D9
100
AcDbEntity
  8
1
  6
Continuous
100
AcDbLine
 10
0.0
 20
-11.3343145751
 30
0.0
 11
0.0
 21
-8.360321992399999
 31
0.0
  0
LINE
  5
EC
330
6D9
100
AcDbEntity
  8
SK1
  6
Continuous
100
AcDbLine
 10
-0.4
 20
-7.309575961
 30
0.0
 11
-0.4
 21
-9.849999999999999
 31
0.0
  0
LINE
  5
ED
330
6D9
100
AcDbEntity
  8
SK1
  6
Continuous
100
AcDbLine
 10
-1.566987298099999
 20
-7.309575961
 30
0.0
 11
-1.566987298099999
 21
-9.849999999999999
 31
0.0
  0
LINE
  5
EE
330
6D9
100
AcDbEntity
  8
SK3
100
AcDbLine
 10
-34.0
 20
-3.8713652105
 30
0.0
 11
-34.0
 21
-5.0
 31
0.0
  0
LINE
  5
EF
330
6D9
100
AcDbEntity
  8
SK3
100
AcDbLine
 10
-30.8390072762
 20
-1.863497014799999
 30
0.0
 11
-30.8390072762
 21
1.863497014799999
 31
0.0
  0
LINE
  5
F0
330
6D9
100
AcDbEntity
  8
SK3
100
AcDbLine
 10
3.610288568299999
 20
-1.863497014799999
 30
0.0
 11
3.610288568299999
 21
1.863497014799999
 31
0.0
  0
LINE
  5
F1
330
6D9
100
AcDbEntity
  8
1
  6
Continuous
100
AcDbLine
 10
4.0
 20
-7.7696991746
 30
0.0
 11
4.0
 21
7.7696991746
 31
0.0
  0
LINE
  5
F2
330
6D9
100
AcDbEntity
  8
1
  6
Continuous
100
AcDbLine
 10
3.9828427125
 20
-7.7826285145
 30
0.0
 11
3.9828427125
 21
7.7826285145
 31
0.0
  0
LINE
  5
F3
330
6D9
100
AcDbEntity
  8
1
  6
Continuous
100
AcDbLine
 10
3.117157287499999
 20
-9.1024045621
 30
0.0
 11
3.117157287499999
 21
-12.3828427125
 31
0.0
  0
LINE
  5
F4
330
6D9
100
AcDbEntity
  8
1
  6
Continuous
100
AcDbLine
 10
2.8343145751
 20
-8.478207475699999
 30
0.0
 11
2.8343145751
 21
8.478207475699999
 31
0.0
  0
LINE
  5
F5
330
6D9
100
AcDbEntity
  8
1
  6
Continuous
100
AcDbLine
 10
1.165685424899999
 20
-9.185314256899999
 30
0.0
 11
1.165685424899999
 21
-12.5
 31
0.0
  0
LINE
  5
F6
330
6D9
100
AcDbEntity
  8
1
  6
Continuous
100
AcDbLine
 10
0.8828427125000001
 20
-8.3952977809
 30
0.0
 11
0.8828427125000001
 21
8.3952977809
 31
0.0
  0
LINE
  5
F7
330
6D9
100
AcDbEntity
  8
1
  6
Continuous
100
AcDbLine
 10
0.1171572875
 20
-8.5605121282
 30
0.0
 11
0.1171572875
 21
-11.6171572875
 31
0.0
  0
LINE
  5
F8
330
6D9
100
AcDbEntity
  8
1
  6
Continuous
100
AcDbLine
 10
0.0
 20
-7.6532152112
 30
0.0
 11
0.0
 21
7.6532152112
 31
0.0
  0
LINE
  5
F9
330
6D9
100
AcDbEntity
  8
SK1
  6
Continuous
100
AcDbLine
 10
-1.566987298099999
 20
-6.602469179799999
 30
0.0
 11
-1.566987298099999
 21
6.602469179799999
 31
0.0
  0
LINE
  5
FA
330
6D9
100
AcDbEntity
  8
SK1
  6
Continuous
100
AcDbLine
 10
-2.126794919199999
 20
-7.4157768365
 30
0.0
 11
-2.126794919199999
 21
-10.0
 31
0.0
  0
LINE
  5
FB
330
6D9
100
AcDbEntity
  8
SK3
100
AcDbLine
 10
-34.6395566381
 20
-3.1642584293
 30
0.0
 11
-34.0
 21
-3.1642584293
 31
0.0
  0
LINE
  5
FC
330
6D9
100
AcDbEntity
  8
SK3
100
AcDbLine
 10
-34.0
 20
-3.1642584293
 30
0.0
 11
-30.8390072762
 21
-1.863497014799999
 31
0.0
  0
LINE
  5
FD
330
6D9
100
AcDbEntity
  8
SK3
100
AcDbLine
 10
-30.8390072762
 20
-1.863497014799999
 30
0.0
 11
3.610288568299999
 21
-1.863497014799999
 31
0.0
  0
LINE
  5
FE
330
6D9
100
AcDbEntity
  8
SK3
100
AcDbLine
 10
4.0
 20
-2.0244709995
 30
0.0
 11
3.610288568299999
 21
-1.863497014799999
 31
0.0
  0
LINE
  5
FF
330
6D9
100
AcDbEntity
  8
1
  6
Continuous
100
AcDbLine
 10
3.9828427125
 20
-7.7826285145
 30
0.0
 11
4.0
 21
-7.7696991746
 31
0.0
  0
LINE
  5
100
330
6D9
100
AcDbEntity
  8
1
  6
Continuous
100
AcDbLine
 10
3.117157287499999
 20
-8.3952977809
 30
0.0
 11
3.9828427125
 21
-7.7826285145
 31
0.0
  0
ARC
  5
101
330
6D9
100
AcDbEntity
  8
1
  6
Continuous
100
AcDbCircle
 10
2.8425990354
 20
-7.9825620679
 30
0.0
 40
0.4957146382995262
100
AcDbArc
 50
269.0424194186
 51
303.6324721622
  0
LINE
  5
102
330
6D9
100
AcDbEntity
  8
1
  6
Continuous
100
AcDbLine
 10
1.165685424899999
 20
-8.478207475699999
 30
0.0
 11
2.8343145751
 21
-8.478207475699999
 31
0.0
  0
ARC
  5
103
330
6D9
100
AcDbEntity
  8
1
  6
Continuous
100
AcDbCircle
 10
1.157406129399999
 20
-7.9825444485
 30
0.0
 40
0.4957321688912903
100
AcDbArc
 50
236.3681587200999
 51
270.9569496994
  0
LINE
  5
104
330
6D9
100
AcDbEntity
  8
1
  6
Continuous
100
AcDbLine
 10
0.1171572875
 20
-7.8534053471
 30
0.0
 11
0.8828427125000001
 21
-8.3952977809
 31
0.0
  0
ARC
  5
105
330
6D9
100
AcDbEntity
  8
1
  6
Continuous
100
AcDbCircle
 10
0.2496049457
 20
-7.641515942799999
 30
0.0
 40
0.2498789742676988
100
AcDbArc
 50
182.6835544981
 51
237.9913539783
  0
LWPOLYLINE
  5
106
330
6D9
100
AcDbEntity
  8
SK1
  6
Continuous
100
AcDbPolyline
 90
       41
 70
     0
 43
0.0
 10
-0.4
 20
-6.602469179799999
 10
-0.3842156840999999
 20
-6.6026971207
 10
-0.3684794767
 20
-6.6033766463
 10
-0.3528120911999999
 20
-6.604501311199999
 10
-0.3372342409
 20
-6.6060646698
 10
-0.3217666389
 20
-6.608060276499999
 10
-0.3064299987
 20
-6.610481685899999
 10
-0.2912450334
 20
-6.6133224524
 10
-0.2762324563
 20
-6.616576130499999
 10
-0.2614129807
 20
-6.620236274699999
 10
-0.2468073198
 20
-6.624296439400001
 10
-0.2324361871
 20
-6.628750179099999
 10
-0.2183202956
 20
-6.6335910483
 10
-0.2044803587
 20
-6.638812601499999
 10
-0.1909370896
 20
-6.644408393099999
 10
-0.1777112017
 20
-6.650371977699999
 10
-0.1648234082
 20
-6.6566969096
 10
-0.1522944223
 20
-6.6633767434
 10
-0.1401449574
 20
-6.670405033499999
 10
-0.1283957267
 20
-6.6777753344
 10
-0.1170674435
 20
-6.685481200599999
 10
-0.1061911127
 20
-6.6935080007
 10
-0.0957898888
 20
-6.701835206699999
 10
-0.0858727096
 20
-6.7104475275
 10
-0.0764485124
 20
-6.719329672399999
 10
-0.0675262349
 20
-6.728466350499999
 10
-0.0591148148
 20
-6.737842270999999
 10
-0.0512231896
 20
-6.747442142899999
 10
-0.0438602968
 20
-6.757250675599999
 10
-0.0370350741
 20
-6.767252577999999
 10
-0.0307564591
 20
-6.777432559299999
 10
-0.0250333893
 20
-6.787775328799999
 10
-0.0198748024
 20
-6.798265595499999
 10
-0.0152896359
 20
-6.808888068599999
 10
-0.0112868274
 20
-6.8196274572
 10
-0.0078753145
 20
-6.830468470399999
 10
-0.0050640349
 20
-6.841395817599999
 10
-0.002861926
 20
-6.852394207599999
 10
-0.0012779255
 20
-6.8634483498
 10
-0.000320971
 20
-6.8745429533
 10
0.0
 20
-6.8856627272
  0
LINE
  5
107
330
6D9
100
AcDbEntity
  8
SK1
  6
Continuous
100
AcDbLine
 10
-1.566987298099999
 20
-6.602469179799999
 30
0.0
 11
-0.4
 21
-6.602469179799999
 31
0.0
  0
LINE
  5
108
330
6D9
100
AcDbEntity
  8
SK1
  6
Continuous
100
AcDbLine
 10
-2.126794919199999
 20
-6.708670055299999
 30
0.0
 11
-1.566987298099999
 21
-6.602469179799999
 31
0.0
  0
LINE
  5
109
330
6D9
100
AcDbEntity
  8
SK1
  6
Continuous
100
AcDbLine
 10
-40.3368453697
 20
-6.708670055299999
 30
0.0
 11
-2.126794919199999
 21
-6.708670055299999
 31
0.0
  0
LINE
  5
10A
330
6D9
100
AcDbEntity
  8
SK1
  6
Continuous
100
AcDbLine
 10
-40.3368453697
 20
-7.4157768365
 30
0.0
 11
-2.126794919199999
 21
-7.4157768365
 31
0.0
  0
LINE
  5
10B
330
6D9
100
AcDbEntity
  8
SK1
  6
Continuous
100
AcDbLine
 10
-2.126794919199999
 20
-7.4157768365
 30
0.0
 11
-1.566987298099999
 21
-7.309575961
 31
0.0
  0
LINE
  5
10C
330
6D9
100
AcDbEntity
  8
SK1
  6
Continuous
100
AcDbLine
 10
-1.566987298099999
 20
-7.309575961
 30
0.0
 11
-0.4
 21
-7.309575961
 31
0.0
  0
LWPOLYLINE
  5
10D
330
6D9
100
AcDbEntity
  8
SK1
  6
Continuous
100
AcDbPolyline
 90
       41
 70
     0
 43
0.0
 10
-0.4
 20
-7.309575961
 10
-0.3842156840999999
 20
-7.3098039019
 10
-0.3684794767
 20
-7.3104834275
 10
-0.3528120911999999
 20
-7.3116080924
 10
-0.3372342409
 20
-7.313171451
 10
-0.3217666389
 20
-7.3151670577
 10
-0.3064299987
 20
-7.3175884671
 10
-0.2912450334
 20
-7.3204292336
 10
-0.2762324563
 20
-7.323682911699999
 10
-0.2614129807
 20
-7.3273430559
 10
-0.2468073198
 20
-7.331403220599999
 10
-0.2324361871
 20
-7.3358569603
 10
-0.2183202956
 20
-7.3406978295
 10
-0.2044803587
 20
-7.345919382699999
 10
-0.1909370896
 20
-7.351515174299999
 10
-0.1777112017
 20
-7.3574787589
 10
-0.1648234082
 20
-7.3638036908
 10
-0.1522944223
 20
-7.3704835245
 10
-0.1401449574
 20
-7.3775118147
 10
-0.1283957267
 20
-7.384882115599999
 10
-0.1170674435
 20
-7.392587981799999
 10
-0.1061911127
 20
-7.4006147819
 10
-0.0957898888
 20
-7.408941987799999
 10
-0.0858727096
 20
-7.417554308699999
 10
-0.0764485124
 20
-7.4264364536
 10
-0.0675262349
 20
-7.4355731317
 10
-0.0591148148
 20
-7.4449490522
 10
-0.0512231896
 20
-7.4545489241
 10
-0.0438602968
 20
-7.464357456799999
 10
-0.0370350741
 20
-7.474359359199999
 10
-0.0307564591
 20
-7.484539340499999
 10
-0.0250333893
 20
-7.494882109999999
 10
-0.0198748024
 20
-7.505372376699999
 10
-0.0152896359
 20
-7.5159948497
 10
-0.0112868274
 20
-7.5267342384
 10
-0.0078753145
 20
-7.537575251599999
 10
-0.0050640349
 20
-7.548502598699999
 10
-0.002861926
 20
-7.559500988799999
 10
-0.0012779255
 20
-7.570555130999999
 10
-0.000320971
 20
-7.5816497345
 10
0.0
 20
-7.592769508399999
  0
LINE
  5
10E
330
6D9
100
AcDbEntity
  8
1
  6
Continuous
100
AcDbLine
 10
0.0
 20
-7.6532152112
 30
0.0
 11
0.0
 21
-8.360321992399999
 31
0.0
  0
ARC
  5
10F
330
6D9
100
AcDbEntity
  8
1
  6
Continuous
100
AcDbCircle
 10
0.2496049457
 20
-8.348622724
 30
0.0
 40
0.2498789742676988
100
AcDbArc
 50
182.6835544981
 51
237.9913539783
  0
LINE
  5
110
330
6D9
100
AcDbEntity
  8
1
  6
Continuous
100
AcDbLine
 10
0.1171572875
 20
-8.5605121282
 30
0.0
 11
0.8828427125000001
 21
-9.1024045621
 31
0.0
  0
ARC
  5
111
330
6D9
100
AcDbEntity
  8
1
  6
Continuous
100
AcDbCircle
 10
1.157406129399999
 20
-8.6896512297
 30
0.0
 40
0.4957321688912902
100
AcDbArc
 50
236.3681587200999
 51
270.9569496994
  0
LINE
  5
112
330
6D9
100
AcDbEntity
  8
1
  6
Continuous
100
AcDbLine
 10
1.165685424899999
 20
-9.185314256899999
 30
0.0
 11
2.8343145751
 21
-9.185314256899999
 31
0.0
  0
ARC
  5
113
330
6D9
100
AcDbEntity
  8
1
  6
Continuous
100
AcDbCircle
 10
2.8425990354
 20
-8.6896688491
 30
0.0
 40
0.4957146382995262
100
AcDbArc
 50
269.0424194186
 51
303.6324721622
  0
LINE
  5
114
330
6D9
100
AcDbEntity
  8
1
  6
Continuous
100
AcDbLine
 10
3.117157287499999
 20
-9.1024045621
 30
0.0
 11
3.9828427125
 21
-8.4897352957
 31
0.0
  0
LINE
  5
115
330
6D9
100
AcDbEntity
  8
1
  6
Continuous
100
AcDbLine
 10
3.9828427125
 20
-8.4897352957
 30
0.0
 11
4.0
 21
-8.476805955699999
 31
0.0
  0
LINE
  5
116
330
6D9
100
AcDbEntity
  8
1
  6
Continuous
100
AcDbLine
 10
4.0
 20
-8.476805955699999
 30
0.0
 11
4.0
 21
-7.7696991746
 31
0.0
  0
LINE
  5
117
330
6D9
100
AcDbEntity
  8
SK3
100
AcDbLine
 10
4.0
 20
-2.731577780699999
 30
0.0
 11
3.610288568299999
 21
-2.570603795999999
 31
0.0
  0
LINE
  5
118
330
6D9
100
AcDbEntity
  8
SK3
100
AcDbLine
 10
-30.8390072762
 20
-2.570603795999999
 30
0.0
 11
3.610288568299999
 21
-2.570603795999999
 31
0.0
  0
LINE
  5
119
330
6D9
100
AcDbEntity
  8
SK3
100
AcDbLine
 10
-34.0
 20
-3.8713652105
 30
0.0
 11
-30.8390072762
 21
-2.570603795999999
 31
0.0
  0
LINE
  5
11A
330
6D9
100
AcDbEntity
  8
SK3
100
AcDbLine
 10
-34.6395566381
 20
-3.8713652105
 30
0.0
 11
-34.0
 21
-3.8713652105
 31
0.0
  0
LWPOLYLINE
  5
11B
330
6D9
100
AcDbEntity
  8
SK1
  6
Continuous
100
AcDbPolyline
 90
        3
 70
     0
 43
0.0
 10
-39.3658449677
 20
-6.708670055299999
 10
-39.8557564569
 20
-7.0591946511
 10
-40.3368453697
 20
-7.4157768365
  0
LWPOLYLINE
  5
11C
330
6D9
100
AcDbEntity
  8
SK3
100
AcDbPolyline
 90
      265
 70
     0
 43
0.0
 10
-34.6395566381
 20
-3.8713652105
 10
-34.647847292
 20
-3.871350677099999
 10
-34.6561417424
 20
-3.8713070154
 10
-34.6644395255
 20
-3.871234133
 10
-34.6727401775
 20
-3.871131937599999
 10
-34.6810432342
 20
-3.871000336999999
 10
-34.6893482319
 20
-3.8708392386
 10
-34.6976547067
 20
-3.870648550199999
 10
-34.7059621945
 20
-3.870428179599999
 10
-34.7142702314
 20
-3.8701780342
 10
-34.7225783536
 20
-3.8698980218
 10
-34.7308860971
 20
-3.869588050099999
 10
-34.7391929979
 20
-3.8692480267
 10
-34.7474985922
 20
-3.868877859299999
 10
-34.7558024161
 20
-3.8684774555
 10
-34.7641040056
 20
-3.868046723099999
 10
-34.7724028967
 20
-3.867585569599999
 10
-34.7806986256
 20
-3.867093902799999
 10
-34.7889907283
 20
-3.866571630299999
 10
-34.797278741
 20
-3.8660186597
 10
-34.8055621996
 20
-3.865434898799999
 10
-34.8138406403
 20
-3.864820255199999
 10
-34.8221135991
 20
-3.864174636599999
 10
-34.8303806121
 20
-3.8634979506
 10
-34.8386412154
 20
-3.8627901049
 10
-34.8468949451
 20
-3.862051007099999
 10
-34.8551413372
 20
-3.861280564999999
 10
-34.86337992780001
 20
-3.8604786861
 10
-34.871610253
 20
-3.8596452782
 10
-34.8798318489
 20
-3.8587802489
 10
-34.8880442515
 20
-3.857883505899999
 10
-34.89624699690001
 20
-3.8569549569
 10
-34.9044396212
 20
-3.855994509399999
 10
-34.9126216604
 20
-3.855002071199999
 10
-34.9207926507
 20
-3.85397755
 10
-34.9289521281
 20
-3.852920853399999
 10
-34.9370996287
 20
-3.851831888999999
 10
-34.94523468860001
 20
-3.850710564599999
 10
-34.9533568438
 20
-3.849556787699999
 10
-34.9614656304
 20
-3.8483704661
 10
-34.96956058449999
 20
-3.847151507499999
 10
-34.9776412421
 20
-3.845899819399999
 10
-34.9857071394
 20
-3.844615309599999
 10
-34.9937578124
 20
-3.843297885699999
 10
-35.0017927972
 20
-3.8419474554
 10
-35.0098116299
 20
-3.840563926299999
 10
-35.0178138465
 20
-3.839147206199999
 10
-35.0257989831
 20
-3.837697202599999
 10
-35.0337665758
 20
-3.836213823199999
 10
-35.0417161607
 20
-3.8346969758
 10
-35.0496472738
 20
-3.8331465679
 10
-35.0575982139
 20
-3.8315545526
 10
-35.0655464963
 20
-3.8299244368
 10
-35.07348197480001
 20
-3.8282575549
 10
-35.0814034727
 20
-3.8265534707
 10
-35.0893098135
 20
-3.824811748
 10
-35.0971998206
 20
-3.823031950799999
 10
-35.10507231760001
 20
-3.821213642699999
 10
-35.1129261277
 20
-3.819356387699999
 10
-35.1207600746
 20
-3.817459749599999
 10
-35.1285729816
 20
-3.8155232922
 10
-35.1363636722
 20
-3.8135465794
 10
-35.1441309699
 20
-3.811529175
 10
-35.151873698
 20
-3.809470642799999
 10
-35.1595906801
 20
-3.807370546699999
 10
-35.1672807396
 20
-3.805228450499999
 10
-35.1749426999
 20
-3.8030439181
 10
-35.1825753845
 20
-3.8008165133
 10
-35.1901776168
 20
-3.7985457999
 10
-35.1977482204
 20
-3.796231341799999
 10
-35.2052860185
 20
-3.793872702699999
 10
-35.2127898348
 20
-3.7914694466
 10
-35.2202584926
 20
-3.7890211373
 10
-35.2276908154
 20
-3.7865273386
 10
-35.2350856266
 20
-3.783987614399999
 10
-35.2424417497
 20
-3.781401528399999
 10
-35.2497580081
 20
-3.778768644599999
 10
-35.2570332253
 20
-3.7760885267
 10
-35.26426622480001
 20
-3.7733607387
 10
-35.2714558299
 20
-3.7705848442
 10
-35.2786008642
 20
-3.7677604073
 10
-35.2857003613
 20
-3.7648867586
 10
-35.2927613152
 20
-3.7619590622
 10
-35.299782792
 20
-3.758975728699999
 10
-35.3067614247
 20
-3.7559362076
 10
-35.3136938461
 20
-3.752839948299999
 10
-35.320576689
 20
-3.749686400199999
 10
-35.3274065863
 20
-3.746475013099999
 10
-35.3341801707
 20
-3.7432052362
 10
-35.3408940753
 20
-3.7398765191
 10
-35.34754493280001
 20
-3.7364883113
 10
-35.35412937610001
 20
-3.7330400623
 10
-35.3606440379
 20
-3.7295312216
 10
-35.3670855513
 20
-3.7259612387
 10
-35.373450549
 20
-3.722329563
 10
-35.3797356638
 20
-3.7186356441
 10
-35.3859375287
 20
-3.714878931499999
 10
-35.3920527764
 20
-3.711058874599999
 10
-35.3980780398
 20
-3.707174923
 10
-35.4040099518
 20
-3.7032265261
 10
-35.4098451452
 20
-3.6992131335
 10
-35.4155802529
 20
-3.6951341945
 10
-35.4212119077
 20
-3.690989158799999
 10
-35.4267405047
 20
-3.686774445299999
 10
-35.4321783374
 20
-3.682473160099999
 10
-35.4375084972
 20
-3.678092515699999
 10
-35.4427241764
 20
-3.673633783399999
 10
-35.4478185673
 20
-3.669098234399999
 10
-35.4527848622
 20
-3.6644871399
 10
-35.4576162533
 20
-3.6598017712
 10
-35.4623059331
 20
-3.655043399499999
 10
-35.4668470936
 20
-3.6502132961
 10
-35.4712329274
 20
-3.645312732099999
 10
-35.4754566266
 20
-3.6403429787
 10
-35.4795113836
 20
-3.6353053073
 10
-35.4833903906
 20
-3.630200988999999
 10
-35.48708684000001
 20
-3.625031294999999
 10
-35.490593924
 20
-3.6197974966
 10
-35.4939072612
 20
-3.6144938276
 10
-35.4970247584
 20
-3.609111336
 10
-35.4999406514
 20
-3.603655560099999
 10
-35.5026491136
 20
-3.5981323214
 10
-35.5051443183
 20
-3.5925474412
 10
-35.50742043870001
 20
-3.586906741
 10
-35.5094716481
 20
-3.581216042099999
 10
-35.5112921198
 20
-3.5754811661
 10
-35.5128760272
 20
-3.5697079342
 10
-35.5142175434
 20
-3.563902168
 10
-35.5153108419
 20
-3.558069688899999
 10
-35.5161500959
 20
-3.552216318199999
 10
-35.51674133440001
 20
-3.5462634557
 10
-35.5170757492
 20
-3.540285934599999
 10
-35.5171517154
 20
-3.534310954199999
 10
-35.5169673282
 20
-3.528390600799999
 10
-35.5165251886
 20
-3.522456168799999
 10
-35.515829647
 20
-3.5165148773
 10
-35.5148850542
 20
-3.5105739458
 10
-35.5136957606
 20
-3.5046405935
 10
-35.512266117
 20
-3.4987220397
 10
-35.5106004739
 20
-3.492825503899999
 10
-35.5087031819
 20
-3.486958205199999
 10
-35.5065785915
 20
-3.4811273631
 10
-35.5042310535
 20
-3.4753401967
 10
-35.5016649183
 20
-3.469603925599999
 10
-35.4988851545
 20
-3.4639260462
 10
-35.4958946117
 20
-3.4582965822
 10
-35.4926977875
 20
-3.452710474999999
 10
-35.4893018295
 20
-3.4471704367
 10
-35.4857138854
 20
-3.441679179499999
 10
-35.4819411029
 20
-3.4362394156
 10
-35.4779906297
 20
-3.430853856999999
 10
-35.4738696136
 20
-3.425525215899999
 10
-35.4695852022
 20
-3.420256204399999
 10
-35.4651445433
 20
-3.4150495347
 10
-35.4605547844
 20
-3.4099079188
 10
-35.45582307340001
 20
-3.404834068999999
 10
-35.4509565579
 20
-3.3998306973
 10
-35.4459623856
 20
-3.394900515899999
 10
-35.4408477042
 20
-3.390046236899999
 10
-35.4356275715
 20
-3.385274573799999
 10
-35.4302890052
 20
-3.3805655726
 10
-35.4248350997
 20
-3.375918443299999
 10
-35.4192697089
 20
-3.371333112499999
 10
-35.41359668630001
 20
-3.3668095068
 10
-35.4078198856
 20
-3.3623475529
 10
-35.4019431606
 20
-3.3579471774
 10
-35.3959703649
 20
-3.353608306799999
 10
-35.3899053522
 20
-3.3493308679
 10
-35.3837519762
 20
-3.3451147873
 10
-35.3775140905
 20
-3.3409599916
 10
-35.371195549
 20
-3.3368664074
 10
-35.3648002051
 20
-3.332833961299999
 10
-35.3583319127
 20
-3.32886258
 10
-35.3517945254
 20
-3.324952190099999
 10
-35.345191897
 20
-3.321102718299999
 10
-35.3385278809
 20
-3.3173140911
 10
-35.33180633110001
 20
-3.313586235199999
 10
-35.3250311011
 20
-3.3099190772
 10
-35.3182060447
 20
-3.306312543799999
 10
-35.3113350155
 20
-3.302766561499999
 10
-35.3044302262
 20
-3.2992851122
 10
-35.2974951695
 20
-3.2958664018
 10
-35.2905105047
 20
-3.2924991486
 10
-35.2834774283
 20
-3.289183040899999
 10
-35.2763971371
 20
-3.285917766799999
 10
-35.2692708277
 20
-3.2827030147
 10
-35.2620996967
 20
-3.2795384729
 10
-35.2548849408
 20
-3.276423829499999
 10
-35.2476277567
 20
-3.273358772999999
 10
-35.240329341
 20
-3.270342991399999
 10
-35.2329908904
 20
-3.2673761731
 10
-35.2256136015
 20
-3.264458006399999
 10
-35.2181986711
 20
-3.261588179499999
 10
-35.2107472958
 20
-3.2587663808
 10
-35.2032606721
 20
-3.255992298299999
 10
-35.1957399969
 20
-3.2532656205
 10
-35.18818646670001
 20
-3.2505860356
 10
-35.1806012782
 20
-3.247953231799999
 10
-35.1729856281
 20
-3.245366897499999
 10
-35.1653407131
 20
-3.242826720799999
 10
-35.1576677297
 20
-3.240332390099999
 10
-35.1499678747
 20
-3.2378835936
 10
-35.1422423447
 20
-3.235480019599999
 10
-35.1344923363
 20
-3.233121356299999
 10
-35.1267190464
 20
-3.230807292099999
 10
-35.1189236714
 20
-3.228537515099999
 10
-35.111107408
 20
-3.226311713699999
 10
-35.10327145300001
 20
-3.2241295761
 10
-35.095417003
 20
-3.2219907905
 10
-35.0875452546
 20
-3.219895045299999
 10
-35.0796574045
 20
-3.2178420287
 10
-35.0717546493
 20
-3.215831428999999
 10
-35.0638381858
 20
-3.213862934399999
 10
-35.0559092105
 20
-3.211936233199999
 10
-35.0479689202
 20
-3.2100510137
 10
-35.0400185115
 20
-3.2082069641
 10
-35.0320591811
 20
-3.206403772699999
 10
-35.0241074829
 20
-3.2046445317
 10
-35.0161567416
 20
-3.2029273879
 10
-35.0081892243
 20
-3.201248260099999
 10
-35.00020537920001
 20
-3.1996071004
 10
-34.9922056545
 20
-3.1980038611
 10
-34.9841904986
 20
-3.1964384941
 10
-34.9761603598
 20
-3.194910951899999
 10
-34.9681156863
 20
-3.193421186399999
 10
-34.9600569264
 20
-3.1919691498
 10
-34.9519845284
 20
-3.1905547944
 10
-34.9438989406
 20
-3.1891780723
 10
-34.9358006113
 20
-3.187838935699999
 10
-34.9276899887
 20
-3.1865373367
 10
-34.9195675212
 20
-3.1852732275
 10
-34.911433657
 20
-3.184046560299999
 10
-34.9032888445
 20
-3.1828572873
 10
-34.8951335318
 20
-3.1817053605
 10
-34.8869681673
 20
-3.1805907322
 10
-34.8787931993
 20
-3.179513354599999
 10
-34.8706090761
 20
-3.1784731797
 10
-34.8624162459
 20
-3.177470159899999
 10
-34.854215157
 20
-3.1765042472
 10
-34.8460062578
 20
-3.175575393799999
 10
-34.8377899965
 20
-3.174683551899999
 10
-34.8295668213
 20
-3.1738286737
 10
-34.8213371806
 20
-3.173010711299999
 10
-34.8131015227
 20
-3.1722296169
 10
-34.8048602959
 20
-3.1714853426
 10
-34.7966139483
 20
-3.1707778407
 10
-34.7883629284
 20
-3.1701070632
 10
-34.7801076844
 20
-3.169472962399999
 10
-34.7718486646
 20
-3.1688754905
 10
-34.7635863172
 20
-3.168314599499999
 10
-34.7553210906
 20
-3.1677902417
 10
-34.7470534331
 20
-3.1673023693
 10
-34.7387837929
 20
-3.1668509343
 10
-34.7305126183
 20
-3.1664358891
 10
-34.7222403576
 20
-3.1660571856
 10
-34.7139674591
 20
-3.1657147762
 10
-34.705694371
 20
-3.1654086129
 10
-34.6974215418
 20
-3.165138648
 10
-34.6891494195
 20
-3.1649048336
 10
-34.68087845260001
 20
-3.164707121899999
 10
-34.6726090894
 20
-3.164545464999999
 10
-34.664341778
 20
-3.1644198151
 10
-34.6560769668
 20
-3.1643301244
 10
-34.6478151041
 20
-3.164276345099999
 10
-34.6395566381
 20
-3.1642584293
  0
LWPOLYLINE
  5
11D
330
6D9
100
AcDbEntity
  8
SK1
  6
Continuous
100
AcDbPolyline
 90
      265
 70
     0
 43
0.0
 10
-40.3368453697
 20
-7.4157768365
 10
-40.3440087315
 20
-7.415758492
 10
-40.3511718939
 20
-7.4157034719
 10
-40.3583342322
 20
-7.415611796499999
 10
-40.3654951215
 20
-7.415483486
 10
-40.37257889449999
 20
-7.4153204635
 10
-40.3796579478
 20
-7.415121642299999
 10
-40.3867393426
 20
-7.414886812599999
 10
-40.3938223877
 20
-7.4146159233
 10
-40.40090639199999
 20
-7.4143089233
 10
-40.40799066429999
 20
-7.4139657615
 10
-40.4150745134
 20
-7.4135863869
 10
-40.4221572482
 20
-7.413170748499999
 10
-40.4292381775
 20
-7.412718795199999
 10
-40.4363166101
 20
-7.4122304759
 10
-40.4433918549
 20
-7.4117057396
 10
-40.4504632207
 20
-7.4111445353
 10
-40.45753001629999
 20
-7.410546811799999
 10
-40.46459155069999
 20
-7.4099125182
 10
-40.4716471325
 20
-7.4092416033
 10
-40.47869607079999
 20
-7.408534016199999
 10
-40.4857376742
 20
-7.4077897057
 10
-40.49277125159999
 20
-7.4070086209
 10
-40.4997961119
 20
-7.406190710599999
 10
-40.5068115639
 20
-7.4053359238
 10
-40.51381691639999
 20
-7.4044442095
 10
-40.5208114783
 20
-7.403515516599999
 10
-40.52779455849999
 20
-7.402549793999999
 10
-40.53476546559999
 20
-7.4015469907
 10
-40.5417235086
 20
-7.4005070557
 10
-40.5486679964
 20
-7.399429937799999
 10
-40.55559823769999
 20
-7.398315586099999
 10
-40.5625135414
 20
-7.3971639494
 10
-40.5694132163
 20
-7.395974976799999
 10
-40.57629657129999
 20
-7.3947486172
 10
-40.5831629151
 20
-7.3934848195
 10
-40.59001155669999
 20
-7.392183532599999
 10
-40.59684180489999
 20
-7.390844705599999
 10
-40.60365296839999
 20
-7.3894682873
 10
-40.6104443562
 20
-7.388054226699999
 10
-40.6172152771
 20
-7.386602472699999
 10
-40.6239650399
 20
-7.3851129744
 10
-40.6306929534
 20
-7.383585680599999
 10
-40.6373983266
 20
-7.3820205403
 10
-40.6440804681
 20
-7.3804175025
 10
-40.65073868689999
 20
-7.378776516
 10
-40.65737229169999
 20
-7.3770975298
 10
-40.66398059159999
 20
-7.375380492999999
 10
-40.6705891133
 20
-7.373618156
 10
-40.67718502369999
 20
-7.371813076499999
 10
-40.6837624686
 20
-7.369966371799999
 10
-40.6903201677
 20
-7.368077960599999
 10
-40.6968568406
 20
-7.366147761299999
 10
-40.70337120699999
 20
-7.364175692599999
 10
-40.7098619867
 20
-7.362161672999999
 10
-40.7163278992
 20
-7.360105621099999
 10
-40.72276766429999
 20
-7.358007455499999
 10
-40.7291800017
 20
-7.3558670946
 10
-40.73556363099999
 20
-7.353684457199999
 10
-40.74191727179999
 20
-7.351459461799999
 10
-40.748239644
 20
-7.349192026799999
 10
-40.7545294671
 20
-7.346882071
 10
-40.7607854608
 20
-7.344529512899999
 10
-40.7670063448
 20
-7.342134270999999
 10
-40.77319083879999
 20
-7.339696263899999
 10
-40.7793376625
 20
-7.337215410199999
 10
-40.7854455355
 20
-7.3346916284
 10
-40.7915131775
 20
-7.3321248372
 10
-40.79753930819999
 20
-7.329514954999999
 10
-40.8035226473
 20
-7.326861900599999
 10
-40.8094619144
 20
-7.324165592299999
 10
-40.81535582919999
 20
-7.321425948799999
 10
-40.8212031115
 20
-7.3186428888
 10
-40.8270024808
 20
-7.315816330599999
 10
-40.8327526568
 20
-7.312946192999999
 10
-40.8384523593
 20
-7.3100323944
 10
-40.84410030789999
 20
-7.3070748535
 10
-40.84969522219999
 20
-7.3040734887
 10
-40.8552358221
 20
-7.301028218799999
 10
-40.8607296173
 20
-7.297933711599999
 10
-40.8661794921
 20
-7.294786179199999
 10
-40.8715789298
 20
-7.2915882489
 10
-40.8769256548
 20
-7.2883403137
 10
-40.8822173916
 20
-7.285042766799999
 10
-40.8874518646
 20
-7.2816960011
 10
-40.8926267983
 20
-7.278300409699999
 10
-40.8977399172
 20
-7.274856385599999
 10
-40.90278894579999
 20
-7.271364321699999
 10
-40.9077716084
 20
-7.2678246113
 10
-40.91268562969999
 20
-7.264237647199999
 10
-40.91752873389999
 20
-7.2606038225
 10
-40.9222986457
 20
-7.256923530299999
 10
-40.9269930895
 20
-7.2531971636
 10
-40.9316097897
 20
-7.249425115299999
 10
-40.93614647079999
 20
-7.2456077786
 10
-40.94060085729999
 20
-7.241745546499999
 10
-40.94497067369999
 20
-7.237838812
 10
-40.9492536444
 20
-7.233887968099999
 10
-40.95344749379999
 20
-7.229893407799999
 10
-40.9575499465
 20
-7.225855524299999
 10
-40.96155872699999
 20
-7.221774710499999
 10
-40.96547155959999
 20
-7.2176513594
 10
-40.9692888259
 20
-7.213482630199999
 10
-40.97301397079999
 20
-7.209260432899999
 10
-40.97664298749999
 20
-7.2049875276
 10
-40.980173378
 20
-7.2006656423
 10
-40.983602644
 20
-7.196296505299999
 10
-40.98692828739999
 20
-7.1918818446
 10
-40.99014781010001
 20
-7.1874233883
 10
-40.9932587138
 20
-7.1829228646
 10
-40.9962585005
 20
-7.178382001599999
 10
-40.999144672
 20
-7.1738025274
 10
-41.00191473
 20
-7.169186170099999
 10
-41.00456617659999
 20
-7.164534657799999
 10
-41.00709651339999
 20
-7.1598497188
 10
-41.0095032423
 20
-7.155133081
 10
-41.01178386519999
 20
-7.1503864726
 10
-41.01393588389999
 20
-7.145611621699999
 10
-41.0159568003
 20
-7.1408102564
 10
-41.01784411619999
 20
-7.135984105
 10
-41.01959533339999
 20
-7.131134895399999
 10
-41.0212192095
 20
-7.126230972799999
 10
-41.0227090342
 20
-7.121288913599999
 10
-41.0240610983
 20
-7.116319570799999
 10
-41.0252744068
 20
-7.1113258683
 10
-41.0263479648
 20
-7.106310729999999
 10
-41.0272807773
 20
-7.1012770801
 10
-41.0280718494
 20
-7.0962278424
 10
-41.0287201862
 20
-7.091165940999999
 10
-41.0292247927
 20
-7.0860942999
 10
-41.02958467399999
 20
-7.081015843099999
 10
-41.0297988351
 20
-7.0759334946
 10
-41.0298662818
 20
-7.070850963899999
 10
-41.0297860777
 20
-7.065815192999999
 10
-41.0295588602
 20
-7.060770771199999
 10
-41.0291860818
 20
-7.055720439199999
 10
-41.028669195
 20
-7.050666937699999
 10
-41.0280096523
 20
-7.0456130073
 10
-41.0272089063
 20
-7.040561388799999
 10
-41.0262684096
 20
-7.035514822799999
 10
-41.02518961469999
 20
-7.030476049899999
 10
-41.0239739742
 20
-7.0254478108
 10
-41.02262294059999
 20
-7.0204328463
 10
-41.0211379664
 20
-7.0154338969
 10
-41.01952050429999
 20
-7.0104537034
 10
-41.01777200669999
 20
-7.005495006499999
 10
-41.0158939262
 20
-7.000560546699999
 10
-41.0138877154
 20
-6.995653064799999
 10
-41.0117548268
 20
-6.9907753014
 10
-41.0094967129
 20
-6.9859299973
 10
-41.0071148264
 20
-6.981119892999999
 10
-41.0046090712
 20
-6.9763447613
 10
-41.0019721255
 20
-6.971586693899999
 10
-40.99921243069999
 20
-6.9668564422
 10
-40.9963326274
 20
-6.962155371499999
 10
-40.99333535639999
 20
-6.957484847599999
 10
-40.9902232583
 20
-6.9528462358
 10
-40.9869989739
 20
-6.948240901699999
 10
-40.9836651439
 20
-6.9436702108
 10
-40.980224409
 20
-6.9391355286
 10
-40.9766794099
 20
-6.9346382207
 10
-40.9730327872
 20
-6.930179652499999
 10
-40.9692871817
 20
-6.9257611895
 10
-40.9654452342
 20
-6.9213841974
 10
-40.96150958519999
 20
-6.917050041499999
 10
-40.9574828755
 20
-6.912760087499999
 10
-40.9533677458
 20
-6.9085157007
 10
-40.9491668368
 20
-6.9043182469
 10
-40.9448827893
 20
-6.900169091299999
 10
-40.9405182438
 20
-6.8960695997
 10
-40.9360831365
 20
-6.892027452399999
 10
-40.93157527089999
 20
-6.888037220499999
 10
-40.92698628159999
 20
-6.884089415499999
 10
-40.9223180852
 20
-6.880184312699999
 10
-40.91757259829999
 20
-6.8763221872
 10
-40.9127517376
 20
-6.872503314299999
 10
-40.9078574197
 20
-6.868727969
 10
-40.90289156119999
 20
-6.864996426599999
 10
-40.8978560787
 20
-6.861308962299999
 10
-40.89275288889999
 20
-6.8576658513
 10
-40.8875839084
 20
-6.854067368699999
 10
-40.88235105389999
 20
-6.850513789699999
 10
-40.87705624189999
 20
-6.8470053895
 10
-40.8717013892
 20
-6.8435424432
 10
-40.8662884123
 20
-6.840125226199999
 10
-40.8608192278
 20
-6.8367540135
 10
-40.85529575249999
 20
-6.833429080299999
 10
-40.84971990289999
 20
-6.830150701799999
 10
-40.8440935957
 20
-6.8269191533
 10
-40.8384187475
 20
-6.8237347098
 10
-40.8326972749
 20
-6.820597646599999
 10
-40.8269310946
 20
-6.8175082388
 10
-40.8211221232
 20
-6.814466761599999
 10
-40.8152722773
 20
-6.8114734903
 10
-40.8093834735
 20
-6.8085287
 10
-40.8034576286
 20
-6.8056326658
 10
-40.7974975032
 20
-6.802786060199999
 10
-40.7915140488
 20
-6.7999927173
 10
-40.78548840799999
 20
-6.797242600599999
 10
-40.77942156599999
 20
-6.7945356734
 10
-40.7733145078
 20
-6.791871899199999
 10
-40.76716821849999
 20
-6.789251241299999
 10
-40.7609836832
 20
-6.786673663099999
 10
-40.754761887
 20
-6.784139127899999
 10
-40.748503815
 20
-6.781647599199999
 10
-40.7422104521
 20
-6.779199040199999
 10
-40.73588278369999
 20
-6.7767934144
 10
-40.7295217946
 20
-6.774430685099999
 10
-40.7231284701
 20
-6.7721108157
 10
-40.7167037951
 20
-6.7698337695
 10
-40.7102487549
 20
-6.76759951
 10
-40.70376433439999
 20
-6.765408000499999
 10
-40.6972515188
 20
-6.7632592044
 10
-40.6907112932
 20
-6.761153085
 10
-40.68414464249999
 20
-6.7590896057
 10
-40.677552552
 20
-6.7570687299
 10
-40.67093600679999
 20
-6.755090421
 10
-40.6642959918
 20
-6.7531546423
 10
-40.6576334922
 20
-6.7512613571
 10
-40.6509494931
 20
-6.749410528999999
 10
-40.6442449795
 20
-6.747602121099999
 10
-40.63752093659999
 20
-6.745836097
 10
-40.6307783494
 20
-6.7441124199
 10
-40.62401820299999
 20
-6.7424310533
 10
-40.6172414826
 20
-6.740791960499999
 10
-40.6104491732
 20
-6.7391951048
 10
-40.60364225979999
 20
-6.7376404497
 10
-40.5968217276
 20
-6.7361279585
 10
-40.5899885617
 20
-6.7346575947
 10
-40.5831437471
 20
-6.733229321399999
 10
-40.576288269
 20
-6.7318431022
 10
-40.5694231123
 20
-6.730498900399999
 10
-40.5625492623
 20
-6.7291966794
 10
-40.5556517124
 20
-6.727933435299999
 10
-40.5487360558
 20
-6.7267100407
 10
-40.5418047091
 20
-6.725526820299999
 10
-40.53485831199999
 20
-6.7243837701
 10
-40.5278975039
 20
-6.723280885599999
 10
-40.5209229244
 20
-6.722218162599999
 10
-40.5139352132
 20
-6.7211955969
 10
-40.5069350098
 20
-6.720213184099999
 10
-40.4999229538
 20
-6.719270919999999
 10
-40.4928996847
 20
-6.718368800399999
 10
-40.48586584209999
 20
-6.7175068209
 10
-40.4788220657
 20
-6.716684977199999
 10
-40.4717689949
 20
-6.715903265199999
 10
-40.46470726939999
 20
-6.715161680499999
 10
-40.4576375288
 20
-6.7144602188
 10
-40.4505604126
 20
-6.7137988759
 10
-40.4434765604
 20
-6.7131776475
 10
-40.4363866117
 20
-6.7125965294
 10
-40.4292912062
 20
-6.7120555171
 10
-40.4221909835
 20
-6.7115546066
 10
-40.415086583
 20
-6.711093793499999
 10
-40.40797864449999
 20
-6.7106730735
 10
-40.4008678074
 20
-6.7102924423
 10
-40.39375471129999
 20
-6.7099518958
 10
-40.3866399959
 20
-6.7096514295
 10
-40.37952430059999
 20
-6.709391039299999
 10
-40.3724082652
 20
-6.7091707208
 10
-40.365292529
 20
-6.708990469799999
 10
-40.35817773189999
 20
-6.7088502821
 10
-40.35106451319999
 20
-6.7087501533
 10
-40.3439535126
 20
-6.708690079099999
 10
-40.3368453697
 20
-6.708670055299999
  0
LINE
  5
11E
330
6D9
100
AcDbEntity
  8
1
  6
Continuous
100
AcDbLine
 10
2.8343145751
 20
12.5
 30
0.0
 11
1.165685424899999
 21
12.5
 31
0.0
  0
ARC
  5
11F
330
6D9
100
AcDbEntity
  8
SK1
  6
Continuous
100
AcDbCircle
 10
-0.4
 20
10.25
 30
0.0
 40
0.4000000000000001
100
AcDbArc
 50
270.0
 51
0.0
  0
LINE
  5
120
330
6D9
100
AcDbEntity
  8
SK1
  6
Continuous
100
AcDbLine
 10
-0.4
 20
9.849999999999999
 30
0.0
 11
-1.566987298099999
 21
9.849999999999999
 31
0.0
  0
LINE
  5
121
330
6D9
100
AcDbEntity
  8
SK1
  6
Continuous
100
AcDbLine
 10
-1.566987298099999
 20
9.849999999999999
 30
0.0
 11
-2.126794919199999
 21
10.0
 31
0.0
  0
LINE
  5
122
330
6D9
100
AcDbEntity
  8
SK3
100
AcDbLine
 10
3.610288568299999
 20
3.174999999999999
 30
0.0
 11
-30.8390072762
 21
3.174999999999999
 31
0.0
  0
LINE
  5
123
330
6D9
100
AcDbEntity
  8
SK3
100
AcDbLine
 10
-40.0
 20
8.25
 30
0.0
 11
-49.5
 21
8.25
 31
0.0
  0
LINE
  5
124
330
6D9
100
AcDbEntity
  8
SK3
100
AcDbLine
 10
-49.5
 20
-8.25
 30
0.0
 11
-40.0
 21
-8.25
 31
0.0
  0
LINE
  5
125
330
6D9
100
AcDbEntity
  8
SK3
100
AcDbLine
 10
-40.0
 20
-8.25
 30
0.0
 11
-36.75
 21
-5.0
 31
0.0
  0
LINE
  5
126
330
6D9
100
AcDbEntity
  8
SK3
100
AcDbLine
 10
-36.75
 20
5.0
 30
0.0
 11
-40.0
 21
8.25
 31
0.0
  0
LINE
  5
127
330
6D9
100
AcDbEntity
  8
SK3
100
AcDbLine
 10
-50.0
 20
-8.5386751346
 30
0.0
 11
-49.5
 21
-8.25
 31
0.0
  0
LINE
  5
128
330
6D9
100
AcDbEntity
  8
SK3
100
AcDbLine
 10
-49.5
 20
8.25
 30
0.0
 11
-50.0
 21
8.5386751346
 31
0.0
  0
LINE
  5
129
330
6D9
100
AcDbEntity
  8
SK3
100
AcDbLine
 10
-34.0
 20
5.0
 30
0.0
 11
-36.75
 21
5.0
 31
0.0
  0
LINE
  5
12A
330
6D9
100
AcDbEntity
  8
SK3
100
AcDbLine
 10
-36.75
 20
-5.0
 30
0.0
 11
-34.0
 21
-5.0
 31
0.0
  0
LINE
  5
12B
330
6D9
100
AcDbEntity
  8
1
  6
Continuous
100
AcDbLine
 10
3.9828427125
 20
11.5171572875
 30
0.0
 11
3.117157287499999
 21
12.3828427125
 31
0.0
  0
LINE
  5
12C
330
6D9
100
AcDbEntity
  8
1
  6
Continuous
100
AcDbLine
 10
0.8828427125000001
 20
12.3828427125
 30
0.0
 11
0.1171572875
 21
11.6171572875
 31
0.0
  0
LINE
  5
12D
330
6D9
100
AcDbEntity
  8
SK1
  6
Continuous
100
AcDbLine
 10
-48.97320508079999
 20
10.0
 30
0.0
 11
-49.8
 21
9.522649730799999
 31
0.0
  0
LINE
  5
12E
330
6D9
100
AcDbEntity
  8
SK1
  6
Continuous
100
AcDbLine
 10
-49.8
 20
-9.522649730799999
 30
0.0
 11
-48.97320508079999
 21
-10.0
 31
0.0
  0
ARC
  5
12F
330
6D9
100
AcDbEntity
  8
1
  6
Continuous
100
AcDbCircle
 10
3.7
 20
11.2343145751
 30
0.0
 40
0.4
100
AcDbArc
 50
41.40962210929999
 51
45.0
  0
ARC
  5
130
330
6D9
100
AcDbEntity
  8
SK1
  6
Continuous
100
AcDbCircle
 10
-49.6
 20
-9.176239569299999
 30
0.0
 40
0.3999999999999976
100
AcDbArc
 50
180.0
 51
240.0
  0
ARC
  5
131
330
6D9
100
AcDbEntity
  8
SK1
  6
Continuous
100
AcDbCircle
 10
-49.6
 20
9.176239569299999
 30
0.0
 40
0.3999999999999999
100
AcDbArc
 50
120.0
 51
180.0
  0
LINE
  5
132
330
6D9
100
AcDbEntity
  8
SK1
  6
Continuous
100
AcDbLine
 10
-48.97320508079999
 20
-10.0
 30
0.0
 11
-2.126794919199999
 21
-10.0
 31
0.0
  0
LINE
  5
133
330
6D9
100
AcDbEntity
  8
SK1
  6
Continuous
100
AcDbLine
 10
-2.126794919199999
 20
10.0
 30
0.0
 11
-48.97320508079999
 21
10.0
 31
0.0
  0
LINE
  5
134
330
6D9
100
AcDbEntity
  8
SK3
100
AcDbLine
 10
4.0
 20
3.399999999999999
 30
0.0
 11
3.610288568299999
 21
3.174999999999999
 31
0.0
  0
ARC
  5
135
330
6D9
100
AcDbEntity
  8
SK3
100
AcDbCircle
 10
-17.4437192524
 20
37.5153312355
 30
0.0
 40
38.59712172163357
100
AcDbArc
 50
232.5633780059
 51
242.4154701277
  0
LINE
  5
136
330
6D9
100
AcDbEntity
  8
SK3
100
AcDbLine
 10
-30.8390072762
 20
3.174999999999999
 30
0.0
 11
-34.0
 21
5.0
 31
0.0
  0
ARC
  5
137
330
6D9
100
AcDbEntity
  8
1
  6
Continuous
100
AcDbCircle
 10
2.8343145751
 20
12.1
 30
0.0
 40
0.4000000000000015
100
AcDbArc
 50
45.0
 51
90.0
  0
ARC
  5
138
330
6D9
100
AcDbEntity
  8
1
  6
Continuous
100
AcDbCircle
 10
1.165685424899999
 20
12.1
 30
0.0
 40
0.4000000000000006
100
AcDbArc
 50
90.0
 51
135.0
  0
ARC
  5
139
330
6D9
100
AcDbEntity
  8
1
  6
Continuous
100
AcDbCircle
 10
0.4
 20
11.3343145751
 30
0.0
 40
0.4000000000000005
100
AcDbArc
 50
135.0
 51
180.0
  0
LINE
  5
13A
330
6D9
100
AcDbEntity
  8
SK3
100
AcDbLine
 10
-30.8390072762
 20
-3.174999999999999
 30
0.0
 11
3.610288568299999
 21
-3.174999999999999
 31
0.0
  0
LINE
  5
13B
330
6D9
100
AcDbEntity
  8
SK3
100
AcDbLine
 10
3.610288568299999
 20
-3.174999999999999
 30
0.0
 11
4.0
 21
-3.399999999999999
 31
0.0
  0
ARC
  5
13C
330
6D9
100
AcDbEntity
  8
1
  6
Continuous
100
AcDbCircle
 10
3.7
 20
-11.2343145751
 30
0.0
 40
0.4000000000000001
100
AcDbArc
 50
315.0
 51
318.5903778907
  0
LINE
  5
13D
330
6D9
100
AcDbEntity
  8
1
  6
Continuous
100
AcDbLine
 10
3.117157287499999
 20
-12.3828427125
 30
0.0
 11
3.9828427125
 21
-11.5171572875
 31
0.0
  0
LINE
  5
13E
330
6D9
100
AcDbEntity
  8
1
  6
Continuous
100
AcDbLine
 10
1.165685424899999
 20
-12.5
 30
0.0
 11
2.8343145751
 21
-12.5
 31
0.0
  0
LINE
  5
13F
330
6D9
100
AcDbEntity
  8
1
  6
Continuous
100
AcDbLine
 10
0.1171572875
 20
-11.6171572875
 30
0.0
 11
0.8828427125000001
 21
-12.3828427125
 31
0.0
  0
ARC
  5
140
330
6D9
100
AcDbEntity
  8
SK1
  6
Continuous
100
AcDbCircle
 10
-0.4
 20
-10.25
 30
0.0
 40
0.4
100
AcDbArc
 50
0.0
 51
90.0
  0
LINE
  5
141
330
6D9
100
AcDbEntity
  8
SK1
  6
Continuous
100
AcDbLine
 10
-1.566987298099999
 20
-9.849999999999999
 30
0.0
 11
-0.4
 21
-9.849999999999999
 31
0.0
  0
LINE
  5
142
330
6D9
100
AcDbEntity
  8
SK1
  6
Continuous
100
AcDbLine
 10
-2.126794919199999
 20
-10.0
 30
0.0
 11
-1.566987298099999
 21
-9.849999999999999
 31
0.0
  0
ARC
  5
143
330
6D9
100
AcDbEntity
  8
SK3
100
AcDbCircle
 10
-17.4892463689
 20
-37.4472424637
 30
0.0
 40
38.51523110514058
100
AcDbArc
 50
117.5742265433
 51
127.4450953213
  0
LINE
  5
144
330
6D9
100
AcDbEntity
  8
SK3
100
AcDbLine
 10
-34.0
 20
-5.0
 30
0.0
 11
-30.8390072762
 21
-3.174999999999999
 31
0.0
  0
ARC
  5
145
330
6D9
100
AcDbEntity
  8
1
  6
Continuous
100
AcDbCircle
 10
2.8343145751
 20
-12.1
 30
0.0
 40
0.4000000000000006
100
AcDbArc
 50
270.0
 51
315.0
  0
ARC
  5
146
330
6D9
100
AcDbEntity
  8
1
  6
Continuous
100
AcDbCircle
 10
1.165685424899999
 20
-12.1
 30
0.0
 40
0.4000000000000015
100
AcDbArc
 50
225.0
 51
270.0
  0
ARC
  5
147
330
6D9
100
AcDbEntity
  8
1
  6
Continuous
100
AcDbCircle
 10
0.4
 20
-11.3343145751
 30
0.0
 40
0.4
100
AcDbArc
 50
180.0
 51
225.0
  0
LINE
  5
149
330
6D9
100
AcDbEntity
  8
80
  6
Continuous
100
AcDbLine
 10
0.0
 20
0.0
 30
0.0
 11
-5.0
 21
0.0
 31
0.0
  0
POINT
  5
14A
330
6D9
100
AcDbEntity
  8
80
  6
Continuous
100
AcDbPoint
 10
0.0
 20
0.0
 30
0.0
  0
LINE
  5
14C
330
6D9
100
AcDbEntity
  8
81
  6
Continuous
100
AcDbLine
 10
4.0
 20
0.0
 30
0.0
 11
9.0
 21
0.0
 31
0.0
  0
POINT
  5
14D
330
6D9
100
AcDbEntity
  8
81
  6
Continuous
100
AcDbPoint
 10
4.0
 20
0.0
 30
0.0
  0
LINE
  5
14F
330
6D9
100
AcDbEntity
  8
4
100
AcDbLine
 10
0.0
 20
0.0
 30
0.0
 11
4.0
 21
0.0
 31
0.0
  0
ENDSEC
  0
SECTION
  2
OBJECTS
  0
DICTIONARY
  5
675
330
0
100
AcDbDictionary
281
     1
  3
ACAD_CIP_PREVIOUS_PRODUCT_INFO
350
6FF
  3
ACAD_COLOR
350
6CB
  3
ACAD_DETAILVIEWSTYLE
350
6D3
  3
ACAD_GROUP
350
676
  3
ACAD_LAYOUT
350
6CA
  3
ACAD_MATERIAL
350
679
  3
ACAD_MLEADERSTYLE
350
6CE
  3
ACAD_MLINESTYLE
350
6C7
  3
ACAD_PLOTSETTINGS
350
6C9
  3
ACAD_PLOTSTYLENAME
350
677
  3
ACAD_SCALELIST
350
6AB
  3
ACAD_SECTIONVIEWSTYLE
350
6D0
  3
ACAD_TABLESTYLE
350
6CC
  3
ACAD_VISUALSTYLE
350
692
  3
ACDB_RECOMPOSE_DATA
350
729
  3
AcDbVariableDictionary
350
71C
  3
ASE_INDEX_DICTIONARY
350
719
  3
DWGPROPS
350
72A
  0
DICTIONARY
  5
702
330
6BD
100
AcDbDictionary
280
     1
281
     1
  3
ADSK_XREC_LAYER_RECONCILED
360
703
  0
DICTIONARY
  5
704
330
6E0
100
AcDbDictionary
280
     1
281
     1
  3
ADSK_XREC_LAYER_RECONCILED
360
705
  0
DICTIONARY
  5
706
330
6E1
100
AcDbDictionary
280
     1
281
     1
  3
ADSK_XREC_LAYER_RECONCILED
360
707
  0
DICTIONARY
  5
708
330
6E2
100
AcDbDictionary
280
     1
281
     1
  3
ADSK_XREC_LAYER_RECONCILED
360
709
  0
DICTIONARY
  5
70A
330
6E3
100
AcDbDictionary
280
     1
281
     1
  3
ADSK_XREC_LAYER_RECONCILED
360
70B
  0
DICTIONARY
  5
70C
330
6E4
100
AcDbDictionary
280
     1
281
     1
  3
ADSK_XREC_LAYER_RECONCILED
360
70D
  0
DICTIONARY
  5
70E
330
6E5
100
AcDbDictionary
280
     1
281
     1
  3
ADSK_XREC_LAYER_RECONCILED
360
70F
  0
DICTIONARY
  5
710
330
6E6
100
AcDbDictionary
280
     1
281
     1
  3
ADSK_XREC_LAYER_RECONCILED
360
711
  0
DICTIONARY
  5
712
330
6E7
100
AcDbDictionary
280
     1
281
     1
  3
ADSK_XREC_LAYER_RECONCILED
360
713
  0
DICTIONARY
  5
714
330
6E8
100
AcDbDictionary
280
     1
281
     1
  3
ADSK_XREC_LAYER_RECONCILED
360
715
  0
DICTIONARY
  5
716
330
6E9
100
AcDbDictionary
280
     1
281
     1
  3
ADSK_XREC_LAYER_RECONCILED
360
717
  0
XRECORD
  5
6FF
102
{ACAD_REACTORS
330
675
102
}
330
675
100
AcDbXrecord
280
     1
300
AMECH_PP
300
2013
300
PDSU_F_S
  0
DICTIONARY
  5
6CB
102
{ACAD_REACTORS
330
675
102
}
330
675
100
AcDbDictionary
281
     1
  0
DICTIONARY
  5
6D3
102
{ACAD_REACTORS
330
675
102
}
330
675
100
AcDbDictionary
281
     1
  3
Imperial24
350
6D4
  0
DICTIONARY
  5
676
102
{ACAD_REACTORS
330
675
102
}
330
675
100
AcDbDictionary
281
     1
  0
DICTIONARY
  5
6CA
102
{ACAD_REACTORS
330
675
102
}
330
675
100
AcDbDictionary
281
     1
  3
Layout1
350
6D8
  3
Model
350
6DC
  0
DICTIONARY
  5
679
102
{ACAD_REACTORS
330
675
102
}
330
675
100
AcDbDictionary
281
     1
  3
ByBlock
350
682
  3
ByLayer
350
67A
  3
Global
350
68A
  0
DICTIONARY
  5
6CE
102
{ACAD_REACTORS
330
675
102
}
330
675
100
AcDbDictionary
281
     1
  3
Standard
350
6CF
  0
DICTIONARY
  5
6C7
102
{ACAD_REACTORS
330
675
102
}
330
675
100
AcDbDictionary
281
     1
  3
Standard
350
6C8
  0
DICTIONARY
  5
6C9
102
{ACAD_REACTORS
330
675
102
}
330
675
100
AcDbDictionary
281
     1
  0
ACDBDICTIONARYWDFLT
  5
677
102
{ACAD_REACTORS
330
675
102
}
330
675
100
AcDbDictionary
281
     1
  3
Normal
350
678
100
AcDbDictionaryWithDefault
340
678
  0
DICTIONARY
  5
6AB
102
{ACAD_REACTORS
330
675
102
}
330
675
100
AcDbDictionary
281
     1
  3
A0
350
6AC
  3
A1
350
6AD
  3
A2
350
6AE
  3
A3
350
6AF
  3
A4
350
6B0
  3
A5
350
6B1
  3
A6
350
6B2
  3
A7
350
6B3
  3
A8
350
6B4
  3
A9
350
6B5
  3
B0
350
6B6
  3
B1
350
6B7
  3
B2
350
6B8
  3
B3
350
6B9
  3
B4
350
6BA
  3
B5
350
6BB
  3
B6
350
6BC
  0
DICTIONARY
  5
6D0
102
{ACAD_REACTORS
330
675
102
}
330
675
100
AcDbDictionary
281
     1
  3
Imperial24
350
6D2
  0
DICTIONARY
  5
6CC
102
{ACAD_REACTORS
330
675
102
}
330
675
100
AcDbDictionary
281
     1
  3
Standard
350
6CD
  0
DICTIONARY
  5
692
102
{ACAD_REACTORS
330
675
102
}
330
675
100
AcDbDictionary
281
     1
  3
2dWireframe
350
698
  3
Basic
350
697
  3
Brighten
350
69E
  3
ColorChange
350
6A2
  3
Conceptual
350
69B
  3
Dim
350
69D
  3
EdgeColorOff
350
6AA
  3
Facepattern
350
6A1
  3
Flat
350
693
  3
FlatWithEdges
350
694
  3
Gouraud
350
695
  3
GouraudWithEdges
350
696
  3
Hidden
350
69A
  3
JitterOff
350
6A8
  3
Linepattern
350
6A0
  3
OverhangOff
350
6A9
  3
Realistic
350
69C
  3
Shaded
350
6A7
  3
Shaded with edges
350
6A6
  3
Shades of Gray
350
6A3
  3
Sketchy
350
6A4
  3
Thicken
350
69F
  3
Wireframe
350
699
  3
X-Ray
350
6A5
  0
XRECORD
  5
729
102
{ACAD_REACTORS
330
675
102
}
330
675
100
AcDbXrecord
280
     1
 90
        1
330
6CD
  0
DICTIONARY
  5
71C
102
{ACAD_REACTORS
330
675
102
}
330
675
100
AcDbDictionary
281
     1
  3
CANNOSCALE
350
721
  3
CMLEADERSTYLE
350
71E
  3
CTABLESTYLE
350
71D
  3
CVIEWDETAILSTYLE
350
71F
  3
CVIEWSECTIONSTYLE
350
720
  3
DIMASSOC
350
724
  3
INDEXCTL
350
723
  3
SORTENTS
350
722
  3
XCLIPFRAME
350
725
  0
DICTIONARY
  5
719
102
{ACAD_REACTORS
330
675
102
}
330
675
100
AcDbDictionary
281
     1
  3
ASEBlockHierarchyIndexRecord
350
71B
1001
DCO15
1040
1815724990.766
  0
XRECORD
  5
72A
102
{ACAD_REACTORS
330
675
102
}
330
675
100
AcDbXrecord
280
     1
  1
DWGPROPS COOKIE
  2

  3

  4

  6

  7

  8
Micke
  9

300
=
301
=
302
=
303
=
304
=
305
=
306
=
307
=
308
=
309
=
 40
0.0000079513888889
 41
2455888.584730602
 42
2456818.547393125
  1

 90
        0
  0
XRECORD
  5
703
102
{ACAD_REACTORS
330
702
102
}
330
702
100
AcDbXrecord
280
     1
290
     1
  0
XRECORD
  5
705
102
{ACAD_REACTORS
330
704
102
}
330
704
100
AcDbXrecord
280
     1
290
     1
  0
XRECORD
  5
707
102
{ACAD_REACTORS
330
706
102
}
330
706
100
AcDbXrecord
280
     1
290
     1
  0
XRECORD
  5
709
102
{ACAD_REACTORS
330
708
102
}
330
708
100
AcDbXrecord
280
     1
290
     1
  0
XRECORD
  5
70B
102
{ACAD_REACTORS
330
70A
102
}
330
70A
100
AcDbXrecord
280
     1
290
     1
  0
XRECORD
  5
70D
102
{ACAD_REACTORS
330
70C
102
}
330
70C
100
AcDbXrecord
280
     1
290
     1
  0
XRECORD
  5
70F
102
{ACAD_REACTORS
330
70E
102
}
330
70E
100
AcDbXrecord
280
     1
290
     1
  0
XRECORD
  5
711
102
{ACAD_REACTORS
330
710
102
}
330
710
100
AcDbXrecord
280
     1
290
     1
  0
XRECORD
  5
713
102
{ACAD_REACTORS
330
712
102
}
330
712
100
AcDbXrecord
280
     1
290
     1
  0
XRECORD
  5
715
102
{ACAD_REACTORS
330
714
102
}
330
714
100
AcDbXrecord
280
     1
290
     1
  0
XRECORD
  5
717
102
{ACAD_REACTORS
330
716
102
}
330
716
100
AcDbXrecord
280
     1
290
     1
  0
ACDBDETAILVIEWSTYLE
  5
6D4
102
{ACAD_REACTORS
330
6D3
102
}
330
6D3
100
AcDbModelDocViewStyle
 70
     0
  3
Imperial24
290
     0
100
AcDbDetailViewStyle
 70
     0
 71
     0
 90
        3
 71
     1
340
6BE
 40
0.24
340
0
 40
0.24
300

 40
0.36
280
     3
 71
     2
340
6C5
 90
       25
 71
     3
340
6BE
 40
0.24
 90
        1
 40
0.75
 90
        1
300
%<\AcVar ViewType \f "%tc1">% %<\AcVar ViewDetailId>%\PSCALE %<\AcVar ViewScale \f "%sn">%
 71
     4
340
6C5
 90
       25
340
6C5
 90
       25
280
     0
  0
LAYOUT
  5
6D8
102
{ACAD_XDICTIONARY
360
760
102
}
102
{ACAD_REACTORS
330
6CA
102
}
330
6CA
100
AcDbPlotSettings
  1

  2
Brother DCP-9020CDW Printer
  4

  6

 40
0.0
 41
0.0
 42
0.0
 43
0.0
 44
0.0
 45
0.0
 46
0.0
 47
0.0
 48
0.0
 49
0.0
140
0.0
141
0.0
142
1.0
143
1.0
 70
   688
 72
     0
 73
     0
 74
     5
  7

 75
    16
147
1.0
148
0.0
149
0.0
100
AcDbLayout
  1
Layout1
 70
     1
 71
     1
 10
0.0
 20
0.0
 11
210.0
 21
297.0
 12
0.0
 22
0.0
 32
0.0
 14
0.0
 24
0.0
 34
0.0
 15
210.0
 25
297.0
 35
0.0
146
0.0
 13
0.0
 23
0.0
 33
0.0
 16
1.0
 26
0.0
 36
0.0
 17
0.0
 27
1.0
 37
0.0
 76
     0
330
6D5
  0
LAYOUT
  5
6DC
102
{ACAD_XDICTIONARY
360
762
102
}
102
{ACAD_REACTORS
330
6CA
102
}
330
6CA
100
AcDbPlotSettings
  1

  2
Brother DCP-9020CDW Printer
  4

  6

 40
0.0
 41
0.0
 42
0.0
 43
0.0
 44
0.0
 45
0.0
 46
0.0
 47
0.0
 48
0.0
 49
0.0
140
0.0
141
0.0
142
1.0
143
1.0
 70
  1712
 72
     0
 73
     0
 74
     0
  7

 75
     0
147
1.0
148
0.0
149
0.0
100
AcDbLayout
  1
Model
 70
     1
 71
     0
 10
0.0
 20
0.0
 11
12.0
 21
9.0
 12
0.0
 22
0.0
 32
0.0
 14
0.0
 24
0.0
 34
0.0
 15
0.0
 25
0.0
 35
0.0
146
0.0
 13
0.0
 23
0.0
 33
0.0
 16
1.0
 26
0.0
 36
0.0
 17
0.0
 27
1.0
 37
0.0
 76
     0
330
6D9
331
6DD
  0
MATERIAL
  5
682
102
{ACAD_XDICTIONARY
360
683
102
}
102
{ACAD_REACTORS
330
679
102
}
330
679
100
AcDbMaterial
  1
ByBlock
 72
     0
 43
0.0208333333333333
 43
0.0
 43
0.0
 43
0.0
 43
0.0
 43
0.0208333333333333
 43
0.0
 43
0.0
 43
0.0
 43
0.0
 43
1.0
 43
0.0
 43
0.0
 43
0.0
 43
0.0
 43
1.0
 77
     0
 47
0.0208333333333333
 47
0.0
 47
0.0
 47
0.0
 47
0.0
 47
0.0208333333333333
 47
0.0
 47
0.0
 47
0.0
 47
0.0
 47
1.0
 47
0.0
 47
0.0
 47
0.0
 47
0.0
 47
1.0
171
     0
 49
0.0208333333333333
 49
0.0
 49
0.0
 49
0.0
 49
0.0
 49
0.0208333333333333
 49
0.0
 49
0.0
 49
0.0
 49
0.0
 49
1.0
 49
0.0
 49
0.0
 49
0.0
 49
0.0
 49
1.0
175
     0
142
0.0208333333333333
142
0.0
142
0.0
142
0.0
142
0.0
142
0.0208333333333333
142
0.0
142
0.0
142
0.0
142
0.0
142
1.0
142
0.0
142
0.0
142
0.0
142
0.0
142
1.0
179
     0
144
0.0208333333333333
144
0.0
144
0.0
144
0.0
144
0.0
144
0.0208333333333333
144
0.0
144
0.0
144
0.0
144
0.0
144
1.0
144
0.0
144
0.0
144
0.0
144
0.0
144
1.0
147
0.0208333333333333
147
0.0
147
0.0
147
0.0
147
0.0
147
0.0208333333333333
147
0.0
147
0.0
147
0.0
147
0.0
147
1.0
147
0.0
147
0.0
147
0.0
147
0.0
147
1.0
  0
MATERIAL
  5
67A
102
{ACAD_XDICTIONARY
360
67B
102
}
102
{ACAD_REACTORS
330
679
102
}
330
679
100
AcDbMaterial
  1
ByLayer
 72
     0
 43
0.0208333333333333
 43
0.0
 43
0.0
 43
0.0
 43
0.0
 43
0.0208333333333333
 43
0.0
 43
0.0
 43
0.0
 43
0.0
 43
1.0
 43
0.0
 43
0.0
 43
0.0
 43
0.0
 43
1.0
 77
     0
 47
0.0208333333333333
 47
0.0
 47
0.0
 47
0.0
 47
0.0
 47
0.0208333333333333
 47
0.0
 47
0.0
 47
0.0
 47
0.0
 47
1.0
 47
0.0
 47
0.0
 47
0.0
 47
0.0
 47
1.0
171
     0
 49
0.0208333333333333
 49
0.0
 49
0.0
 49
0.0
 49
0.0
 49
0.0208333333333333
 49
0.0
 49
0.0
 49
0.0
 49
0.0
 49
1.0
 49
0.0
 49
0.0
 49
0.0
 49
0.0
 49
1.0
175
     0
142
0.0208333333333333
142
0.0
142
0.0
142
0.0
142
0.0
142
0.0208333333333333
142
0.0
142
0.0
142
0.0
142
0.0
142
1.0
142
0.0
142
0.0
142
0.0
142
0.0
142
1.0
179
     0
144
0.0208333333333333
144
0.0
144
0.0
144
0.0
144
0.0
144
0.0208333333333333
144
0.0
144
0.0
144
0.0
144
0.0
144
1.0
144
0.0
144
0.0
144
0.0
144
0.0
144
1.0
147
0.0208333333333333
147
0.0
147
0.0
147
0.0
147
0.0
147
0.0208333333333333
147
0.0
147
0.0
147
0.0
147
0.0
147
1.0
147
0.0
147
0.0
147
0.0
147
0.0
147
1.0
  0
MATERIAL
  5
68A
102
{ACAD_XDICTIONARY
360
68B
102
}
102
{ACAD_REACTORS
330
679
102
}
330
679
100
AcDbMaterial
  1
Global
 72
     0
 43
0.0208333333333333
 43
0.0
 43
0.0
 43
0.0
 43
0.0
 43
0.0208333333333333
 43
0.0
 43
0.0
 43
0.0
 43
0.0
 43
1.0
 43
0.0
 43
0.0
 43
0.0
 43
0.0
 43
1.0
 77
     0
 47
0.0208333333333333
 47
0.0
 47
0.0
 47
0.0
 47
0.0
 47
0.0208333333333333
 47
0.0
 47
0.0
 47
0.0
 47
0.0
 47
1.0
 47
0.0
 47
0.0
 47
0.0
 47
0.0
 47
1.0
171
     0
 49
0.0208333333333333
 49
0.0
 49
0.0
 49
0.0
 49
0.0
 49
0.0208333333333333
 49
0.0
 49
0.0
 49
0.0
 49
0.0
 49
1.0
 49
0.0
 49
0.0
 49
0.0
 49
0.0
 49
1.0
175
     0
142
0.0208333333333333
142
0.0
142
0.0
142
0.0
142
0.0
142
0.0208333333333333
142
0.0
142
0.0
142
0.0
142
0.0
142
1.0
142
0.0
142
0.0
142
0.0
142
0.0
142
1.0
179
     0
144
0.0208333333333333
144
0.0
144
0.0
144
0.0
144
0.0
144
0.0208333333333333
144
0.0
144
0.0
144
0.0
144
0.0
144
1.0
144
0.0
144
0.0
144
0.0
144
0.0
144
1.0
147
0.0208333333333333
147
0.0
147
0.0
147
0.0
147
0.0
147
0.0208333333333333
147
0.0
147
0.0
147
0.0
147
0.0
147
1.0
147
0.0
147
0.0
147
0.0
147
0.0
147
1.0
  0
MLEADERSTYLE
  5
6CF
102
{ACAD_REACTORS
330
6CE
102
}
330
6CE
100
AcDbMLeaderStyle
170
     2
171
     1
172
     0
 90
        2
 40
0.0
 41
0.0
173
     1
 91
-1056964608
340
6C3
 92
       -2
290
     1
 42
0.09
291
     1
 43
0.36
  3
Standard
 44
0.18
300

342
6BE
174
     1
178
     6
175
     1
176
     0
 93
-1056964608
 45
0.18
292
     0
297
     0
 46
0.18
 94
-1056964608
 47
1.0
 49
1.0
140
1.0
293
     1
141
0.0
294
     1
177
     0
142
1.0
295
     0
296
     0
143
0.125
1001
ACAD_MLEADERVER
1070
     2
  0
MLINESTYLE
  5
6C8
102
{ACAD_REACTORS
330
6C7
102
}
330
6C7
100
AcDbMlineStyle
  2
STANDARD
 70
     0
  3

 62
   256
 51
90.0
 52
90.0
 71
     2
 49
0.5
 62
   256
  6
BYLAYER
 49
-0.5
 62
   256
  6
BYLAYER
  0
ACDBPLACEHOLDER
  5
678
102
{ACAD_REACTORS
330
677
102
}
330
677
  0
SCALE
  5
6AC
102
{ACAD_REACTORS
330
6AB
102
}
330
6AB
100
AcDbScale
 70
     0
300
1:1
140
1.0
141
1.0
290
     1
  0
SCALE
  5
6AD
102
{ACAD_REACTORS
330
6AB
102
}
330
6AB
100
AcDbScale
 70
     0
300
1/128" = 1'-0"
140
0.0078125
141
12.0
290
     0
  0
SCALE
  5
6AE
102
{ACAD_REACTORS
330
6AB
102
}
330
6AB
100
AcDbScale
 70
     0
300
1/64" = 1'-0"
140
0.015625
141
12.0
290
     0
  0
SCALE
  5
6AF
102
{ACAD_REACTORS
330
6AB
102
}
330
6AB
100
AcDbScale
 70
     0
300
1/32" = 1'-0"
140
0.03125
141
12.0
290
     0
  0
SCALE
  5
6B0
102
{ACAD_REACTORS
330
6AB
102
}
330
6AB
100
AcDbScale
 70
     0
300
1/16" = 1'-0"
140
0.0625
141
12.0
290
     0
  0
SCALE
  5
6B1
102
{ACAD_REACTORS
330
6AB
102
}
330
6AB
100
AcDbScale
 70
     0
300
3/32" = 1'-0"
140
0.09375
141
12.0
290
     0
  0
SCALE
  5
6B2
102
{ACAD_REACTORS
330
6AB
102
}
330
6AB
100
AcDbScale
 70
     0
300
1/8" = 1'-0"
140
0.125
141
12.0
290
     0
  0
SCALE
  5
6B3
102
{ACAD_REACTORS
330
6AB
102
}
330
6AB
100
AcDbScale
 70
     0
300
3/16" = 1'-0"
140
0.1875
141
12.0
290
     0
  0
SCALE
  5
6B4
102
{ACAD_REACTORS
330
6AB
102
}
330
6AB
100
AcDbScale
 70
     0
300
1/4" = 1'-0"
140
0.25
141
12.0
290
     0
  0
SCALE
  5
6B5
102
{ACAD_REACTORS
330
6AB
102
}
330
6AB
100
AcDbScale
 70
     0
300
3/8" = 1'-0"
140
0.375
141
12.0
290
     0
  0
SCALE
  5
6B6
102
{ACAD_REACTORS
330
6AB
102
}
330
6AB
100
AcDbScale
 70
     0
300
1/2" = 1'-0"
140
0.5
141
12.0
290
     0
  0
SCALE
  5
6B7
102
{ACAD_REACTORS
330
6AB
102
}
330
6AB
100
AcDbScale
 70
     0
300
3/4" = 1'-0"
140
0.75
141
12.0
290
     0
  0
SCALE
  5
6B8
102
{ACAD_REACTORS
330
6AB
102
}
330
6AB
100
AcDbScale
 70
     0
300
1" = 1'-0"
140
1.0
141
12.0
290
     0
  0
SCALE
  5
6B9
102
{ACAD_REACTORS
330
6AB
102
}
330
6AB
100
AcDbScale
 70
     0
300
1-1/2" = 1'-0"
140
1.5
141
12.0
290
     0
  0
SCALE
  5
6BA
102
{ACAD_REACTORS
330
6AB
102
}
330
6AB
100
AcDbScale
 70
     0
300
3" = 1'-0"
140
3.0
141
12.0
290
     0
  0
SCALE
  5
6BB
102
{ACAD_REACTORS
330
6AB
102
}
330
6AB
100
AcDbScale
 70
     0
300
6" = 1'-0"
140
6.0
141
12.0
290
     0
  0
SCALE
  5
6BC
102
{ACAD_REACTORS
330
6AB
102
}
330
6AB
100
AcDbScale
 70
     0
300
1'-0" = 1'-0"
140
12.0
141
12.0
290
     0
  0
ACDBSECTIONVIEWSTYLE
  5
6D2
102
{ACAD_REACTORS
330
6D0
102
}
330
6D0
100
AcDbModelDocViewStyle
 70
     0
  3
Imperial24
290
     0
100
AcDbSectionViewStyle
 70
     0
 71
     0
 90
       78
 71
     1
340
6BE
 40
0.24
340
0
340
0
 40
0.24
300
I, O, Q, S, X, Z
 40
0.48
 90
        3
 40
0.18
 90
        1
 71
     2
340
6D1
 90
       25
340
6C5
 90
       50
 40
0.24
 40
0.0
 40
0.24
 71
     3
340
6BE
 40
0.24
 90
        1
 40
0.75
 90
        1
300
%<\AcVar ViewType \f "%tc1">% %<\AcVar ViewSectionStartId>%-%<\AcVar ViewSectionEndId>%\PSCALE %<\AcVar ViewScale \f "%sn">%
 71
     4
300
ANSI31
 40
1.0
 90
        0
290
     0
290
     0
 90
        6
 40
0.0
 40
1.570796326794896
 40
0.2617993877991494
 40
1.308996938995747
 40
-0.2617993877991494
 40
1.832595714594046
  0
TABLESTYLE
  5
6CD
102
{ACAD_XDICTIONARY
360
727
102
}
102
{ACAD_REACTORS
330
6CC
102
}
330
6CC
100
AcDbTableStyle
  3
Standard
 70
     0
 71
     0
 40
0.06
 41
0.06
280
     0
281
     0
  7
STANDARD
140
0.18
170
     2
 62
     0
 63
     7
283
     0
274
    -2
284
     1
 64
     0
275
    -2
285
     1
 65
     0
276
    -2
286
     1
 66
     0
277
    -2
287
     1
 67
     0
278
    -2
288
     1
 68
     0
279
    -2
289
     1
 69
     0
  7
STANDARD
140
0.25
170
     5
 62
     0
 63
     7
283
     0
274
    -2
284
     1
 64
     0
275
    -2
285
     1
 65
     0
276
    -2
286
     1
 66
     0
277
    -2
287
     1
 67
     0
278
    -2
288
     1
 68
     0
279
    -2
289
     1
 69
     0
  7
STANDARD
140
0.18
170
     5
 62
     0
 63
     7
283
     0
274
    -2
284
     1
 64
     0
275
    -2
285
     1
 65
     0
276
    -2
286
     1
 66
     0
277
    -2
287
     1
 67
     0
278
    -2
288
     1
 68
     0
279
    -2
289
     1
 69
     0
  0
VISUALSTYLE
  5
698
102
{ACAD_XDICTIONARY
360
738
102
}
102
{ACAD_REACTORS
330
692
102
}
330
692
100
AcDbVisualStyle
  2
2dWireframe
 70
     4
 71
     0
 72
     2
 73
     0
 90
        0
 40
-0.6
 41
-30.0
 62
     5
 63
     7
 74
     1
 91
        4
 64
     7
 65
   257
 75
     1
175
     1
 42
1.0
 92
        0
 66
   257
 43
1.0
 76
     1
 77
     6
 78
     2
 67
     7
 79
     5
170
     0
171
     0
290
     0
174
     0
 93
        1
 44
0.0
173
     0
291
     0
 45
0.0
1001
ACAD
1000
AcDbSavedByObjectVersion
1070
     0
  0
VISUALSTYLE
  5
697
102
{ACAD_XDICTIONARY
360
736
102
}
102
{ACAD_REACTORS
330
692
102
}
330
692
100
AcDbVisualStyle
  2
Basic
 70
     7
 71
     1
 72
     0
 73
     1
 90
        0
 40
-0.6
 41
-30.0
 62
     5
 63
     7
 74
     0
 91
        4
 64
     7
 65
   257
 75
     1
175
     1
 42
1.0
 92
        8
 66
     7
 43
1.0
 76
     1
 77
     6
 78
     2
 67
     7
 79
     5
170
     0
171
     0
290
     0
174
     0
 93
        1
 44
0.0
173
     0
291
     1
 45
0.0
1001
ACAD
1000
AcDbSavedByObjectVersion
1070
     0
  0
VISUALSTYLE
  5
69E
102
{ACAD_XDICTIONARY
360
744
102
}
102
{ACAD_REACTORS
330
692
102
}
330
692
100
AcDbVisualStyle
  2
Brighten
 70
    12
 71
     2
 72
     2
 73
     0
 90
        0
 40
-0.6
 41
-30.0
 62
     5
 63
     7
 74
     1
 91
        4
 64
     7
 65
   257
 75
     1
175
     1
 42
1.0
 92
        8
 66
     7
 43
1.0
 76
     1
 77
     6
 78
     2
 67
     7
 79
     5
170
     0
171
     0
290
     0
174
     0
 93
        1
 44
50.0
173
     0
291
     1
 45
0.0
1001
ACAD
1000
AcDbSavedByObjectVersion
1070
     0
  0
VISUALSTYLE
  5
6A2
102
{ACAD_XDICTIONARY
360
74C
102
}
102
{ACAD_REACTORS
330
692
102
}
330
692
100
AcDbVisualStyle
  2
ColorChange
 70
    16
 71
     2
 72
     2
 73
     3
 90
        0
 40
-0.6
 41
-30.0
 62
     5
 63
     8
 74
     1
 91
        4
 64
     7
 65
   257
 75
     1
175
     1
 42
1.0
 92
        8
 66
     8
 43
1.0
 76
     1
 77
     6
 78
     2
 67
     7
 79
     5
170
     0
171
     0
290
     0
174
     0
 93
        1
 44
0.0
173
     0
291
     1
 45
0.0
1001
ACAD
1000
AcDbSavedByObjectVersion
1070
     0
  0
VISUALSTYLE
  5
69B
102
{ACAD_XDICTIONARY
360
73E
102
}
102
{ACAD_REACTORS
330
692
102
}
330
692
100
AcDbVisualStyle
  2
Conceptual
 70
     9
 71
     3
 72
     2
 73
     0
 90
        0
 40
-0.6
 41
-30.0
 62
     5
 63
     7
 74
     2
 91
        2
 64
     7
 65
   257
 75
     1
175
     1
 42
179.0
 92
        8
 66
     7
 43
1.0
 76
     1
 77
     6
 78
     2
 67
     7
 79
     3
170
     0
171
     0
290
     0
174
     0
 93
        1
 44
0.0
173
     0
291
     0
 45
0.0
1001
ACAD
1000
AcDbSavedByObjectVersion
1070
     0
  0
VISUALSTYLE
  5
69D
102
{ACAD_XDICTIONARY
360
742
102
}
102
{ACAD_REACTORS
330
692
102
}
330
692
100
AcDbVisualStyle
  2
Dim
 70
    11
 71
     2
 72
     2
 73
     0
 90
        0
 40
-0.6
 41
-30.0
 62
     5
 63
     7
 74
     1
 91
        4
 64
     7
 65
   257
 75
     1
175
     1
 42
1.0
 92
        8
 66
     7
 43
1.0
 76
     1
 77
     6
 78
     2
 67
     7
 79
     5
170
     0
171
     0
290
     0
174
     0
 93
        1
 44
-50.0
173
     0
291
     1
 45
0.0
1001
ACAD
1000
AcDbSavedByObjectVersion
1070
     0
  0
VISUALSTYLE
  5
6AA
102
{ACAD_XDICTIONARY
360
75C
102
}
102
{ACAD_REACTORS
330
692
102
}
330
692
100
AcDbVisualStyle
  2
EdgeColorOff
 70
    22
 71
     2
 72
     2
 73
     0
 90
        0
 40
-0.6
 41
-30.0
 62
     5
 63
     7
 74
     1
 91
        4
 64
     7
 65
   257
 75
     1
175
     1
 42
1.0
 92
        8
 66
     7
 43
1.0
 76
     1
 77
     6
 78
     2
 67
     7
 79
     5
170
     0
171
     0
290
     0
174
     0
 93
        1
 44
0.0
173
     0
291
     1
 45
0.0
1001
ACAD
1000
AcDbSavedByObjectVersion
1070
     0
  0
VISUALSTYLE
  5
6A1
102
{ACAD_XDICTIONARY
360
74A
102
}
102
{ACAD_REACTORS
330
692
102
}
330
692
100
AcDbVisualStyle
  2
Facepattern
 70
    15
 71
     2
 72
     2
 73
     0
 90
        0
 40
-0.6
 41
-30.0
 62
     5
 63
     7
 74
     1
 91
        4
 64
     7
 65
   257
 75
     1
175
     1
 42
1.0
 92
        8
 66
     7
 43
1.0
 76
     1
 77
     6
 78
     2
 67
     7
 79
     5
170
     0
171
     0
290
     0
174
     0
 93
        1
 44
0.0
173
     0
291
     1
 45
0.0
1001
ACAD
1000
AcDbSavedByObjectVersion
1070
     0
  0
VISUALSTYLE
  5
693
102
{ACAD_XDICTIONARY
360
72E
102
}
102
{ACAD_REACTORS
330
692
102
}
330
692
100
AcDbVisualStyle
  2
Flat
 70
     0
 71
     2
 72
     1
 73
     1
 90
        2
 40
-0.6
 41
30.0
 62
     5
 63
     7
 74
     0
 91
        0
 64
     7
 65
   257
 75
     1
175
     1
 42
1.0
 92
        8
 66
     7
 43
1.0
 76
     1
 77
     6
 78
     2
 67
     7
 79
     5
170
     0
171
     0
290
     0
174
     0
 93
       13
 44
0.0
173
     0
291
     1
 45
0.0
1001
ACAD
1000
AcDbSavedByObjectVersion
1070
     0
  0
VISUALSTYLE
  5
694
102
{ACAD_XDICTIONARY
360
730
102
}
102
{ACAD_REACTORS
330
692
102
}
330
692
100
AcDbVisualStyle
  2
FlatWithEdges
 70
     1
 71
     2
 72
     1
 73
     1
 90
        2
 40
-0.6
 41
30.0
 62
     5
 63
     7
 74
     1
 91
        0
 64
     7
 65
   257
 75
     1
175
     1
 42
1.0
 92
        0
 66
   257
 43
1.0
 76
     1
 77
     6
 78
     2
 67
     7
 79
     5
170
     0
171
     0
290
     0
174
     0
 93
       13
 44
0.0
173
     0
291
     1
 45
0.0
1001
ACAD
1000
AcDbSavedByObjectVersion
1070
     0
  0
VISUALSTYLE
  5
695
102
{ACAD_XDICTIONARY
360
732
102
}
102
{ACAD_REACTORS
330
692
102
}
330
692
100
AcDbVisualStyle
  2
Gouraud
 70
     2
 71
     2
 72
     2
 73
     1
 90
        2
 40
-0.6
 41
30.0
 62
     5
 63
     7
 74
     0
 91
        0
 64
     7
 65
   257
 75
     1
175
     1
 42
1.0
 92
        0
 66
     7
 43
1.0
 76
     1
 77
     6
 78
     2
 67
     7
 79
     5
170
     0
171
     0
290
     0
174
     0
 93
       13
 44
0.0
173
     0
291
     1
 45
0.0
1001
ACAD
1000
AcDbSavedByObjectVersion
1070
     0
  0
VISUALSTYLE
  5
696
102
{ACAD_XDICTIONARY
360
734
102
}
102
{ACAD_REACTORS
330
692
102
}
330
692
100
AcDbVisualStyle
  2
GouraudWithEdges
 70
     3
 71
     2
 72
     2
 73
     1
 90
        2
 40
-0.6
 41
30.0
 62
     5
 63
     7
 74
     1
 91
        0
 64
     7
 65
   257
 75
     1
175
     1
 42
1.0
 92
        0
 66
   257
 43
1.0
 76
     1
 77
     6
 78
     2
 67
     7
 79
     5
170
     0
171
     0
290
     0
174
     0
 93
       13
 44
0.0
173
     0
291
     1
 45
0.0
1001
ACAD
1000
AcDbSavedByObjectVersion
1070
     0
  0
VISUALSTYLE
  5
69A
102
{ACAD_XDICTIONARY
360
73C
102
}
102
{ACAD_REACTORS
330
692
102
}
330
692
100
AcDbVisualStyle
  2
Hidden
 70
     6
 71
     1
 72
     2
 73
     2
 90
        0
 40
-0.6
 41
-30.0
 62
     5
 63
     7
 74
     2
 91
        2
 64
     7
 65
   257
 75
     2
175
     1
 42
40.0
 92
        0
 66
   257
 43
1.0
 76
     1
 77
     6
 78
     2
 67
     7
 79
     3
170
     0
171
     0
290
     0
174
     0
 93
        1
 44
0.0
173
     0
291
     0
 45
0.0
1001
ACAD
1000
AcDbSavedByObjectVersion
1070
     0
  0
VISUALSTYLE
  5
6A8
102
{ACAD_XDICTIONARY
360
758
102
}
102
{ACAD_REACTORS
330
692
102
}
330
692
100
AcDbVisualStyle
  2
JitterOff
 70
    20
 71
     2
 72
     2
 73
     0
 90
        0
 40
-0.6
 41
-30.0
 62
     5
 63
     7
 74
     1
 91
        4
 64
     7
 65
   257
 75
     1
175
     1
 42
1.0
 92
       10
 66
     7
 43
1.0
 76
     1
 77
     6
 78
     2
 67
     7
 79
     5
170
     0
171
     0
290
     0
174
     0
 93
        1
 44
0.0
173
     0
291
     1
 45
0.0
1001
ACAD
1000
AcDbSavedByObjectVersion
1070
     0
  0
VISUALSTYLE
  5
6A0
102
{ACAD_XDICTIONARY
360
748
102
}
102
{ACAD_REACTORS
330
692
102
}
330
692
100
AcDbVisualStyle
  2
Linepattern
 70
    14
 71
     2
 72
     2
 73
     0
 90
        0
 40
-0.6
 41
-30.0
 62
     5
 63
     7
 74
     1
 91
        4
 64
     7
 65
   257
 75
     7
175
     7
 42
1.0
 92
        8
 66
     7
 43
1.0
 76
     1
 77
     6
 78
     2
 67
     7
 79
     5
170
     0
171
     0
290
     0
174
     0
 93
        1
 44
0.0
173
     0
291
     1
 45
0.0
1001
ACAD
1000
AcDbSavedByObjectVersion
1070
     0
  0
VISUALSTYLE
  5
6A9
102
{ACAD_XDICTIONARY
360
75A
102
}
102
{ACAD_REACTORS
330
692
102
}
330
692
100
AcDbVisualStyle
  2
OverhangOff
 70
    21
 71
     2
 72
     2
 73
     0
 90
        0
 40
-0.6
 41
-30.0
 62
     5
 63
     7
 74
     1
 91
        4
 64
     7
 65
   257
 75
     1
175
     1
 42
1.0
 92
        9
 66
     7
 43
1.0
 76
     1
 77
     6
 78
     2
 67
     7
 79
     5
170
     0
171
     0
290
     0
174
     0
 93
        1
 44
0.0
173
     0
291
     1
 45
0.0
1001
ACAD
1000
AcDbSavedByObjectVersion
1070
     0
  0
VISUALSTYLE
  5
69C
102
{ACAD_XDICTIONARY
360
740
102
}
102
{ACAD_REACTORS
330
692
102
}
330
692
100
AcDbVisualStyle
  2
Realistic
 70
     8
 71
     2
 72
     3
 73
     0
 90
        2
 40
-0.6
 41
30.0
 62
     5
 63
     7
 74
     0
 91
        0
 64
     7
 65
   257
 75
     1
175
     1
 42
1.0
 92
        8
 66
   257
 43
1.0
 76
     1
 77
     6
 78
     2
 67
     7
 79
     3
170
     0
171
     0
290
     0
174
     0
 93
       13
 44
0.0
173
     0
291
     0
 45
0.0
1001
ACAD
1000
AcDbSavedByObjectVersion
1070
     0
  0
VISUALSTYLE
  5
6A7
102
{ACAD_XDICTIONARY
360
756
102
}
102
{ACAD_REACTORS
330
692
102
}
330
692
100
AcDbVisualStyle
  2
Shaded
 70
    27
 71
     2
 72
     2
 73
     1
 90
        2
 40
-0.6
 41
30.0
 62
     5
 63
     7
 74
     0
 91
        4
 64
     7
 65
   257
 75
     1
175
     1
 42
1.0
 92
        8
 66
   257
 43
1.0
 76
     1
 77
     6
 78
     2
 67
     8
 79
     3
170
     0
171
     0
290
     0
174
     0
 93
        5
 44
0.0
173
     0
291
     0
 45
0.0
1001
ACAD
1000
AcDbSavedByObjectVersion
1070
     0
  0
VISUALSTYLE
  5
6A6
102
{ACAD_XDICTIONARY
360
754
102
}
102
{ACAD_REACTORS
330
692
102
}
330
692
100
AcDbVisualStyle
  2
Shaded with edges
 70
    26
 71
     2
 72
     2
 73
     1
 90
        2
 40
-0.6
 41
30.0
 62
     5
 63
     7
 74
     1
 91
       10
 64
     7
 65
   257
 75
     2
175
     1
 42
1.0
 92
        8
 66
   257
 43
1.0
 76
     1
 77
     6
 78
     2
 67
     7
 79
     3
170
     0
171
     0
290
     0
174
     0
 93
        5
 44
0.0
173
     0
291
     0
 45
0.0
1001
ACAD
1000
AcDbSavedByObjectVersion
1070
     0
  0
VISUALSTYLE
  5
6A3
102
{ACAD_XDICTIONARY
360
74E
102
}
102
{ACAD_REACTORS
330
692
102
}
330
692
100
AcDbVisualStyle
  2
Shades of Gray
 70
    23
 71
     2
 72
     2
 73
     3
 90
        0
 40
-0.6
 41
-30.0
 62
     5
 63
     7
 74
     2
 91
        2
 64
     7
 65
     7
 75
     1
175
     1
 42
40.0
 92
        8
 66
     7
 43
1.0
 76
     1
 77
     6
 78
     2
 67
     7
 79
     3
170
     0
171
     0
290
     0
174
     0
 93
        1
 44
0.0
173
     0
291
     0
 45
0.0
1001
ACAD
1000
AcDbSavedByObjectVersion
1070
     0
  0
VISUALSTYLE
  5
6A4
102
{ACAD_XDICTIONARY
360
750
102
}
102
{ACAD_REACTORS
330
692
102
}
330
692
100
AcDbVisualStyle
  2
Sketchy
 70
    24
 71
     1
 72
     2
 73
     2
 90
        0
 40
-0.6
 41
-30.0
 62
     5
 63
     7
 74
     2
 91
        2
 64
     7
 65
     7
 75
     1
175
     1
 42
40.0
 92
       11
 66
     7
 43
1.0
 76
     1
 77
     6
 78
     2
 67
     7
 79
     6
170
     0
171
     0
290
     0
174
     0
 93
        1
 44
0.0
173
     0
291
     0
 45
0.0
1001
ACAD
1000
AcDbSavedByObjectVersion
1070
     0
  0
VISUALSTYLE
  5
69F
102
{ACAD_XDICTIONARY
360
746
102
}
102
{ACAD_REACTORS
330
692
102
}
330
692
100
AcDbVisualStyle
  2
Thicken
 70
    13
 71
     2
 72
     2
 73
     0
 90
        0
 40
-0.6
 41
-30.0
 62
     5
 63
     7
 74
     1
 91
        4
 64
     7
 65
   257
 75
     1
175
     1
 42
1.0
 92
       12
 66
     7
 43
1.0
 76
     1
 77
     6
 78
     2
 67
     7
 79
     5
170
     0
171
     0
290
     0
174
     0
 93
        1
 44
0.0
173
     0
291
     1
 45
0.0
1001
ACAD
1000
AcDbSavedByObjectVersion
1070
     0
  0
VISUALSTYLE
  5
699
102
{ACAD_XDICTIONARY
360
73A
102
}
102
{ACAD_REACTORS
330
692
102
}
330
692
100
AcDbVisualStyle
  2
Wireframe
 70
     5
 71
     0
 72
     2
 73
     0
 90
        0
 40
-0.6
 41
-30.0
 62
     5
 63
     7
 74
     1
 91
        4
 64
     7
 65
   257
 75
     1
175
     1
 42
1.0
 92
        0
 66
   257
 43
1.0
 76
     1
 77
     6
 78
     2
 67
     7
 79
     3
170
     0
171
     0
290
     0
174
     0
 93
        1
 44
0.0
173
     0
291
     0
 45
0.0
1001
ACAD
1000
AcDbSavedByObjectVersion
1070
     0
  0
VISUALSTYLE
  5
6A5
102
{ACAD_XDICTIONARY
360
752
102
}
102
{ACAD_REACTORS
330
692
102
}
330
692
100
AcDbVisualStyle
  2
X-Ray
 70
    25
 71
     2
 72
     2
 73
     1
 90
        1
 40
0.5
 41
-30.0
 62
     5
 63
     7
 74
     1
 91
        0
 64
     7
 65
   257
 75
     1
175
     1
 42
1.0
 92
        8
 66
     7
 43
1.0
 76
     1
 77
     6
 78
     2
 67
     7
 79
     3
170
     0
171
     0
290
     0
174
     0
 93
       13
 44
0.0
173
     0
291
     0
 45
0.0
1001
ACAD
1000
AcDbSavedByObjectVersion
1070
     0
  0
DICTIONARYVAR
  5
721
102
{ACAD_REACTORS
330
71C
102
}
330
71C
100
DictionaryVariables
280
     0
  1
1:1
  0
DICTIONARYVAR
  5
71E
102
{ACAD_REACTORS
330
71C
102
}
330
71C
100
DictionaryVariables
280
     0
  1
STANDARD
  0
DICTIONARYVAR
  5
71D
102
{ACAD_REACTORS
330
71C
102
}
330
71C
100
DictionaryVariables
280
     0
  1
STANDARD
  0
DICTIONARYVAR
  5
71F
102
{ACAD_REACTORS
330
71C
102
}
330
71C
100
DictionaryVariables
280
     0
  1
Imperial24
  0
DICTIONARYVAR
  5
720
102
{ACAD_REACTORS
330
71C
102
}
330
71C
100
DictionaryVariables
280
     0
  1
Imperial24
  0
DICTIONARYVAR
  5
724
102
{ACAD_REACTORS
330
71C
102
}
330
71C
100
DictionaryVariables
280
     0
  1
1
  0
DICTIONARYVAR
  5
723
102
{ACAD_REACTORS
330
71C
102
}
330
71C
100
DictionaryVariables
280
     0
  1
0
  0
DICTIONARYVAR
  5
722
102
{ACAD_REACTORS
330
71C
102
}
330
71C
100
DictionaryVariables
280
     0
  1
127
  0
DICTIONARYVAR
  5
725
102
{ACAD_REACTORS
330
71C
102
}
330
71C
100
DictionaryVariables
280
     0
  1
2
  0
XRECORD
  5
71B
102
{ACAD_REACTORS
330
719
102
}
330
719
100
AcDbXrecord
280
     1
330
99
330
62
330
6E
330
79
330
84
330
8E
  0
DICTIONARY
  5
760
330
6D8
100
AcDbDictionary
280
     1
281
     1
  3
ACAD_XREC_ROUNDTRIP
360
761
  0
DICTIONARY
  5
762
330
6DC
100
AcDbDictionary
280
     1
281
     1
  3
ACAD_XREC_ROUNDTRIP
360
763
  0
DICTIONARY
  5
683
330
682
100
AcDbDictionary
280
     1
281
     1
  3
ACAD_XREC_ROUNDTRIP
360
72C
  3
BUMPTILE
360
685
  3
DIFFUSETILE
360
684
  3
OPACITYTILE
360
688
  3
REFLECTIONTILE
360
687
  3
REFRACTIONTILE
360
689
  3
SPECULARTILE
360
686
  0
DICTIONARY
  5
67B
330
67A
100
AcDbDictionary
280
     1
281
     1
  3
ACAD_XREC_ROUNDTRIP
360
72B
  3
BUMPTILE
360
67D
  3
DIFFUSETILE
360
67C
  3
OPACITYTILE
360
680
  3
REFLECTIONTILE
360
67F
  3
REFRACTIONTILE
360
681
  3
SPECULARTILE
360
67E
  0
DICTIONARY
  5
68B
330
68A
100
AcDbDictionary
280
     1
281
     1
  3
ACAD_XREC_ROUNDTRIP
360
72D
  3
BUMPTILE
360
68D
  3
DIFFUSETILE
360
68C
  3
OPACITYTILE
360
690
  3
REFLECTIONTILE
360
68F
  3
REFRACTIONTILE
360
691
  3
SPECULARTILE
360
68E
  0
DICTIONARY
  5
727
330
6CD
100
AcDbDictionary
280
     1
281
     1
  3
ACAD_ROUNDTRIP_2008_TABLESTYLE_CELLSTYLEMAP
360
728
  3
ACAD_XREC_ROUNDTRIP
360
75E
  0
DICTIONARY
  5
738
330
698
100
AcDbDictionary
280
     1
281
     1
  3
ACAD_XREC_ROUNDTRIP
360
739
  0
DICTIONARY
  5
736
330
697
100
AcDbDictionary
280
     1
281
     1
  3
ACAD_XREC_ROUNDTRIP
360
737
  0
DICTIONARY
  5
744
330
69E
100
AcDbDictionary
280
     1
281
     1
  3
ACAD_XREC_ROUNDTRIP
360
745
  0
DICTIONARY
  5
74C
330
6A2
100
AcDbDictionary
280
     1
281
     1
  3
ACAD_XREC_ROUNDTRIP
360
74D
  0
DICTIONARY
  5
73E
330
69B
100
AcDbDictionary
280
     1
281
     1
  3
ACAD_XREC_ROUNDTRIP
360
73F
  0
DICTIONARY
  5
742
330
69D
100
AcDbDictionary
280
     1
281
     1
  3
ACAD_XREC_ROUNDTRIP
360
743
  0
DICTIONARY
  5
75C
330
6AA
100
AcDbDictionary
280
     1
281
     1
  3
ACAD_XREC_ROUNDTRIP
360
75D
  0
DICTIONARY
  5
74A
330
6A1
100
AcDbDictionary
280
     1
281
     1
  3
ACAD_XREC_ROUNDTRIP
360
74B
  0
DICTIONARY
  5
72E
330
693
100
AcDbDictionary
280
     1
281
     1
  3
ACAD_XREC_ROUNDTRIP
360
72F
  0
DICTIONARY
  5
730
330
694
100
AcDbDictionary
280
     1
281
     1
  3
ACAD_XREC_ROUNDTRIP
360
731
  0
DICTIONARY
  5
732
330
695
100
AcDbDictionary
280
     1
281
     1
  3
ACAD_XREC_ROUNDTRIP
360
733
  0
DICTIONARY
  5
734
330
696
100
AcDbDictionary
280
     1
281
     1
  3
ACAD_XREC_ROUNDTRIP
360
735
  0
DICTIONARY
  5
73C
330
69A
100
AcDbDictionary
280
     1
281
     1
  3
ACAD_XREC_ROUNDTRIP
360
73D
  0
DICTIONARY
  5
758
330
6A8
100
AcDbDictionary
280
     1
281
     1
  3
ACAD_XREC_ROUNDTRIP
360
759
  0
DICTIONARY
  5
748
330
6A0
100
AcDbDictionary
280
     1
281
     1
  3
ACAD_XREC_ROUNDTRIP
360
749
  0
DICTIONARY
  5
75A
330
6A9
100
AcDbDictionary
280
     1
281
     1
  3
ACAD_XREC_ROUNDTRIP
360
75B
  0
DICTIONARY
  5
740
330
69C
100
AcDbDictionary
280
     1
281
     1
  3
ACAD_XREC_ROUNDTRIP
360
741
  0
DICTIONARY
  5
756
330
6A7
100
AcDbDictionary
280
     1
281
     1
  3
ACAD_XREC_ROUNDTRIP
360
757
  0
DICTIONARY
  5
754
330
6A6
100
AcDbDictionary
280
     1
281
     1
  3
ACAD_XREC_ROUNDTRIP
360
755
  0
DICTIONARY
  5
74E
330
6A3
100
AcDbDictionary
280
     1
281
     1
  3
ACAD_XREC_ROUNDTRIP
360
74F
  0
DICTIONARY
  5
750
330
6A4
100
AcDbDictionary
280
     1
281
     1
  3
ACAD_XREC_ROUNDTRIP
360
751
  0
DICTIONARY
  5
746
330
69F
100
AcDbDictionary
280
     1
281
     1
  3
ACAD_XREC_ROUNDTRIP
360
747
  0
DICTIONARY
  5
73A
330
699
100
AcDbDictionary
280
     1
281
     1
  3
ACAD_XREC_ROUNDTRIP
360
73B
  0
DICTIONARY
  5
752
330
6A5
100
AcDbDictionary
280
     1
281
     1
  3
ACAD_XREC_ROUNDTRIP
360
753
  0
XRECORD
  5
761
102
{ACAD_REACTORS
330
760
102
}
330
760
100
AcDbXrecord
280
     1
102
SHADEPLOT
 70
     0
102
SHADEPLOTRESLEVEL
 70
     2
102
SHADEPLOTCUSTOMDPI
 70
   300
  0
XRECORD
  5
763
102
{ACAD_REACTORS
330
762
102
}
330
762
100
AcDbXrecord
280
     1
102
SHADEPLOT
 70
     0
102
SHADEPLOTRESLEVEL
 70
     2
102
SHADEPLOTCUSTOMDPI
 70
   300
  0
XRECORD
  5
72C
102
{ACAD_REACTORS
330
683
102
}
330
683
100
AcDbXrecord
280
     1
102
MATERIAL
148
0.0
149
0.0
149
0.0
 93
        0
 94
      127
282
     0
 72
     0
 77
     0
171
     0
175
     0
179
     0
273
     0
  0
XRECORD
  5
685
102
{ACAD_REACTORS
330
683
102
}
330
683
100
AcDbXrecord
280
     1
270
     1
271
     1
  0
XRECORD
  5
684
102
{ACAD_REACTORS
330
683
102
}
330
683
100
AcDbXrecord
280
     1
270
     1
271
     1
  0
XRECORD
  5
688
102
{ACAD_REACTORS
330
683
102
}
330
683
100
AcDbXrecord
280
     1
270
     1
271
     1
  0
XRECORD
  5
687
102
{ACAD_REACTORS
330
683
102
}
330
683
100
AcDbXrecord
280
     1
270
     1
271
     1
  0
XRECORD
  5
689
102
{ACAD_REACTORS
330
683
102
}
330
683
100
AcDbXrecord
280
     1
270
     1
271
     1
  0
XRECORD
  5
686
102
{ACAD_REACTORS
330
683
102
}
330
683
100
AcDbXrecord
280
     1
270
     1
271
     1
  0
XRECORD
  5
72B
102
{ACAD_REACTORS
330
67B
102
}
330
67B
100
AcDbXrecord
280
     1
102
MATERIAL
148
0.0
149
0.0
149
0.0
 93
        0
 94
      127
282
     0
 72
     0
 77
     0
171
     0
175
     0
179
     0
273
     0
  0
XRECORD
  5
67D
102
{ACAD_REACTORS
330
67B
102
}
330
67B
100
AcDbXrecord
280
     1
270
     1
271
     1
  0
XRECORD
  5
67C
102
{ACAD_REACTORS
330
67B
102
}
330
67B
100
AcDbXrecord
280
     1
270
     1
271
     1
  0
XRECORD
  5
680
102
{ACAD_REACTORS
330
67B
102
}
330
67B
100
AcDbXrecord
280
     1
270
     1
271
     1
  0
XRECORD
  5
67F
102
{ACAD_REACTORS
330
67B
102
}
330
67B
100
AcDbXrecord
280
     1
270
     1
271
     1
  0
XRECORD
  5
681
102
{ACAD_REACTORS
330
67B
102
}
330
67B
100
AcDbXrecord
280
     1
270
     1
271
     1
  0
XRECORD
  5
67E
102
{ACAD_REACTORS
330
67B
102
}
330
67B
100
AcDbXrecord
280
     1
270
     1
271
     1
  0
XRECORD
  5
72D
102
{ACAD_REACTORS
330
68B
102
}
330
68B
100
AcDbXrecord
280
     1
102
MATERIAL
148
0.0
149
0.0
149
0.0
 93
        0
 94
      127
282
     0
 72
     0
 77
     0
171
     0
175
     0
179
     0
273
     0
  0
XRECORD
  5
68D
102
{ACAD_REACTORS
330
68B
102
}
330
68B
100
AcDbXrecord
280
     1
270
     1
271
     1
  0
XRECORD
  5
68C
102
{ACAD_REACTORS
330
68B
102
}
330
68B
100
AcDbXrecord
280
     1
270
     1
271
     1
  0
XRECORD
  5
690
102
{ACAD_REACTORS
330
68B
102
}
330
68B
100
AcDbXrecord
280
     1
270
     1
271
     1
  0
XRECORD
  5
68F
102
{ACAD_REACTORS
330
68B
102
}
330
68B
100
AcDbXrecord
280
     1
270
     1
271
     1
  0
XRECORD
  5
691
102
{ACAD_REACTORS
330
68B
102
}
330
68B
100
AcDbXrecord
280
     1
270
     1
271
     1
  0
XRECORD
  5
68E
102
{ACAD_REACTORS
330
68B
102
}
330
68B
100
AcDbXrecord
280
     1
270
     1
271
     1
  0
CELLSTYLEMAP
  5
728
102
{ACAD_REACTORS
330
727
102
}
330
727
100
AcDbCellStyleMap
 90
        3
300
CELLSTYLE
  1
TABLEFORMAT_BEGIN
 90
        5
170
     1
 91
        0
 92
    32768
 62
   257
 93
        1
300
CONTENTFORMAT
  1
CONTENTFORMAT_BEGIN
 90
        0
 91
        0
 92
      512
 93
        0
300

 40
0.0
140
1.0
 94
        5
 62
     0
340
6BE
144
0.25
309
CONTENTFORMAT_END
171
     0
 94
        0
309
TABLEFORMAT_END
  1
CELLSTYLE_BEGIN
 90
        1
 91
        1
300
_TITLE
309
CELLSTYLE_END
300
CELLSTYLE
  1
TABLEFORMAT_BEGIN
 90
        5
170
     1
 91
        0
 92
        0
 62
   257
 93
        1
300
CONTENTFORMAT
  1
CONTENTFORMAT_BEGIN
 90
        0
 91
        0
 92
      512
 93
        0
300

 40
0.0
140
1.0
 94
        5
 62
     0
340
6BE
144
0.18
309
CONTENTFORMAT_END
171
     0
 94
        0
309
TABLEFORMAT_END
  1
CELLSTYLE_BEGIN
 90
        2
 91
        1
300
_HEADER
309
CELLSTYLE_END
300
CELLSTYLE
  1
TABLEFORMAT_BEGIN
 90
        5
170
     1
 91
        0
 92
        0
 62
   257
 93
        1
300
CONTENTFORMAT
  1
CONTENTFORMAT_BEGIN
 90
        0
 91
        0
 92
      512
 93
        0
300

 40
0.0
140
1.0
 94
        2
 62
     0
340
6BE
144
0.18
309
CONTENTFORMAT_END
171
     0
 94
        0
309
TABLEFORMAT_END
  1
CELLSTYLE_BEGIN
 90
        3
 91
        2
300
_DATA
309
CELLSTYLE_END
  0
XRECORD
  5
75E
102
{ACAD_REACTORS
330
727
102
}
330
727
100
AcDbXrecord
280
     1
102
ACAD_ROUNDTRIP_PRE2007_TABLESTYLE
 90
      512
 91
        0
  1

 92
      512
 93
        0
  2

 94
      512
 95
        0
  3

  0
XRECORD
  5
739
102
{ACAD_REACTORS
330
738
102
}
330
738
100
AcDbXrecord
280
     1
102
RTVSPost2010Prop28
280
     1
102
RTVSPost2010PropOp28
 70
     1
102
RTVSPost2010Prop29
280
     1
102
RTVSPost2010PropOp29
 70
     1
102
RTVSPost2010Prop30
280
     0
102
RTVSPost2010PropOp30
 70
     1
102
RTVSPost2010Prop31
280
     0
102
RTVSPost2010PropOp31
 70
     1
102
RTVSPost2010Prop32
280
     0
102
RTVSPost2010PropOp32
 70
     1
102
RTVSPost2010Prop33
280
     0
102
RTVSPost2010PropOp33
 70
     1
102
RTVSPost2010Prop34
280
     0
102
RTVSPost2010PropOp34
 70
     1
102
RTVSPost2010Prop35
280
     0
102
RTVSPost2010PropOp35
 70
     1
102
RTVSPost2010Prop36
280
     0
102
RTVSPost2010PropOp36
 70
     1
102
RTVSPost2010Prop37
 90
       50
102
RTVSPost2010PropOp37
 70
     1
102
RTVSPost2010Prop38
140
0.0
102
RTVSPost2010PropOp38
 70
     1
102
RTVSPost2010Prop39
140
1.0
102
RTVSPost2010PropOp39
 70
     1
102
RTVSPost2010Prop40
 90
        0
102
RTVSPost2010PropOp40
 70
     1
102
RTVSPost2010Prop41ColorIndex
 90
       18
102
RTVSPost2010Prop41ColorRGB
 90
        0
102
RTVSPost2010PropOp41
 70
     1
102
RTVSPost2010Prop42
 90
       50
102
RTVSPost2010PropOp42
 70
     1
102
RTVSPost2010Prop43
 90
        3
102
RTVSPost2010PropOp43
 70
     1
102
RTVSPost2010Prop44ColorIndex
 90
        5
102
RTVSPost2010Prop44ColorRGB
 90
      255
102
RTVSPost2010PropOp44
 70
     1
102
RTVSPost2010Prop45
280
     0
102
RTVSPost2010PropOp45
 70
     1
102
RTVSPost2010Prop46
 90
       50
102
RTVSPost2010PropOp46
 70
     1
102
RTVSPost2010Prop47
 90
       50
102
RTVSPost2010PropOp47
 70
     1
102
RTVSPost2010Prop48
 90
       50
102
RTVSPost2010PropOp48
 70
     1
102
RTVSPost2010Prop49
280
     0
102
RTVSPost2010PropOp49
 70
     1
102
RTVSPost2010Prop50
 90
       50
102
RTVSPost2010PropOp50
 70
     1
102
RTVSPost2010Prop51ColorIndex
 90
      256
102
RTVSPost2010Prop51ColorRGB
 90
-16777216
102
RTVSPost2010PropOp51
 70
     0
102
RTVSPost2010Prop52
140
1.0
102
RTVSPost2010PropOp52
 70
     0
102
RTVSPost2010Prop53
 90
        2
102
RTVSPost2010PropOp53
 70
     1
102
RTVSPost2010Prop54
  1
strokes_ogs.tif
102
RTVSPost2010PropOp54
 70
     1
102
RTVSPost2010Prop55
280
     0
102
RTVSPost2010PropOp55
 70
     1
102
RTVSPost2010Prop56
140
1.0
102
RTVSPost2010PropOp56
 70
     1
102
RTVSPost2010Prop57
140
1.0
102
RTVSPost2010PropOp57
 70
     1
102
RTVSPropertyOp0
 70
     1
102
RTVSPropertyOp1
 70
     1
102
RTVSPropertyOp2
 70
     1
102
RTVSPropertyOp3
 70
     1
102
RTVSPropertyOp4
 70
     1
102
RTVSPropertyOp5
 70
     1
102
RTVSPropertyOp6
 70
     1
102
RTVSPropertyOp7
 70
     1
102
RTVSPropertyOp8
 70
     1
102
RTVSPropertyOp9
 70
     1
102
RTVSPropertyOp10
 70
     1
102
RTVSPropertyOp11
 70
     1
102
RTVSPropertyOp12
 70
     1
102
RTVSPropertyOp13
 70
     1
102
RTVSPropertyOp14
 70
     1
102
RTVSPropertyOp15
 70
     1
102
RTVSPropertyOp16
 70
     1
102
RTVSPropertyOp17
 70
     1
102
RTVSPropertyOp18
 70
     1
102
RTVSPropertyOp19
 70
     1
102
RTVSPropertyOp20
 70
     1
102
RTVSPropertyOp21
 70
     1
102
RTVSPropertyOp22
 70
     1
102
RTVSPropertyOp23
 70
     1
102
RTVSPropertyOp24
 70
     1
102
RTVSPropertyOp25
 70
     1
102
RTVSPropertyOp26
 70
     1
102
RTVSPropertyOp27
 70
     1
102
RTVSPropertyOp28
 70
     1
102
RTVSPropertyOp29
 70
     1
102
RTVSPropertyOp30
 70
     1
102
RTVSPropertyOp31
 70
     1
102
RTVSPropertyOp32
 70
     1
102
RTVSPropertyOp33
 70
     1
102
RTVSPropertyOp34
 70
     1
102
RTVSPropertyOp35
 70
     1
102
RTVSPropertyOp36
 70
     1
102
RTVSPropertyOp37
 70
     1
102
RTVSPropertyOp38
 70
     1
102
RTVSPropertyOp39
 70
     1
102
RTVSPropertyOp40
 70
     1
102
RTVSPropertyOp41
 70
     1
102
RTVSPropertyOp42
 70
     1
102
RTVSPropertyOp43
 70
     1
102
RTVSPropertyOp44
 70
     1
102
RTVSPropertyOp45
 70
     1
102
RTVSPropertyOp46
 70
     1
102
RTVSPropertyOp47
 70
     1
102
RTVSPropertyOp48
 70
     1
102
RTVSPropertyOp49
 70
     1
102
RTVSPropertyOp50
 70
     1
102
RTVSPropertyOp51
 70
     0
102
RTVSPropertyOp52
 70
     0
102
RTVSPropertyOp53
 70
     1
102
RTVSPropertyOp54
 70
     1
102
RTVSPropertyOp55
 70
     1
102
RTVSPropertyOp56
 70
     1
102
RTVSPropertyOp57
 70
     1
102
RTVSPropertyOp58
 70
     1
102
RTVSPropertyOp59
 70
     1
102
RTVSPropertyOp60
 70
     1
102
RTVSPropertyOp61
 70
     1
102
RTVSPropertyOp62
 70
     1
  0
XRECORD
  5
737
102
{ACAD_REACTORS
330
736
102
}
330
736
100
AcDbXrecord
280
     1
102
RTVSPost2010Prop28
280
     0
102
RTVSPost2010PropOp28
 70
     1
102
RTVSPost2010Prop29
280
     1
102
RTVSPost2010PropOp29
 70
     1
102
RTVSPost2010Prop30
280
     1
102
RTVSPost2010PropOp30
 70
     1
102
RTVSPost2010Prop31
280
     0
102
RTVSPost2010PropOp31
 70
     1
102
RTVSPost2010Prop32
280
     0
102
RTVSPost2010PropOp32
 70
     1
102
RTVSPost2010Prop33
280
     0
102
RTVSPost2010PropOp33
 70
     1
102
RTVSPost2010Prop34
280
     0
102
RTVSPost2010PropOp34
 70
     1
102
RTVSPost2010Prop35
280
     0
102
RTVSPost2010PropOp35
 70
     1
102
RTVSPost2010Prop36
280
     0
102
RTVSPost2010PropOp36
 70
     1
102
RTVSPost2010Prop37
 90
       50
102
RTVSPost2010PropOp37
 70
     1
102
RTVSPost2010Prop38
140
0.0
102
RTVSPost2010PropOp38
 70
     1
102
RTVSPost2010Prop39
140
1.0
102
RTVSPost2010PropOp39
 70
     1
102
RTVSPost2010Prop40
 90
        0
102
RTVSPost2010PropOp40
 70
     1
102
RTVSPost2010Prop41ColorIndex
 90
       18
102
RTVSPost2010Prop41ColorRGB
 90
        0
102
RTVSPost2010PropOp41
 70
     1
102
RTVSPost2010Prop42
 90
       50
102
RTVSPost2010PropOp42
 70
     1
102
RTVSPost2010Prop43
 90
        3
102
RTVSPost2010PropOp43
 70
     1
102
RTVSPost2010Prop44ColorIndex
 90
        5
102
RTVSPost2010Prop44ColorRGB
 90
      255
102
RTVSPost2010PropOp44
 70
     1
102
RTVSPost2010Prop45
280
     0
102
RTVSPost2010PropOp45
 70
     1
102
RTVSPost2010Prop46
 90
       50
102
RTVSPost2010PropOp46
 70
     1
102
RTVSPost2010Prop47
 90
       50
102
RTVSPost2010PropOp47
 70
     1
102
RTVSPost2010Prop48
 90
       50
102
RTVSPost2010PropOp48
 70
     1
102
RTVSPost2010Prop49
280
     0
102
RTVSPost2010PropOp49
 70
     1
102
RTVSPost2010Prop50
 90
       50
102
RTVSPost2010PropOp50
 70
     1
102
RTVSPost2010Prop51ColorIndex
 90
      256
102
RTVSPost2010Prop51ColorRGB
 90
-16777216
102
RTVSPost2010PropOp51
 70
     0
102
RTVSPost2010Prop52
140
1.0
102
RTVSPost2010PropOp52
 70
     0
102
RTVSPost2010Prop53
 90
        2
102
RTVSPost2010PropOp53
 70
     1
102
RTVSPost2010Prop54
  1
strokes_ogs.tif
102
RTVSPost2010PropOp54
 70
     1
102
RTVSPost2010Prop55
280
     0
102
RTVSPost2010PropOp55
 70
     1
102
RTVSPost2010Prop56
140
1.0
102
RTVSPost2010PropOp56
 70
     1
102
RTVSPost2010Prop57
140
1.0
102
RTVSPost2010PropOp57
 70
     1
102
RTVSPropertyOp0
 70
     1
102
RTVSPropertyOp1
 70
     1
102
RTVSPropertyOp2
 70
     1
102
RTVSPropertyOp3
 70
     1
102
RTVSPropertyOp4
 70
     1
102
RTVSPropertyOp5
 70
     1
102
RTVSPropertyOp6
 70
     1
102
RTVSPropertyOp7
 70
     1
102
RTVSPropertyOp8
 70
     1
102
RTVSPropertyOp9
 70
     1
102
RTVSPropertyOp10
 70
     1
102
RTVSPropertyOp11
 70
     1
102
RTVSPropertyOp12
 70
     1
102
RTVSPropertyOp13
 70
     1
102
RTVSPropertyOp14
 70
     1
102
RTVSPropertyOp15
 70
     1
102
RTVSPropertyOp16
 70
     1
102
RTVSPropertyOp17
 70
     1
102
RTVSPropertyOp18
 70
     1
102
RTVSPropertyOp19
 70
     1
102
RTVSPropertyOp20
 70
     1
102
RTVSPropertyOp21
 70
     1
102
RTVSPropertyOp22
 70
     1
102
RTVSPropertyOp23
 70
     1
102
RTVSPropertyOp24
 70
     1
102
RTVSPropertyOp25
 70
     1
102
RTVSPropertyOp26
 70
     1
102
RTVSPropertyOp27
 70
     1
102
RTVSPropertyOp28
 70
     1
102
RTVSPropertyOp29
 70
     1
102
RTVSPropertyOp30
 70
     1
102
RTVSPropertyOp31
 70
     1
102
RTVSPropertyOp32
 70
     1
102
RTVSPropertyOp33
 70
     1
102
RTVSPropertyOp34
 70
     1
102
RTVSPropertyOp35
 70
     1
102
RTVSPropertyOp36
 70
     1
102
RTVSPropertyOp37
 70
     1
102
RTVSPropertyOp38
 70
     1
102
RTVSPropertyOp39
 70
     1
102
RTVSPropertyOp40
 70
     1
102
RTVSPropertyOp41
 70
     1
102
RTVSPropertyOp42
 70
     1
102
RTVSPropertyOp43
 70
     1
102
RTVSPropertyOp44
 70
     1
102
RTVSPropertyOp45
 70
     1
102
RTVSPropertyOp46
 70
     1
102
RTVSPropertyOp47
 70
     1
102
RTVSPropertyOp48
 70
     1
102
RTVSPropertyOp49
 70
     1
102
RTVSPropertyOp50
 70
     1
102
RTVSPropertyOp51
 70
     0
102
RTVSPropertyOp52
 70
     0
102
RTVSPropertyOp53
 70
     1
102
RTVSPropertyOp54
 70
     1
102
RTVSPropertyOp55
 70
     1
102
RTVSPropertyOp56
 70
     1
102
RTVSPropertyOp57
 70
     1
102
RTVSPropertyOp58
 70
     1
102
RTVSPropertyOp59
 70
     1
102
RTVSPropertyOp60
 70
     1
102
RTVSPropertyOp61
 70
     1
102
RTVSPropertyOp62
 70
     1
  0
XRECORD
  5
745
102
{ACAD_REACTORS
330
744
102
}
330
744
100
AcDbXrecord
280
     1
102
RTVSPost2010Prop28
280
     0
102
RTVSPost2010PropOp28
 70
     1
102
RTVSPost2010Prop29
280
     1
102
RTVSPost2010PropOp29
 70
     1
102
RTVSPost2010Prop30
280
     1
102
RTVSPost2010PropOp30
 70
     1
102
RTVSPost2010Prop31
280
     0
102
RTVSPost2010PropOp31
 70
     1
102
RTVSPost2010Prop32
280
     0
102
RTVSPost2010PropOp32
 70
     1
102
RTVSPost2010Prop33
280
     0
102
RTVSPost2010PropOp33
 70
     1
102
RTVSPost2010Prop34
280
     0
102
RTVSPost2010PropOp34
 70
     1
102
RTVSPost2010Prop35
280
     0
102
RTVSPost2010PropOp35
 70
     1
102
RTVSPost2010Prop36
280
     0
102
RTVSPost2010PropOp36
 70
     1
102
RTVSPost2010Prop37
 90
       50
102
RTVSPost2010PropOp37
 70
     1
102
RTVSPost2010Prop38
140
0.0
102
RTVSPost2010PropOp38
 70
     1
102
RTVSPost2010Prop39
140
1.0
102
RTVSPost2010PropOp39
 70
     1
102
RTVSPost2010Prop40
 90
        0
102
RTVSPost2010PropOp40
 70
     1
102
RTVSPost2010Prop41ColorIndex
 90
       18
102
RTVSPost2010Prop41ColorRGB
 90
        0
102
RTVSPost2010PropOp41
 70
     1
102
RTVSPost2010Prop42
 90
       50
102
RTVSPost2010PropOp42
 70
     1
102
RTVSPost2010Prop43
 90
        3
102
RTVSPost2010PropOp43
 70
     1
102
RTVSPost2010Prop44ColorIndex
 90
        5
102
RTVSPost2010Prop44ColorRGB
 90
      255
102
RTVSPost2010PropOp44
 70
     1
102
RTVSPost2010Prop45
280
     0
102
RTVSPost2010PropOp45
 70
     1
102
RTVSPost2010Prop46
 90
       50
102
RTVSPost2010PropOp46
 70
     1
102
RTVSPost2010Prop47
 90
       50
102
RTVSPost2010PropOp47
 70
     1
102
RTVSPost2010Prop48
 90
       50
102
RTVSPost2010PropOp48
 70
     1
102
RTVSPost2010Prop49
280
     0
102
RTVSPost2010PropOp49
 70
     1
102
RTVSPost2010Prop50
 90
       50
102
RTVSPost2010PropOp50
 70
     1
102
RTVSPost2010Prop51ColorIndex
 90
      256
102
RTVSPost2010Prop51ColorRGB
 90
-16777216
102
RTVSPost2010PropOp51
 70
     0
102
RTVSPost2010Prop52
140
1.0
102
RTVSPost2010PropOp52
 70
     0
102
RTVSPost2010Prop53
 90
        2
102
RTVSPost2010PropOp53
 70
     1
102
RTVSPost2010Prop54
  1
strokes_ogs.tif
102
RTVSPost2010PropOp54
 70
     1
102
RTVSPost2010Prop55
280
     0
102
RTVSPost2010PropOp55
 70
     1
102
RTVSPost2010Prop56
140
1.0
102
RTVSPost2010PropOp56
 70
     1
102
RTVSPost2010Prop57
140
1.0
102
RTVSPost2010PropOp57
 70
     1
102
RTVSPropertyOp0
 70
     1
102
RTVSPropertyOp1
 70
     1
102
RTVSPropertyOp2
 70
     1
102
RTVSPropertyOp3
 70
     1
102
RTVSPropertyOp4
 70
     1
102
RTVSPropertyOp5
 70
     1
102
RTVSPropertyOp6
 70
     1
102
RTVSPropertyOp7
 70
     1
102
RTVSPropertyOp8
 70
     1
102
RTVSPropertyOp9
 70
     1
102
RTVSPropertyOp10
 70
     1
102
RTVSPropertyOp11
 70
     1
102
RTVSPropertyOp12
 70
     1
102
RTVSPropertyOp13
 70
     1
102
RTVSPropertyOp14
 70
     1
102
RTVSPropertyOp15
 70
     1
102
RTVSPropertyOp16
 70
     1
102
RTVSPropertyOp17
 70
     1
102
RTVSPropertyOp18
 70
     1
102
RTVSPropertyOp19
 70
     1
102
RTVSPropertyOp20
 70
     1
102
RTVSPropertyOp21
 70
     1
102
RTVSPropertyOp22
 70
     1
102
RTVSPropertyOp23
 70
     1
102
RTVSPropertyOp24
 70
     1
102
RTVSPropertyOp25
 70
     1
102
RTVSPropertyOp26
 70
     1
102
RTVSPropertyOp27
 70
     1
102
RTVSPropertyOp28
 70
     1
102
RTVSPropertyOp29
 70
     1
102
RTVSPropertyOp30
 70
     1
102
RTVSPropertyOp31
 70
     1
102
RTVSPropertyOp32
 70
     1
102
RTVSPropertyOp33
 70
     1
102
RTVSPropertyOp34
 70
     1
102
RTVSPropertyOp35
 70
     1
102
RTVSPropertyOp36
 70
     1
102
RTVSPropertyOp37
 70
     1
102
RTVSPropertyOp38
 70
     1
102
RTVSPropertyOp39
 70
     1
102
RTVSPropertyOp40
 70
     1
102
RTVSPropertyOp41
 70
     1
102
RTVSPropertyOp42
 70
     1
102
RTVSPropertyOp43
 70
     1
102
RTVSPropertyOp44
 70
     1
102
RTVSPropertyOp45
 70
     1
102
RTVSPropertyOp46
 70
     1
102
RTVSPropertyOp47
 70
     1
102
RTVSPropertyOp48
 70
     1
102
RTVSPropertyOp49
 70
     1
102
RTVSPropertyOp50
 70
     1
102
RTVSPropertyOp51
 70
     0
102
RTVSPropertyOp52
 70
     0
102
RTVSPropertyOp53
 70
     1
102
RTVSPropertyOp54
 70
     1
102
RTVSPropertyOp55
 70
     1
102
RTVSPropertyOp56
 70
     1
102
RTVSPropertyOp57
 70
     1
102
RTVSPropertyOp58
 70
     1
102
RTVSPropertyOp59
 70
     1
102
RTVSPropertyOp60
 70
     1
102
RTVSPropertyOp61
 70
     1
102
RTVSPropertyOp62
 70
     1
  0
XRECORD
  5
74D
102
{ACAD_REACTORS
330
74C
102
}
330
74C
100
AcDbXrecord
280
     1
102
RTVSPost2010Prop28
280
     0
102
RTVSPost2010PropOp28
 70
     1
102
RTVSPost2010Prop29
280
     1
102
RTVSPost2010PropOp29
 70
     1
102
RTVSPost2010Prop30
280
     1
102
RTVSPost2010PropOp30
 70
     1
102
RTVSPost2010Prop31
280
     0
102
RTVSPost2010PropOp31
 70
     1
102
RTVSPost2010Prop32
280
     0
102
RTVSPost2010PropOp32
 70
     1
102
RTVSPost2010Prop33
280
     0
102
RTVSPost2010PropOp33
 70
     1
102
RTVSPost2010Prop34
280
     0
102
RTVSPost2010PropOp34
 70
     1
102
RTVSPost2010Prop35
280
     0
102
RTVSPost2010PropOp35
 70
     1
102
RTVSPost2010Prop36
280
     0
102
RTVSPost2010PropOp36
 70
     1
102
RTVSPost2010Prop37
 90
       50
102
RTVSPost2010PropOp37
 70
     1
102
RTVSPost2010Prop38
140
0.0
102
RTVSPost2010PropOp38
 70
     1
102
RTVSPost2010Prop39
140
1.0
102
RTVSPost2010PropOp39
 70
     1
102
RTVSPost2010Prop40
 90
        0
102
RTVSPost2010PropOp40
 70
     1
102
RTVSPost2010Prop41ColorIndex
 90
       18
102
RTVSPost2010Prop41ColorRGB
 90
        0
102
RTVSPost2010PropOp41
 70
     1
102
RTVSPost2010Prop42
 90
       50
102
RTVSPost2010PropOp42
 70
     1
102
RTVSPost2010Prop43
 90
        3
102
RTVSPost2010PropOp43
 70
     1
102
RTVSPost2010Prop44ColorIndex
 90
        5
102
RTVSPost2010Prop44ColorRGB
 90
      255
102
RTVSPost2010PropOp44
 70
     1
102
RTVSPost2010Prop45
280
     0
102
RTVSPost2010PropOp45
 70
     1
102
RTVSPost2010Prop46
 90
       50
102
RTVSPost2010PropOp46
 70
     1
102
RTVSPost2010Prop47
 90
       50
102
RTVSPost2010PropOp47
 70
     1
102
RTVSPost2010Prop48
 90
       50
102
RTVSPost2010PropOp48
 70
     1
102
RTVSPost2010Prop49
280
     0
102
RTVSPost2010PropOp49
 70
     1
102
RTVSPost2010Prop50
 90
       50
102
RTVSPost2010PropOp50
 70
     1
102
RTVSPost2010Prop51ColorIndex
 90
      256
102
RTVSPost2010Prop51ColorRGB
 90
-16777216
102
RTVSPost2010PropOp51
 70
     0
102
RTVSPost2010Prop52
140
1.0
102
RTVSPost2010PropOp52
 70
     0
102
RTVSPost2010Prop53
 90
        2
102
RTVSPost2010PropOp53
 70
     1
102
RTVSPost2010Prop54
  1
strokes_ogs.tif
102
RTVSPost2010PropOp54
 70
     1
102
RTVSPost2010Prop55
280
     0
102
RTVSPost2010PropOp55
 70
     1
102
RTVSPost2010Prop56
140
1.0
102
RTVSPost2010PropOp56
 70
     1
102
RTVSPost2010Prop57
140
1.0
102
RTVSPost2010PropOp57
 70
     1
102
RTVSPropertyOp0
 70
     1
102
RTVSPropertyOp1
 70
     1
102
RTVSPropertyOp2
 70
     1
102
RTVSPropertyOp3
 70
     1
102
RTVSPropertyOp4
 70
     1
102
RTVSPropertyOp5
 70
     1
102
RTVSPropertyOp6
 70
     1
102
RTVSPropertyOp7
 70
     1
102
RTVSPropertyOp8
 70
     1
102
RTVSPropertyOp9
 70
     1
102
RTVSPropertyOp10
 70
     1
102
RTVSPropertyOp11
 70
     1
102
RTVSPropertyOp12
 70
     1
102
RTVSPropertyOp13
 70
     1
102
RTVSPropertyOp14
 70
     1
102
RTVSPropertyOp15
 70
     1
102
RTVSPropertyOp16
 70
     1
102
RTVSPropertyOp17
 70
     1
102
RTVSPropertyOp18
 70
     1
102
RTVSPropertyOp19
 70
     1
102
RTVSPropertyOp20
 70
     1
102
RTVSPropertyOp21
 70
     1
102
RTVSPropertyOp22
 70
     1
102
RTVSPropertyOp23
 70
     1
102
RTVSPropertyOp24
 70
     1
102
RTVSPropertyOp25
 70
     1
102
RTVSPropertyOp26
 70
     1
102
RTVSPropertyOp27
 70
     1
102
RTVSPropertyOp28
 70
     1
102
RTVSPropertyOp29
 70
     1
102
RTVSPropertyOp30
 70
     1
102
RTVSPropertyOp31
 70
     1
102
RTVSPropertyOp32
 70
     1
102
RTVSPropertyOp33
 70
     1
102
RTVSPropertyOp34
 70
     1
102
RTVSPropertyOp35
 70
     1
102
RTVSPropertyOp36
 70
     1
102
RTVSPropertyOp37
 70
     1
102
RTVSPropertyOp38
 70
     1
102
RTVSPropertyOp39
 70
     1
102
RTVSPropertyOp40
 70
     1
102
RTVSPropertyOp41
 70
     1
102
RTVSPropertyOp42
 70
     1
102
RTVSPropertyOp43
 70
     1
102
RTVSPropertyOp44
 70
     1
102
RTVSPropertyOp45
 70
     1
102
RTVSPropertyOp46
 70
     1
102
RTVSPropertyOp47
 70
     1
102
RTVSPropertyOp48
 70
     1
102
RTVSPropertyOp49
 70
     1
102
RTVSPropertyOp50
 70
     1
102
RTVSPropertyOp51
 70
     0
102
RTVSPropertyOp52
 70
     0
102
RTVSPropertyOp53
 70
     1
102
RTVSPropertyOp54
 70
     1
102
RTVSPropertyOp55
 70
     1
102
RTVSPropertyOp56
 70
     1
102
RTVSPropertyOp57
 70
     1
102
RTVSPropertyOp58
 70
     1
102
RTVSPropertyOp59
 70
     1
102
RTVSPropertyOp60
 70
     1
102
RTVSPropertyOp61
 70
     1
102
RTVSPropertyOp62
 70
     1
  0
XRECORD
  5
73F
102
{ACAD_REACTORS
330
73E
102
}
330
73E
100
AcDbXrecord
280
     1
102
RTVSPost2010Prop28
280
     0
102
RTVSPost2010PropOp28
 70
     1
102
RTVSPost2010Prop29
280
     1
102
RTVSPost2010PropOp29
 70
     1
102
RTVSPost2010Prop30
280
     1
102
RTVSPost2010PropOp30
 70
     1
102
RTVSPost2010Prop31
280
     0
102
RTVSPost2010PropOp31
 70
     1
102
RTVSPost2010Prop32
280
     0
102
RTVSPost2010PropOp32
 70
     1
102
RTVSPost2010Prop33
280
     0
102
RTVSPost2010PropOp33
 70
     1
102
RTVSPost2010Prop34
280
     0
102
RTVSPost2010PropOp34
 70
     1
102
RTVSPost2010Prop35
280
     0
102
RTVSPost2010PropOp35
 70
     1
102
RTVSPost2010Prop36
280
     0
102
RTVSPost2010PropOp36
 70
     1
102
RTVSPost2010Prop37
 90
       50
102
RTVSPost2010PropOp37
 70
     1
102
RTVSPost2010Prop38
140
0.0
102
RTVSPost2010PropOp38
 70
     1
102
RTVSPost2010Prop39
140
1.0
102
RTVSPost2010PropOp39
 70
     1
102
RTVSPost2010Prop40
 90
        0
102
RTVSPost2010PropOp40
 70
     1
102
RTVSPost2010Prop41ColorIndex
 90
       18
102
RTVSPost2010Prop41ColorRGB
 90
        0
102
RTVSPost2010PropOp41
 70
     1
102
RTVSPost2010Prop42
 90
       50
102
RTVSPost2010PropOp42
 70
     1
102
RTVSPost2010Prop43
 90
        3
102
RTVSPost2010PropOp43
 70
     1
102
RTVSPost2010Prop44ColorIndex
 90
        5
102
RTVSPost2010Prop44ColorRGB
 90
      255
102
RTVSPost2010PropOp44
 70
     1
102
RTVSPost2010Prop45
280
     0
102
RTVSPost2010PropOp45
 70
     1
102
RTVSPost2010Prop46
 90
       50
102
RTVSPost2010PropOp46
 70
     1
102
RTVSPost2010Prop47
 90
       50
102
RTVSPost2010PropOp47
 70
     1
102
RTVSPost2010Prop48
 90
       50
102
RTVSPost2010PropOp48
 70
     1
102
RTVSPost2010Prop49
280
     0
102
RTVSPost2010PropOp49
 70
     1
102
RTVSPost2010Prop50
 90
       50
102
RTVSPost2010PropOp50
 70
     1
102
RTVSPost2010Prop51ColorIndex
 90
      256
102
RTVSPost2010Prop51ColorRGB
 90
-16777216
102
RTVSPost2010PropOp51
 70
     0
102
RTVSPost2010Prop52
140
1.0
102
RTVSPost2010PropOp52
 70
     0
102
RTVSPost2010Prop53
 90
        2
102
RTVSPost2010PropOp53
 70
     1
102
RTVSPost2010Prop54
  1
strokes_ogs.tif
102
RTVSPost2010PropOp54
 70
     1
102
RTVSPost2010Prop55
280
     0
102
RTVSPost2010PropOp55
 70
     1
102
RTVSPost2010Prop56
140
1.0
102
RTVSPost2010PropOp56
 70
     1
102
RTVSPost2010Prop57
140
1.0
102
RTVSPost2010PropOp57
 70
     1
102
RTVSPropertyOp0
 70
     1
102
RTVSPropertyOp1
 70
     1
102
RTVSPropertyOp2
 70
     1
102
RTVSPropertyOp3
 70
     1
102
RTVSPropertyOp4
 70
     1
102
RTVSPropertyOp5
 70
     1
102
RTVSPropertyOp6
 70
     1
102
RTVSPropertyOp7
 70
     1
102
RTVSPropertyOp8
 70
     1
102
RTVSPropertyOp9
 70
     1
102
RTVSPropertyOp10
 70
     1
102
RTVSPropertyOp11
 70
     1
102
RTVSPropertyOp12
 70
     1
102
RTVSPropertyOp13
 70
     1
102
RTVSPropertyOp14
 70
     1
102
RTVSPropertyOp15
 70
     1
102
RTVSPropertyOp16
 70
     1
102
RTVSPropertyOp17
 70
     1
102
RTVSPropertyOp18
 70
     1
102
RTVSPropertyOp19
 70
     1
102
RTVSPropertyOp20
 70
     1
102
RTVSPropertyOp21
 70
     1
102
RTVSPropertyOp22
 70
     1
102
RTVSPropertyOp23
 70
     1
102
RTVSPropertyOp24
 70
     1
102
RTVSPropertyOp25
 70
     1
102
RTVSPropertyOp26
 70
     1
102
RTVSPropertyOp27
 70
     1
102
RTVSPropertyOp28
 70
     1
102
RTVSPropertyOp29
 70
     1
102
RTVSPropertyOp30
 70
     1
102
RTVSPropertyOp31
 70
     1
102
RTVSPropertyOp32
 70
     1
102
RTVSPropertyOp33
 70
     1
102
RTVSPropertyOp34
 70
     1
102
RTVSPropertyOp35
 70
     1
102
RTVSPropertyOp36
 70
     1
102
RTVSPropertyOp37
 70
     1
102
RTVSPropertyOp38
 70
     1
102
RTVSPropertyOp39
 70
     1
102
RTVSPropertyOp40
 70
     1
102
RTVSPropertyOp41
 70
     1
102
RTVSPropertyOp42
 70
     1
102
RTVSPropertyOp43
 70
     1
102
RTVSPropertyOp44
 70
     1
102
RTVSPropertyOp45
 70
     1
102
RTVSPropertyOp46
 70
     1
102
RTVSPropertyOp47
 70
     1
102
RTVSPropertyOp48
 70
     1
102
RTVSPropertyOp49
 70
     1
102
RTVSPropertyOp50
 70
     1
102
RTVSPropertyOp51
 70
     0
102
RTVSPropertyOp52
 70
     0
102
RTVSPropertyOp53
 70
     1
102
RTVSPropertyOp54
 70
     1
102
RTVSPropertyOp55
 70
     1
102
RTVSPropertyOp56
 70
     1
102
RTVSPropertyOp57
 70
     1
102
RTVSPropertyOp58
 70
     1
102
RTVSPropertyOp59
 70
     1
102
RTVSPropertyOp60
 70
     1
102
RTVSPropertyOp61
 70
     1
102
RTVSPropertyOp62
 70
     1
  0
XRECORD
  5
743
102
{ACAD_REACTORS
330
742
102
}
330
742
100
AcDbXrecord
280
     1
102
RTVSPost2010Prop28
280
     0
102
RTVSPost2010PropOp28
 70
     1
102
RTVSPost2010Prop29
280
     1
102
RTVSPost2010PropOp29
 70
     1
102
RTVSPost2010Prop30
280
     1
102
RTVSPost2010PropOp30
 70
     1
102
RTVSPost2010Prop31
280
     0
102
RTVSPost2010PropOp31
 70
     1
102
RTVSPost2010Prop32
280
     0
102
RTVSPost2010PropOp32
 70
     1
102
RTVSPost2010Prop33
280
     0
102
RTVSPost2010PropOp33
 70
     1
102
RTVSPost2010Prop34
280
     0
102
RTVSPost2010PropOp34
 70
     1
102
RTVSPost2010Prop35
280
     0
102
RTVSPost2010PropOp35
 70
     1
102
RTVSPost2010Prop36
280
     0
102
RTVSPost2010PropOp36
 70
     1
102
RTVSPost2010Prop37
 90
       50
102
RTVSPost2010PropOp37
 70
     1
102
RTVSPost2010Prop38
140
0.0
102
RTVSPost2010PropOp38
 70
     1
102
RTVSPost2010Prop39
140
1.0
102
RTVSPost2010PropOp39
 70
     1
102
RTVSPost2010Prop40
 90
        0
102
RTVSPost2010PropOp40
 70
     1
102
RTVSPost2010Prop41ColorIndex
 90
       18
102
RTVSPost2010Prop41ColorRGB
 90
        0
102
RTVSPost2010PropOp41
 70
     1
102
RTVSPost2010Prop42
 90
       50
102
RTVSPost2010PropOp42
 70
     1
102
RTVSPost2010Prop43
 90
        3
102
RTVSPost2010PropOp43
 70
     1
102
RTVSPost2010Prop44ColorIndex
 90
        5
102
RTVSPost2010Prop44ColorRGB
 90
      255
102
RTVSPost2010PropOp44
 70
     1
102
RTVSPost2010Prop45
280
     0
102
RTVSPost2010PropOp45
 70
     1
102
RTVSPost2010Prop46
 90
       50
102
RTVSPost2010PropOp46
 70
     1
102
RTVSPost2010Prop47
 90
       50
102
RTVSPost2010PropOp47
 70
     1
102
RTVSPost2010Prop48
 90
       50
102
RTVSPost2010PropOp48
 70
     1
102
RTVSPost2010Prop49
280
     0
102
RTVSPost2010PropOp49
 70
     1
102
RTVSPost2010Prop50
 90
       50
102
RTVSPost2010PropOp50
 70
     1
102
RTVSPost2010Prop51ColorIndex
 90
      256
102
RTVSPost2010Prop51ColorRGB
 90
-16777216
102
RTVSPost2010PropOp51
 70
     0
102
RTVSPost2010Prop52
140
1.0
102
RTVSPost2010PropOp52
 70
     0
102
RTVSPost2010Prop53
 90
        2
102
RTVSPost2010PropOp53
 70
     1
102
RTVSPost2010Prop54
  1
strokes_ogs.tif
102
RTVSPost2010PropOp54
 70
     1
102
RTVSPost2010Prop55
280
     0
102
RTVSPost2010PropOp55
 70
     1
102
RTVSPost2010Prop56
140
1.0
102
RTVSPost2010PropOp56
 70
     1
102
RTVSPost2010Prop57
140
1.0
102
RTVSPost2010PropOp57
 70
     1
102
RTVSPropertyOp0
 70
     1
102
RTVSPropertyOp1
 70
     1
102
RTVSPropertyOp2
 70
     1
102
RTVSPropertyOp3
 70
     1
102
RTVSPropertyOp4
 70
     1
102
RTVSPropertyOp5
 70
     1
102
RTVSPropertyOp6
 70
     1
102
RTVSPropertyOp7
 70
     1
102
RTVSPropertyOp8
 70
     1
102
RTVSPropertyOp9
 70
     1
102
RTVSPropertyOp10
 70
     1
102
RTVSPropertyOp11
 70
     1
102
RTVSPropertyOp12
 70
     1
102
RTVSPropertyOp13
 70
     1
102
RTVSPropertyOp14
 70
     1
102
RTVSPropertyOp15
 70
     1
102
RTVSPropertyOp16
 70
     1
102
RTVSPropertyOp17
 70
     1
102
RTVSPropertyOp18
 70
     1
102
RTVSPropertyOp19
 70
     1
102
RTVSPropertyOp20
 70
     1
102
RTVSPropertyOp21
 70
     1
102
RTVSPropertyOp22
 70
     1
102
RTVSPropertyOp23
 70
     1
102
RTVSPropertyOp24
 70
     1
102
RTVSPropertyOp25
 70
     1
102
RTVSPropertyOp26
 70
     1
102
RTVSPropertyOp27
 70
     1
102
RTVSPropertyOp28
 70
     1
102
RTVSPropertyOp29
 70
     1
102
RTVSPropertyOp30
 70
     1
102
RTVSPropertyOp31
 70
     1
102
RTVSPropertyOp32
 70
     1
102
RTVSPropertyOp33
 70
     1
102
RTVSPropertyOp34
 70
     1
102
RTVSPropertyOp35
 70
     1
102
RTVSPropertyOp36
 70
     1
102
RTVSPropertyOp37
 70
     1
102
RTVSPropertyOp38
 70
     1
102
RTVSPropertyOp39
 70
     1
102
RTVSPropertyOp40
 70
     1
102
RTVSPropertyOp41
 70
     1
102
RTVSPropertyOp42
 70
     1
102
RTVSPropertyOp43
 70
     1
102
RTVSPropertyOp44
 70
     1
102
RTVSPropertyOp45
 70
     1
102
RTVSPropertyOp46
 70
     1
102
RTVSPropertyOp47
 70
     1
102
RTVSPropertyOp48
 70
     1
102
RTVSPropertyOp49
 70
     1
102
RTVSPropertyOp50
 70
     1
102
RTVSPropertyOp51
 70
     0
102
RTVSPropertyOp52
 70
     0
102
RTVSPropertyOp53
 70
     1
102
RTVSPropertyOp54
 70
     1
102
RTVSPropertyOp55
 70
     1
102
RTVSPropertyOp56
 70
     1
102
RTVSPropertyOp57
 70
     1
102
RTVSPropertyOp58
 70
     1
102
RTVSPropertyOp59
 70
     1
102
RTVSPropertyOp60
 70
     1
102
RTVSPropertyOp61
 70
     1
102
RTVSPropertyOp62
 70
     1
  0
XRECORD
  5
75D
102
{ACAD_REACTORS
330
75C
102
}
330
75C
100
AcDbXrecord
280
     1
102
RTVSPost2010Prop28
280
     0
102
RTVSPost2010PropOp28
 70
     1
102
RTVSPost2010Prop29
280
     1
102
RTVSPost2010PropOp29
 70
     1
102
RTVSPost2010Prop30
280
     1
102
RTVSPost2010PropOp30
 70
     1
102
RTVSPost2010Prop31
280
     0
102
RTVSPost2010PropOp31
 70
     1
102
RTVSPost2010Prop32
280
     0
102
RTVSPost2010PropOp32
 70
     1
102
RTVSPost2010Prop33
280
     0
102
RTVSPost2010PropOp33
 70
     1
102
RTVSPost2010Prop34
280
     0
102
RTVSPost2010PropOp34
 70
     1
102
RTVSPost2010Prop35
280
     0
102
RTVSPost2010PropOp35
 70
     1
102
RTVSPost2010Prop36
280
     0
102
RTVSPost2010PropOp36
 70
     1
102
RTVSPost2010Prop37
 90
       50
102
RTVSPost2010PropOp37
 70
     0
102
RTVSPost2010Prop38
140
0.0
102
RTVSPost2010PropOp38
 70
     0
102
RTVSPost2010Prop39
140
1.0
102
RTVSPost2010PropOp39
 70
     0
102
RTVSPost2010Prop40
 90
        0
102
RTVSPost2010PropOp40
 70
     0
102
RTVSPost2010Prop41ColorIndex
 90
       18
102
RTVSPost2010Prop41ColorRGB
 90
        0
102
RTVSPost2010PropOp41
 70
     0
102
RTVSPost2010Prop42
 90
       50
102
RTVSPost2010PropOp42
 70
     0
102
RTVSPost2010Prop43
 90
        3
102
RTVSPost2010PropOp43
 70
     0
102
RTVSPost2010Prop44ColorIndex
 90
        5
102
RTVSPost2010Prop44ColorRGB
 90
      255
102
RTVSPost2010PropOp44
 70
     0
102
RTVSPost2010Prop45
280
     0
102
RTVSPost2010PropOp45
 70
     1
102
RTVSPost2010Prop46
 90
       50
102
RTVSPost2010PropOp46
 70
     0
102
RTVSPost2010Prop47
 90
       50
102
RTVSPost2010PropOp47
 70
     0
102
RTVSPost2010Prop48
 90
       50
102
RTVSPost2010PropOp48
 70
     0
102
RTVSPost2010Prop49
280
     0
102
RTVSPost2010PropOp49
 70
     1
102
RTVSPost2010Prop50
 90
       50
102
RTVSPost2010PropOp50
 70
     0
102
RTVSPost2010Prop51ColorIndex
 90
      256
102
RTVSPost2010Prop51ColorRGB
 90
-16777216
102
RTVSPost2010PropOp51
 70
     0
102
RTVSPost2010Prop52
140
1.0
102
RTVSPost2010PropOp52
 70
     0
102
RTVSPost2010Prop53
 90
        2
102
RTVSPost2010PropOp53
 70
     0
102
RTVSPost2010Prop54
  1
strokes_ogs.tif
102
RTVSPost2010PropOp54
 70
     0
102
RTVSPost2010Prop55
280
     0
102
RTVSPost2010PropOp55
 70
     1
102
RTVSPost2010Prop56
140
1.0
102
RTVSPost2010PropOp56
 70
     0
102
RTVSPost2010Prop57
140
1.0
102
RTVSPost2010PropOp57
 70
     0
102
RTVSPropertyOp0
 70
     0
102
RTVSPropertyOp1
 70
     0
102
RTVSPropertyOp2
 70
     0
102
RTVSPropertyOp3
 70
     0
102
RTVSPropertyOp4
 70
     0
102
RTVSPropertyOp5
 70
     0
102
RTVSPropertyOp6
 70
     0
102
RTVSPropertyOp7
 70
     0
102
RTVSPropertyOp8
 70
     0
102
RTVSPropertyOp9
 70
     0
102
RTVSPropertyOp10
 70
     0
102
RTVSPropertyOp11
 70
     0
102
RTVSPropertyOp12
 70
     0
102
RTVSPropertyOp13
 70
     0
102
RTVSPropertyOp14
 70
     2
102
RTVSPropertyOp15
 70
     0
102
RTVSPropertyOp16
 70
     0
102
RTVSPropertyOp17
 70
     0
102
RTVSPropertyOp18
 70
     0
102
RTVSPropertyOp19
 70
     0
102
RTVSPropertyOp20
 70
     0
102
RTVSPropertyOp21
 70
     0
102
RTVSPropertyOp22
 70
     0
102
RTVSPropertyOp23
 70
     0
102
RTVSPropertyOp24
 70
     0
102
RTVSPropertyOp25
 70
     0
102
RTVSPropertyOp26
 70
     0
102
RTVSPropertyOp27
 70
     0
102
RTVSPropertyOp28
 70
     1
102
RTVSPropertyOp29
 70
     1
102
RTVSPropertyOp30
 70
     1
102
RTVSPropertyOp31
 70
     1
102
RTVSPropertyOp32
 70
     1
102
RTVSPropertyOp33
 70
     1
102
RTVSPropertyOp34
 70
     1
102
RTVSPropertyOp35
 70
     1
102
RTVSPropertyOp36
 70
     1
102
RTVSPropertyOp37
 70
     0
102
RTVSPropertyOp38
 70
     0
102
RTVSPropertyOp39
 70
     0
102
RTVSPropertyOp40
 70
     0
102
RTVSPropertyOp41
 70
     0
102
RTVSPropertyOp42
 70
     0
102
RTVSPropertyOp43
 70
     0
102
RTVSPropertyOp44
 70
     0
102
RTVSPropertyOp45
 70
     1
102
RTVSPropertyOp46
 70
     0
102
RTVSPropertyOp47
 70
     0
102
RTVSPropertyOp48
 70
     0
102
RTVSPropertyOp49
 70
     1
102
RTVSPropertyOp50
 70
     0
102
RTVSPropertyOp51
 70
     0
102
RTVSPropertyOp52
 70
     0
102
RTVSPropertyOp53
 70
     0
102
RTVSPropertyOp54
 70
     0
102
RTVSPropertyOp55
 70
     1
102
RTVSPropertyOp56
 70
     0
102
RTVSPropertyOp57
 70
     0
102
RTVSPropertyOp58
 70
     0
102
RTVSPropertyOp59
 70
     0
102
RTVSPropertyOp60
 70
     0
102
RTVSPropertyOp61
 70
     0
102
RTVSPropertyOp62
 70
     0
  0
XRECORD
  5
74B
102
{ACAD_REACTORS
330
74A
102
}
330
74A
100
AcDbXrecord
280
     1
102
RTVSPost2010Prop28
280
     0
102
RTVSPost2010PropOp28
 70
     1
102
RTVSPost2010Prop29
280
     1
102
RTVSPost2010PropOp29
 70
     1
102
RTVSPost2010Prop30
280
     1
102
RTVSPost2010PropOp30
 70
     1
102
RTVSPost2010Prop31
280
     0
102
RTVSPost2010PropOp31
 70
     1
102
RTVSPost2010Prop32
280
     0
102
RTVSPost2010PropOp32
 70
     1
102
RTVSPost2010Prop33
280
     0
102
RTVSPost2010PropOp33
 70
     1
102
RTVSPost2010Prop34
280
     0
102
RTVSPost2010PropOp34
 70
     1
102
RTVSPost2010Prop35
280
     0
102
RTVSPost2010PropOp35
 70
     1
102
RTVSPost2010Prop36
280
     0
102
RTVSPost2010PropOp36
 70
     1
102
RTVSPost2010Prop37
 90
       50
102
RTVSPost2010PropOp37
 70
     1
102
RTVSPost2010Prop38
140
0.0
102
RTVSPost2010PropOp38
 70
     1
102
RTVSPost2010Prop39
140
1.0
102
RTVSPost2010PropOp39
 70
     1
102
RTVSPost2010Prop40
 90
        0
102
RTVSPost2010PropOp40
 70
     1
102
RTVSPost2010Prop41ColorIndex
 90
       18
102
RTVSPost2010Prop41ColorRGB
 90
        0
102
RTVSPost2010PropOp41
 70
     1
102
RTVSPost2010Prop42
 90
       50
102
RTVSPost2010PropOp42
 70
     1
102
RTVSPost2010Prop43
 90
        3
102
RTVSPost2010PropOp43
 70
     1
102
RTVSPost2010Prop44ColorIndex
 90
        5
102
RTVSPost2010Prop44ColorRGB
 90
      255
102
RTVSPost2010PropOp44
 70
     1
102
RTVSPost2010Prop45
280
     0
102
RTVSPost2010PropOp45
 70
     1
102
RTVSPost2010Prop46
 90
       50
102
RTVSPost2010PropOp46
 70
     1
102
RTVSPost2010Prop47
 90
       50
102
RTVSPost2010PropOp47
 70
     1
102
RTVSPost2010Prop48
 90
       50
102
RTVSPost2010PropOp48
 70
     1
102
RTVSPost2010Prop49
280
     0
102
RTVSPost2010PropOp49
 70
     1
102
RTVSPost2010Prop50
 90
       50
102
RTVSPost2010PropOp50
 70
     1
102
RTVSPost2010Prop51ColorIndex
 90
      256
102
RTVSPost2010Prop51ColorRGB
 90
-16777216
102
RTVSPost2010PropOp51
 70
     0
102
RTVSPost2010Prop52
140
1.0
102
RTVSPost2010PropOp52
 70
     0
102
RTVSPost2010Prop53
 90
        2
102
RTVSPost2010PropOp53
 70
     1
102
RTVSPost2010Prop54
  1
strokes_ogs.tif
102
RTVSPost2010PropOp54
 70
     1
102
RTVSPost2010Prop55
280
     0
102
RTVSPost2010PropOp55
 70
     1
102
RTVSPost2010Prop56
140
1.0
102
RTVSPost2010PropOp56
 70
     1
102
RTVSPost2010Prop57
140
1.0
102
RTVSPost2010PropOp57
 70
     1
102
RTVSPropertyOp0
 70
     1
102
RTVSPropertyOp1
 70
     1
102
RTVSPropertyOp2
 70
     1
102
RTVSPropertyOp3
 70
     1
102
RTVSPropertyOp4
 70
     1
102
RTVSPropertyOp5
 70
     1
102
RTVSPropertyOp6
 70
     1
102
RTVSPropertyOp7
 70
     1
102
RTVSPropertyOp8
 70
     1
102
RTVSPropertyOp9
 70
     1
102
RTVSPropertyOp10
 70
     1
102
RTVSPropertyOp11
 70
     1
102
RTVSPropertyOp12
 70
     1
102
RTVSPropertyOp13
 70
     1
102
RTVSPropertyOp14
 70
     1
102
RTVSPropertyOp15
 70
     1
102
RTVSPropertyOp16
 70
     1
102
RTVSPropertyOp17
 70
     1
102
RTVSPropertyOp18
 70
     1
102
RTVSPropertyOp19
 70
     1
102
RTVSPropertyOp20
 70
     1
102
RTVSPropertyOp21
 70
     1
102
RTVSPropertyOp22
 70
     1
102
RTVSPropertyOp23
 70
     1
102
RTVSPropertyOp24
 70
     1
102
RTVSPropertyOp25
 70
     1
102
RTVSPropertyOp26
 70
     1
102
RTVSPropertyOp27
 70
     1
102
RTVSPropertyOp28
 70
     1
102
RTVSPropertyOp29
 70
     1
102
RTVSPropertyOp30
 70
     1
102
RTVSPropertyOp31
 70
     1
102
RTVSPropertyOp32
 70
     1
102
RTVSPropertyOp33
 70
     1
102
RTVSPropertyOp34
 70
     1
102
RTVSPropertyOp35
 70
     1
102
RTVSPropertyOp36
 70
     1
102
RTVSPropertyOp37
 70
     1
102
RTVSPropertyOp38
 70
     1
102
RTVSPropertyOp39
 70
     1
102
RTVSPropertyOp40
 70
     1
102
RTVSPropertyOp41
 70
     1
102
RTVSPropertyOp42
 70
     1
102
RTVSPropertyOp43
 70
     1
102
RTVSPropertyOp44
 70
     1
102
RTVSPropertyOp45
 70
     1
102
RTVSPropertyOp46
 70
     1
102
RTVSPropertyOp47
 70
     1
102
RTVSPropertyOp48
 70
     1
102
RTVSPropertyOp49
 70
     1
102
RTVSPropertyOp50
 70
     1
102
RTVSPropertyOp51
 70
     0
102
RTVSPropertyOp52
 70
     0
102
RTVSPropertyOp53
 70
     1
102
RTVSPropertyOp54
 70
     1
102
RTVSPropertyOp55
 70
     1
102
RTVSPropertyOp56
 70
     1
102
RTVSPropertyOp57
 70
     1
102
RTVSPropertyOp58
 70
     1
102
RTVSPropertyOp59
 70
     1
102
RTVSPropertyOp60
 70
     1
102
RTVSPropertyOp61
 70
     1
102
RTVSPropertyOp62
 70
     1
  0
XRECORD
  5
72F
102
{ACAD_REACTORS
330
72E
102
}
330
72E
100
AcDbXrecord
280
     1
102
RTVSPost2010Prop28
280
     0
102
RTVSPost2010PropOp28
 70
     1
102
RTVSPost2010Prop29
280
     1
102
RTVSPost2010PropOp29
 70
     1
102
RTVSPost2010Prop30
280
     1
102
RTVSPost2010PropOp30
 70
     1
102
RTVSPost2010Prop31
280
     0
102
RTVSPost2010PropOp31
 70
     1
102
RTVSPost2010Prop32
280
     0
102
RTVSPost2010PropOp32
 70
     1
102
RTVSPost2010Prop33
280
     0
102
RTVSPost2010PropOp33
 70
     1
102
RTVSPost2010Prop34
280
     0
102
RTVSPost2010PropOp34
 70
     1
102
RTVSPost2010Prop35
280
     0
102
RTVSPost2010PropOp35
 70
     1
102
RTVSPost2010Prop36
280
     0
102
RTVSPost2010PropOp36
 70
     1
102
RTVSPost2010Prop37
 90
       50
102
RTVSPost2010PropOp37
 70
     1
102
RTVSPost2010Prop38
140
0.0
102
RTVSPost2010PropOp38
 70
     1
102
RTVSPost2010Prop39
140
1.0
102
RTVSPost2010PropOp39
 70
     1
102
RTVSPost2010Prop40
 90
        0
102
RTVSPost2010PropOp40
 70
     1
102
RTVSPost2010Prop41ColorIndex
 90
       18
102
RTVSPost2010Prop41ColorRGB
 90
        0
102
RTVSPost2010PropOp41
 70
     1
102
RTVSPost2010Prop42
 90
       50
102
RTVSPost2010PropOp42
 70
     1
102
RTVSPost2010Prop43
 90
        3
102
RTVSPost2010PropOp43
 70
     1
102
RTVSPost2010Prop44ColorIndex
 90
        5
102
RTVSPost2010Prop44ColorRGB
 90
      255
102
RTVSPost2010PropOp44
 70
     1
102
RTVSPost2010Prop45
280
     0
102
RTVSPost2010PropOp45
 70
     1
102
RTVSPost2010Prop46
 90
       50
102
RTVSPost2010PropOp46
 70
     1
102
RTVSPost2010Prop47
 90
       50
102
RTVSPost2010PropOp47
 70
     1
102
RTVSPost2010Prop48
 90
       50
102
RTVSPost2010PropOp48
 70
     1
102
RTVSPost2010Prop49
280
     0
102
RTVSPost2010PropOp49
 70
     1
102
RTVSPost2010Prop50
 90
       50
102
RTVSPost2010PropOp50
 70
     1
102
RTVSPost2010Prop51ColorIndex
 90
      256
102
RTVSPost2010Prop51ColorRGB
 90
-16777216
102
RTVSPost2010PropOp51
 70
     0
102
RTVSPost2010Prop52
140
1.0
102
RTVSPost2010PropOp52
 70
     0
102
RTVSPost2010Prop53
 90
        2
102
RTVSPost2010PropOp53
 70
     1
102
RTVSPost2010Prop54
  1
strokes_ogs.tif
102
RTVSPost2010PropOp54
 70
     1
102
RTVSPost2010Prop55
280
     0
102
RTVSPost2010PropOp55
 70
     1
102
RTVSPost2010Prop56
140
1.0
102
RTVSPost2010PropOp56
 70
     1
102
RTVSPost2010Prop57
140
1.0
102
RTVSPost2010PropOp57
 70
     1
102
RTVSPropertyOp0
 70
     1
102
RTVSPropertyOp1
 70
     1
102
RTVSPropertyOp2
 70
     1
102
RTVSPropertyOp3
 70
     1
102
RTVSPropertyOp4
 70
     1
102
RTVSPropertyOp5
 70
     1
102
RTVSPropertyOp6
 70
     1
102
RTVSPropertyOp7
 70
     1
102
RTVSPropertyOp8
 70
     1
102
RTVSPropertyOp9
 70
     1
102
RTVSPropertyOp10
 70
     1
102
RTVSPropertyOp11
 70
     1
102
RTVSPropertyOp12
 70
     1
102
RTVSPropertyOp13
 70
     1
102
RTVSPropertyOp14
 70
     1
102
RTVSPropertyOp15
 70
     1
102
RTVSPropertyOp16
 70
     1
102
RTVSPropertyOp17
 70
     1
102
RTVSPropertyOp18
 70
     1
102
RTVSPropertyOp19
 70
     1
102
RTVSPropertyOp20
 70
     1
102
RTVSPropertyOp21
 70
     1
102
RTVSPropertyOp22
 70
     1
102
RTVSPropertyOp23
 70
     1
102
RTVSPropertyOp24
 70
     1
102
RTVSPropertyOp25
 70
     1
102
RTVSPropertyOp26
 70
     1
102
RTVSPropertyOp27
 70
     1
102
RTVSPropertyOp28
 70
     1
102
RTVSPropertyOp29
 70
     1
102
RTVSPropertyOp30
 70
     1
102
RTVSPropertyOp31
 70
     1
102
RTVSPropertyOp32
 70
     1
102
RTVSPropertyOp33
 70
     1
102
RTVSPropertyOp34
 70
     1
102
RTVSPropertyOp35
 70
     1
102
RTVSPropertyOp36
 70
     1
102
RTVSPropertyOp37
 70
     1
102
RTVSPropertyOp38
 70
     1
102
RTVSPropertyOp39
 70
     1
102
RTVSPropertyOp40
 70
     1
102
RTVSPropertyOp41
 70
     1
102
RTVSPropertyOp42
 70
     1
102
RTVSPropertyOp43
 70
     1
102
RTVSPropertyOp44
 70
     1
102
RTVSPropertyOp45
 70
     1
102
RTVSPropertyOp46
 70
     1
102
RTVSPropertyOp47
 70
     1
102
RTVSPropertyOp48
 70
     1
102
RTVSPropertyOp49
 70
     1
102
RTVSPropertyOp50
 70
     1
102
RTVSPropertyOp51
 70
     0
102
RTVSPropertyOp52
 70
     0
102
RTVSPropertyOp53
 70
     1
102
RTVSPropertyOp54
 70
     1
102
RTVSPropertyOp55
 70
     1
102
RTVSPropertyOp56
 70
     1
102
RTVSPropertyOp57
 70
     1
102
RTVSPropertyOp58
 70
     1
102
RTVSPropertyOp59
 70
     1
102
RTVSPropertyOp60
 70
     1
102
RTVSPropertyOp61
 70
     1
102
RTVSPropertyOp62
 70
     1
  0
XRECORD
  5
731
102
{ACAD_REACTORS
330
730
102
}
330
730
100
AcDbXrecord
280
     1
102
RTVSPost2010Prop28
280
     0
102
RTVSPost2010PropOp28
 70
     1
102
RTVSPost2010Prop29
280
     1
102
RTVSPost2010PropOp29
 70
     1
102
RTVSPost2010Prop30
280
     1
102
RTVSPost2010PropOp30
 70
     1
102
RTVSPost2010Prop31
280
     0
102
RTVSPost2010PropOp31
 70
     1
102
RTVSPost2010Prop32
280
     0
102
RTVSPost2010PropOp32
 70
     1
102
RTVSPost2010Prop33
280
     0
102
RTVSPost2010PropOp33
 70
     1
102
RTVSPost2010Prop34
280
     0
102
RTVSPost2010PropOp34
 70
     1
102
RTVSPost2010Prop35
280
     0
102
RTVSPost2010PropOp35
 70
     1
102
RTVSPost2010Prop36
280
     0
102
RTVSPost2010PropOp36
 70
     1
102
RTVSPost2010Prop37
 90
       50
102
RTVSPost2010PropOp37
 70
     1
102
RTVSPost2010Prop38
140
0.0
102
RTVSPost2010PropOp38
 70
     1
102
RTVSPost2010Prop39
140
1.0
102
RTVSPost2010PropOp39
 70
     1
102
RTVSPost2010Prop40
 90
        0
102
RTVSPost2010PropOp40
 70
     1
102
RTVSPost2010Prop41ColorIndex
 90
       18
102
RTVSPost2010Prop41ColorRGB
 90
        0
102
RTVSPost2010PropOp41
 70
     1
102
RTVSPost2010Prop42
 90
       50
102
RTVSPost2010PropOp42
 70
     1
102
RTVSPost2010Prop43
 90
        3
102
RTVSPost2010PropOp43
 70
     1
102
RTVSPost2010Prop44ColorIndex
 90
        5
102
RTVSPost2010Prop44ColorRGB
 90
      255
102
RTVSPost2010PropOp44
 70
     1
102
RTVSPost2010Prop45
280
     0
102
RTVSPost2010PropOp45
 70
     1
102
RTVSPost2010Prop46
 90
       50
102
RTVSPost2010PropOp46
 70
     1
102
RTVSPost2010Prop47
 90
       50
102
RTVSPost2010PropOp47
 70
     1
102
RTVSPost2010Prop48
 90
       50
102
RTVSPost2010PropOp48
 70
     1
102
RTVSPost2010Prop49
280
     0
102
RTVSPost2010PropOp49
 70
     1
102
RTVSPost2010Prop50
 90
       50
102
RTVSPost2010PropOp50
 70
     1
102
RTVSPost2010Prop51ColorIndex
 90
      256
102
RTVSPost2010Prop51ColorRGB
 90
-16777216
102
RTVSPost2010PropOp51
 70
     0
102
RTVSPost2010Prop52
140
1.0
102
RTVSPost2010PropOp52
 70
     0
102
RTVSPost2010Prop53
 90
        2
102
RTVSPost2010PropOp53
 70
     1
102
RTVSPost2010Prop54
  1
strokes_ogs.tif
102
RTVSPost2010PropOp54
 70
     1
102
RTVSPost2010Prop55
280
     0
102
RTVSPost2010PropOp55
 70
     1
102
RTVSPost2010Prop56
140
1.0
102
RTVSPost2010PropOp56
 70
     1
102
RTVSPost2010Prop57
140
1.0
102
RTVSPost2010PropOp57
 70
     1
102
RTVSPropertyOp0
 70
     1
102
RTVSPropertyOp1
 70
     1
102
RTVSPropertyOp2
 70
     1
102
RTVSPropertyOp3
 70
     1
102
RTVSPropertyOp4
 70
     1
102
RTVSPropertyOp5
 70
     1
102
RTVSPropertyOp6
 70
     1
102
RTVSPropertyOp7
 70
     1
102
RTVSPropertyOp8
 70
     1
102
RTVSPropertyOp9
 70
     1
102
RTVSPropertyOp10
 70
     1
102
RTVSPropertyOp11
 70
     1
102
RTVSPropertyOp12
 70
     1
102
RTVSPropertyOp13
 70
     1
102
RTVSPropertyOp14
 70
     1
102
RTVSPropertyOp15
 70
     1
102
RTVSPropertyOp16
 70
     1
102
RTVSPropertyOp17
 70
     1
102
RTVSPropertyOp18
 70
     1
102
RTVSPropertyOp19
 70
     1
102
RTVSPropertyOp20
 70
     1
102
RTVSPropertyOp21
 70
     1
102
RTVSPropertyOp22
 70
     1
102
RTVSPropertyOp23
 70
     1
102
RTVSPropertyOp24
 70
     1
102
RTVSPropertyOp25
 70
     1
102
RTVSPropertyOp26
 70
     1
102
RTVSPropertyOp27
 70
     1
102
RTVSPropertyOp28
 70
     1
102
RTVSPropertyOp29
 70
     1
102
RTVSPropertyOp30
 70
     1
102
RTVSPropertyOp31
 70
     1
102
RTVSPropertyOp32
 70
     1
102
RTVSPropertyOp33
 70
     1
102
RTVSPropertyOp34
 70
     1
102
RTVSPropertyOp35
 70
     1
102
RTVSPropertyOp36
 70
     1
102
RTVSPropertyOp37
 70
     1
102
RTVSPropertyOp38
 70
     1
102
RTVSPropertyOp39
 70
     1
102
RTVSPropertyOp40
 70
     1
102
RTVSPropertyOp41
 70
     1
102
RTVSPropertyOp42
 70
     1
102
RTVSPropertyOp43
 70
     1
102
RTVSPropertyOp44
 70
     1
102
RTVSPropertyOp45
 70
     1
102
RTVSPropertyOp46
 70
     1
102
RTVSPropertyOp47
 70
     1
102
RTVSPropertyOp48
 70
     1
102
RTVSPropertyOp49
 70
     1
102
RTVSPropertyOp50
 70
     1
102
RTVSPropertyOp51
 70
     0
102
RTVSPropertyOp52
 70
     0
102
RTVSPropertyOp53
 70
     1
102
RTVSPropertyOp54
 70
     1
102
RTVSPropertyOp55
 70
     1
102
RTVSPropertyOp56
 70
     1
102
RTVSPropertyOp57
 70
     1
102
RTVSPropertyOp58
 70
     1
102
RTVSPropertyOp59
 70
     1
102
RTVSPropertyOp60
 70
     1
102
RTVSPropertyOp61
 70
     1
102
RTVSPropertyOp62
 70
     1
  0
XRECORD
  5
733
102
{ACAD_REACTORS
330
732
102
}
330
732
100
AcDbXrecord
280
     1
102
RTVSPost2010Prop28
280
     0
102
RTVSPost2010PropOp28
 70
     1
102
RTVSPost2010Prop29
280
     1
102
RTVSPost2010PropOp29
 70
     1
102
RTVSPost2010Prop30
280
     1
102
RTVSPost2010PropOp30
 70
     1
102
RTVSPost2010Prop31
280
     0
102
RTVSPost2010PropOp31
 70
     1
102
RTVSPost2010Prop32
280
     0
102
RTVSPost2010PropOp32
 70
     1
102
RTVSPost2010Prop33
280
     0
102
RTVSPost2010PropOp33
 70
     1
102
RTVSPost2010Prop34
280
     0
102
RTVSPost2010PropOp34
 70
     1
102
RTVSPost2010Prop35
280
     0
102
RTVSPost2010PropOp35
 70
     1
102
RTVSPost2010Prop36
280
     0
102
RTVSPost2010PropOp36
 70
     1
102
RTVSPost2010Prop37
 90
       50
102
RTVSPost2010PropOp37
 70
     1
102
RTVSPost2010Prop38
140
0.0
102
RTVSPost2010PropOp38
 70
     1
102
RTVSPost2010Prop39
140
1.0
102
RTVSPost2010PropOp39
 70
     1
102
RTVSPost2010Prop40
 90
        0
102
RTVSPost2010PropOp40
 70
     1
102
RTVSPost2010Prop41ColorIndex
 90
       18
102
RTVSPost2010Prop41ColorRGB
 90
        0
102
RTVSPost2010PropOp41
 70
     1
102
RTVSPost2010Prop42
 90
       50
102
RTVSPost2010PropOp42
 70
     1
102
RTVSPost2010Prop43
 90
        3
102
RTVSPost2010PropOp43
 70
     1
102
RTVSPost2010Prop44ColorIndex
 90
        5
102
RTVSPost2010Prop44ColorRGB
 90
      255
102
RTVSPost2010PropOp44
 70
     1
102
RTVSPost2010Prop45
280
     0
102
RTVSPost2010PropOp45
 70
     1
102
RTVSPost2010Prop46
 90
       50
102
RTVSPost2010PropOp46
 70
     1
102
RTVSPost2010Prop47
 90
       50
102
RTVSPost2010PropOp47
 70
     1
102
RTVSPost2010Prop48
 90
       50
102
RTVSPost2010PropOp48
 70
     1
102
RTVSPost2010Prop49
280
     0
102
RTVSPost2010PropOp49
 70
     1
102
RTVSPost2010Prop50
 90
       50
102
RTVSPost2010PropOp50
 70
     1
102
RTVSPost2010Prop51ColorIndex
 90
      256
102
RTVSPost2010Prop51ColorRGB
 90
-16777216
102
RTVSPost2010PropOp51
 70
     0
102
RTVSPost2010Prop52
140
1.0
102
RTVSPost2010PropOp52
 70
     0
102
RTVSPost2010Prop53
 90
        2
102
RTVSPost2010PropOp53
 70
     1
102
RTVSPost2010Prop54
  1
strokes_ogs.tif
102
RTVSPost2010PropOp54
 70
     1
102
RTVSPost2010Prop55
280
     0
102
RTVSPost2010PropOp55
 70
     1
102
RTVSPost2010Prop56
140
1.0
102
RTVSPost2010PropOp56
 70
     1
102
RTVSPost2010Prop57
140
1.0
102
RTVSPost2010PropOp57
 70
     1
102
RTVSPropertyOp0
 70
     1
102
RTVSPropertyOp1
 70
     1
102
RTVSPropertyOp2
 70
     1
102
RTVSPropertyOp3
 70
     1
102
RTVSPropertyOp4
 70
     1
102
RTVSPropertyOp5
 70
     1
102
RTVSPropertyOp6
 70
     1
102
RTVSPropertyOp7
 70
     1
102
RTVSPropertyOp8
 70
     1
102
RTVSPropertyOp9
 70
     1
102
RTVSPropertyOp10
 70
     1
102
RTVSPropertyOp11
 70
     1
102
RTVSPropertyOp12
 70
     1
102
RTVSPropertyOp13
 70
     1
102
RTVSPropertyOp14
 70
     1
102
RTVSPropertyOp15
 70
     1
102
RTVSPropertyOp16
 70
     1
102
RTVSPropertyOp17
 70
     1
102
RTVSPropertyOp18
 70
     1
102
RTVSPropertyOp19
 70
     1
102
RTVSPropertyOp20
 70
     1
102
RTVSPropertyOp21
 70
     1
102
RTVSPropertyOp22
 70
     1
102
RTVSPropertyOp23
 70
     1
102
RTVSPropertyOp24
 70
     1
102
RTVSPropertyOp25
 70
     1
102
RTVSPropertyOp26
 70
     1
102
RTVSPropertyOp27
 70
     1
102
RTVSPropertyOp28
 70
     1
102
RTVSPropertyOp29
 70
     1
102
RTVSPropertyOp30
 70
     1
102
RTVSPropertyOp31
 70
     1
102
RTVSPropertyOp32
 70
     1
102
RTVSPropertyOp33
 70
     1
102
RTVSPropertyOp34
 70
     1
102
RTVSPropertyOp35
 70
     1
102
RTVSPropertyOp36
 70
     1
102
RTVSPropertyOp37
 70
     1
102
RTVSPropertyOp38
 70
     1
102
RTVSPropertyOp39
 70
     1
102
RTVSPropertyOp40
 70
     1
102
RTVSPropertyOp41
 70
     1
102
RTVSPropertyOp42
 70
     1
102
RTVSPropertyOp43
 70
     1
102
RTVSPropertyOp44
 70
     1
102
RTVSPropertyOp45
 70
     1
102
RTVSPropertyOp46
 70
     1
102
RTVSPropertyOp47
 70
     1
102
RTVSPropertyOp48
 70
     1
102
RTVSPropertyOp49
 70
     1
102
RTVSPropertyOp50
 70
     1
102
RTVSPropertyOp51
 70
     0
102
RTVSPropertyOp52
 70
     0
102
RTVSPropertyOp53
 70
     1
102
RTVSPropertyOp54
 70
     1
102
RTVSPropertyOp55
 70
     1
102
RTVSPropertyOp56
 70
     1
102
RTVSPropertyOp57
 70
     1
102
RTVSPropertyOp58
 70
     1
102
RTVSPropertyOp59
 70
     1
102
RTVSPropertyOp60
 70
     1
102
RTVSPropertyOp61
 70
     1
102
RTVSPropertyOp62
 70
     1
  0
XRECORD
  5
735
102
{ACAD_REACTORS
330
734
102
}
330
734
100
AcDbXrecord
280
     1
102
RTVSPost2010Prop28
280
     0
102
RTVSPost2010PropOp28
 70
     1
102
RTVSPost2010Prop29
280
     1
102
RTVSPost2010PropOp29
 70
     1
102
RTVSPost2010Prop30
280
     1
102
RTVSPost2010PropOp30
 70
     1
102
RTVSPost2010Prop31
280
     0
102
RTVSPost2010PropOp31
 70
     1
102
RTVSPost2010Prop32
280
     0
102
RTVSPost2010PropOp32
 70
     1
102
RTVSPost2010Prop33
280
     0
102
RTVSPost2010PropOp33
 70
     1
102
RTVSPost2010Prop34
280
     0
102
RTVSPost2010PropOp34
 70
     1
102
RTVSPost2010Prop35
280
     0
102
RTVSPost2010PropOp35
 70
     1
102
RTVSPost2010Prop36
280
     0
102
RTVSPost2010PropOp36
 70
     1
102
RTVSPost2010Prop37
 90
       50
102
RTVSPost2010PropOp37
 70
     1
102
RTVSPost2010Prop38
140
0.0
102
RTVSPost2010PropOp38
 70
     1
102
RTVSPost2010Prop39
140
1.0
102
RTVSPost2010PropOp39
 70
     1
102
RTVSPost2010Prop40
 90
        0
102
RTVSPost2010PropOp40
 70
     1
102
RTVSPost2010Prop41ColorIndex
 90
       18
102
RTVSPost2010Prop41ColorRGB
 90
        0
102
RTVSPost2010PropOp41
 70
     1
102
RTVSPost2010Prop42
 90
       50
102
RTVSPost2010PropOp42
 70
     1
102
RTVSPost2010Prop43
 90
        3
102
RTVSPost2010PropOp43
 70
     1
102
RTVSPost2010Prop44ColorIndex
 90
        5
102
RTVSPost2010Prop44ColorRGB
 90
      255
102
RTVSPost2010PropOp44
 70
     1
102
RTVSPost2010Prop45
280
     0
102
RTVSPost2010PropOp45
 70
     1
102
RTVSPost2010Prop46
 90
       50
102
RTVSPost2010PropOp46
 70
     1
102
RTVSPost2010Prop47
 90
       50
102
RTVSPost2010PropOp47
 70
     1
102
RTVSPost2010Prop48
 90
       50
102
RTVSPost2010PropOp48
 70
     1
102
RTVSPost2010Prop49
280
     0
102
RTVSPost2010PropOp49
 70
     1
102
RTVSPost2010Prop50
 90
       50
102
RTVSPost2010PropOp50
 70
     1
102
RTVSPost2010Prop51ColorIndex
 90
      256
102
RTVSPost2010Prop51ColorRGB
 90
-16777216
102
RTVSPost2010PropOp51
 70
     0
102
RTVSPost2010Prop52
140
1.0
102
RTVSPost2010PropOp52
 70
     0
102
RTVSPost2010Prop53
 90
        2
102
RTVSPost2010PropOp53
 70
     1
102
RTVSPost2010Prop54
  1
strokes_ogs.tif
102
RTVSPost2010PropOp54
 70
     1
102
RTVSPost2010Prop55
280
     0
102
RTVSPost2010PropOp55
 70
     1
102
RTVSPost2010Prop56
140
1.0
102
RTVSPost2010PropOp56
 70
     1
102
RTVSPost2010Prop57
140
1.0
102
RTVSPost2010PropOp57
 70
     1
102
RTVSPropertyOp0
 70
     1
102
RTVSPropertyOp1
 70
     1
102
RTVSPropertyOp2
 70
     1
102
RTVSPropertyOp3
 70
     1
102
RTVSPropertyOp4
 70
     1
102
RTVSPropertyOp5
 70
     1
102
RTVSPropertyOp6
 70
     1
102
RTVSPropertyOp7
 70
     1
102
RTVSPropertyOp8
 70
     1
102
RTVSPropertyOp9
 70
     1
102
RTVSPropertyOp10
 70
     1
102
RTVSPropertyOp11
 70
     1
102
RTVSPropertyOp12
 70
     1
102
RTVSPropertyOp13
 70
     1
102
RTVSPropertyOp14
 70
     1
102
RTVSPropertyOp15
 70
     1
102
RTVSPropertyOp16
 70
     1
102
RTVSPropertyOp17
 70
     1
102
RTVSPropertyOp18
 70
     1
102
RTVSPropertyOp19
 70
     1
102
RTVSPropertyOp20
 70
     1
102
RTVSPropertyOp21
 70
     1
102
RTVSPropertyOp22
 70
     1
102
RTVSPropertyOp23
 70
     1
102
RTVSPropertyOp24
 70
     1
102
RTVSPropertyOp25
 70
     1
102
RTVSPropertyOp26
 70
     1
102
RTVSPropertyOp27
 70
     1
102
RTVSPropertyOp28
 70
     1
102
RTVSPropertyOp29
 70
     1
102
RTVSPropertyOp30
 70
     1
102
RTVSPropertyOp31
 70
     1
102
RTVSPropertyOp32
 70
     1
102
RTVSPropertyOp33
 70
     1
102
RTVSPropertyOp34
 70
     1
102
RTVSPropertyOp35
 70
     1
102
RTVSPropertyOp36
 70
     1
102
RTVSPropertyOp37
 70
     1
102
RTVSPropertyOp38
 70
     1
102
RTVSPropertyOp39
 70
     1
102
RTVSPropertyOp40
 70
     1
102
RTVSPropertyOp41
 70
     1
102
RTVSPropertyOp42
 70
     1
102
RTVSPropertyOp43
 70
     1
102
RTVSPropertyOp44
 70
     1
102
RTVSPropertyOp45
 70
     1
102
RTVSPropertyOp46
 70
     1
102
RTVSPropertyOp47
 70
     1
102
RTVSPropertyOp48
 70
     1
102
RTVSPropertyOp49
 70
     1
102
RTVSPropertyOp50
 70
     1
102
RTVSPropertyOp51
 70
     0
102
RTVSPropertyOp52
 70
     0
102
RTVSPropertyOp53
 70
     1
102
RTVSPropertyOp54
 70
     1
102
RTVSPropertyOp55
 70
     1
102
RTVSPropertyOp56
 70
     1
102
RTVSPropertyOp57
 70
     1
102
RTVSPropertyOp58
 70
     1
102
RTVSPropertyOp59
 70
     1
102
RTVSPropertyOp60
 70
     1
102
RTVSPropertyOp61
 70
     1
102
RTVSPropertyOp62
 70
     1
  0
XRECORD
  5
73D
102
{ACAD_REACTORS
330
73C
102
}
330
73C
100
AcDbXrecord
280
     1
102
RTVSPost2010Prop28
280
     0
102
RTVSPost2010PropOp28
 70
     1
102
RTVSPost2010Prop29
280
     1
102
RTVSPost2010PropOp29
 70
     1
102
RTVSPost2010Prop30
280
     1
102
RTVSPost2010PropOp30
 70
     1
102
RTVSPost2010Prop31
280
     0
102
RTVSPost2010PropOp31
 70
     1
102
RTVSPost2010Prop32
280
     0
102
RTVSPost2010PropOp32
 70
     1
102
RTVSPost2010Prop33
280
     0
102
RTVSPost2010PropOp33
 70
     1
102
RTVSPost2010Prop34
280
     0
102
RTVSPost2010PropOp34
 70
     1
102
RTVSPost2010Prop35
280
     0
102
RTVSPost2010PropOp35
 70
     1
102
RTVSPost2010Prop36
280
     0
102
RTVSPost2010PropOp36
 70
     1
102
RTVSPost2010Prop37
 90
       50
102
RTVSPost2010PropOp37
 70
     1
102
RTVSPost2010Prop38
140
0.0
102
RTVSPost2010PropOp38
 70
     1
102
RTVSPost2010Prop39
140
1.0
102
RTVSPost2010PropOp39
 70
     1
102
RTVSPost2010Prop40
 90
        0
102
RTVSPost2010PropOp40
 70
     1
102
RTVSPost2010Prop41ColorIndex
 90
       18
102
RTVSPost2010Prop41ColorRGB
 90
        0
102
RTVSPost2010PropOp41
 70
     1
102
RTVSPost2010Prop42
 90
       50
102
RTVSPost2010PropOp42
 70
     1
102
RTVSPost2010Prop43
 90
        3
102
RTVSPost2010PropOp43
 70
     1
102
RTVSPost2010Prop44ColorIndex
 90
        5
102
RTVSPost2010Prop44ColorRGB
 90
      255
102
RTVSPost2010PropOp44
 70
     1
102
RTVSPost2010Prop45
280
     0
102
RTVSPost2010PropOp45
 70
     1
102
RTVSPost2010Prop46
 90
       50
102
RTVSPost2010PropOp46
 70
     1
102
RTVSPost2010Prop47
 90
       50
102
RTVSPost2010PropOp47
 70
     1
102
RTVSPost2010Prop48
 90
       50
102
RTVSPost2010PropOp48
 70
     1
102
RTVSPost2010Prop49
280
     0
102
RTVSPost2010PropOp49
 70
     1
102
RTVSPost2010Prop50
 90
       50
102
RTVSPost2010PropOp50
 70
     1
102
RTVSPost2010Prop51ColorIndex
 90
      256
102
RTVSPost2010Prop51ColorRGB
 90
-16777216
102
RTVSPost2010PropOp51
 70
     0
102
RTVSPost2010Prop52
140
1.0
102
RTVSPost2010PropOp52
 70
     0
102
RTVSPost2010Prop53
 90
        2
102
RTVSPost2010PropOp53
 70
     1
102
RTVSPost2010Prop54
  1
strokes_ogs.tif
102
RTVSPost2010PropOp54
 70
     1
102
RTVSPost2010Prop55
280
     0
102
RTVSPost2010PropOp55
 70
     1
102
RTVSPost2010Prop56
140
1.0
102
RTVSPost2010PropOp56
 70
     1
102
RTVSPost2010Prop57
140
1.0
102
RTVSPost2010PropOp57
 70
     1
102
RTVSPropertyOp0
 70
     1
102
RTVSPropertyOp1
 70
     1
102
RTVSPropertyOp2
 70
     1
102
RTVSPropertyOp3
 70
     1
102
RTVSPropertyOp4
 70
     1
102
RTVSPropertyOp5
 70
     1
102
RTVSPropertyOp6
 70
     1
102
RTVSPropertyOp7
 70
     1
102
RTVSPropertyOp8
 70
     1
102
RTVSPropertyOp9
 70
     1
102
RTVSPropertyOp10
 70
     1
102
RTVSPropertyOp11
 70
     1
102
RTVSPropertyOp12
 70
     1
102
RTVSPropertyOp13
 70
     1
102
RTVSPropertyOp14
 70
     1
102
RTVSPropertyOp15
 70
     1
102
RTVSPropertyOp16
 70
     1
102
RTVSPropertyOp17
 70
     1
102
RTVSPropertyOp18
 70
     1
102
RTVSPropertyOp19
 70
     1
102
RTVSPropertyOp20
 70
     1
102
RTVSPropertyOp21
 70
     1
102
RTVSPropertyOp22
 70
     1
102
RTVSPropertyOp23
 70
     1
102
RTVSPropertyOp24
 70
     1
102
RTVSPropertyOp25
 70
     1
102
RTVSPropertyOp26
 70
     1
102
RTVSPropertyOp27
 70
     1
102
RTVSPropertyOp28
 70
     1
102
RTVSPropertyOp29
 70
     1
102
RTVSPropertyOp30
 70
     1
102
RTVSPropertyOp31
 70
     1
102
RTVSPropertyOp32
 70
     1
102
RTVSPropertyOp33
 70
     1
102
RTVSPropertyOp34
 70
     1
102
RTVSPropertyOp35
 70
     1
102
RTVSPropertyOp36
 70
     1
102
RTVSPropertyOp37
 70
     1
102
RTVSPropertyOp38
 70
     1
102
RTVSPropertyOp39
 70
     1
102
RTVSPropertyOp40
 70
     1
102
RTVSPropertyOp41
 70
     1
102
RTVSPropertyOp42
 70
     1
102
RTVSPropertyOp43
 70
     1
102
RTVSPropertyOp44
 70
     1
102
RTVSPropertyOp45
 70
     1
102
RTVSPropertyOp46
 70
     1
102
RTVSPropertyOp47
 70
     1
102
RTVSPropertyOp48
 70
     1
102
RTVSPropertyOp49
 70
     1
102
RTVSPropertyOp50
 70
     1
102
RTVSPropertyOp51
 70
     0
102
RTVSPropertyOp52
 70
     0
102
RTVSPropertyOp53
 70
     1
102
RTVSPropertyOp54
 70
     1
102
RTVSPropertyOp55
 70
     1
102
RTVSPropertyOp56
 70
     1
102
RTVSPropertyOp57
 70
     1
102
RTVSPropertyOp58
 70
     1
102
RTVSPropertyOp59
 70
     1
102
RTVSPropertyOp60
 70
     1
102
RTVSPropertyOp61
 70
     1
102
RTVSPropertyOp62
 70
     1
  0
XRECORD
  5
759
102
{ACAD_REACTORS
330
758
102
}
330
758
100
AcDbXrecord
280
     1
102
RTVSPost2010Prop28
280
     0
102
RTVSPost2010PropOp28
 70
     1
102
RTVSPost2010Prop29
280
     1
102
RTVSPost2010PropOp29
 70
     1
102
RTVSPost2010Prop30
280
     1
102
RTVSPost2010PropOp30
 70
     1
102
RTVSPost2010Prop31
280
     0
102
RTVSPost2010PropOp31
 70
     1
102
RTVSPost2010Prop32
280
     0
102
RTVSPost2010PropOp32
 70
     1
102
RTVSPost2010Prop33
280
     0
102
RTVSPost2010PropOp33
 70
     1
102
RTVSPost2010Prop34
280
     0
102
RTVSPost2010PropOp34
 70
     1
102
RTVSPost2010Prop35
280
     0
102
RTVSPost2010PropOp35
 70
     1
102
RTVSPost2010Prop36
280
     0
102
RTVSPost2010PropOp36
 70
     1
102
RTVSPost2010Prop37
 90
       50
102
RTVSPost2010PropOp37
 70
     0
102
RTVSPost2010Prop38
140
0.0
102
RTVSPost2010PropOp38
 70
     0
102
RTVSPost2010Prop39
140
1.0
102
RTVSPost2010PropOp39
 70
     0
102
RTVSPost2010Prop40
 90
        0
102
RTVSPost2010PropOp40
 70
     0
102
RTVSPost2010Prop41ColorIndex
 90
       18
102
RTVSPost2010Prop41ColorRGB
 90
        0
102
RTVSPost2010PropOp41
 70
     0
102
RTVSPost2010Prop42
 90
       50
102
RTVSPost2010PropOp42
 70
     0
102
RTVSPost2010Prop43
 90
        3
102
RTVSPost2010PropOp43
 70
     0
102
RTVSPost2010Prop44ColorIndex
 90
        5
102
RTVSPost2010Prop44ColorRGB
 90
      255
102
RTVSPost2010PropOp44
 70
     0
102
RTVSPost2010Prop45
280
     0
102
RTVSPost2010PropOp45
 70
     1
102
RTVSPost2010Prop46
 90
       50
102
RTVSPost2010PropOp46
 70
     0
102
RTVSPost2010Prop47
 90
       50
102
RTVSPost2010PropOp47
 70
     0
102
RTVSPost2010Prop48
 90
       50
102
RTVSPost2010PropOp48
 70
     0
102
RTVSPost2010Prop49
280
     0
102
RTVSPost2010PropOp49
 70
     1
102
RTVSPost2010Prop50
 90
       50
102
RTVSPost2010PropOp50
 70
     0
102
RTVSPost2010Prop51ColorIndex
 90
      256
102
RTVSPost2010Prop51ColorRGB
 90
-16777216
102
RTVSPost2010PropOp51
 70
     0
102
RTVSPost2010Prop52
140
1.0
102
RTVSPost2010PropOp52
 70
     0
102
RTVSPost2010Prop53
 90
        2
102
RTVSPost2010PropOp53
 70
     0
102
RTVSPost2010Prop54
  1
strokes_ogs.tif
102
RTVSPost2010PropOp54
 70
     0
102
RTVSPost2010Prop55
280
     0
102
RTVSPost2010PropOp55
 70
     1
102
RTVSPost2010Prop56
140
1.0
102
RTVSPost2010PropOp56
 70
     0
102
RTVSPost2010Prop57
140
1.0
102
RTVSPost2010PropOp57
 70
     0
102
RTVSPropertyOp0
 70
     0
102
RTVSPropertyOp1
 70
     0
102
RTVSPropertyOp2
 70
     0
102
RTVSPropertyOp3
 70
     0
102
RTVSPropertyOp4
 70
     0
102
RTVSPropertyOp5
 70
     0
102
RTVSPropertyOp6
 70
     0
102
RTVSPropertyOp7
 70
     0
102
RTVSPropertyOp8
 70
     0
102
RTVSPropertyOp9
 70
     0
102
RTVSPropertyOp10
 70
     0
102
RTVSPropertyOp11
 70
     0
102
RTVSPropertyOp12
 70
     0
102
RTVSPropertyOp13
 70
     0
102
RTVSPropertyOp14
 70
     2
102
RTVSPropertyOp15
 70
     0
102
RTVSPropertyOp16
 70
     0
102
RTVSPropertyOp17
 70
     0
102
RTVSPropertyOp18
 70
     0
102
RTVSPropertyOp19
 70
     0
102
RTVSPropertyOp20
 70
     0
102
RTVSPropertyOp21
 70
     0
102
RTVSPropertyOp22
 70
     0
102
RTVSPropertyOp23
 70
     0
102
RTVSPropertyOp24
 70
     0
102
RTVSPropertyOp25
 70
     0
102
RTVSPropertyOp26
 70
     0
102
RTVSPropertyOp27
 70
     0
102
RTVSPropertyOp28
 70
     1
102
RTVSPropertyOp29
 70
     1
102
RTVSPropertyOp30
 70
     1
102
RTVSPropertyOp31
 70
     1
102
RTVSPropertyOp32
 70
     1
102
RTVSPropertyOp33
 70
     1
102
RTVSPropertyOp34
 70
     1
102
RTVSPropertyOp35
 70
     1
102
RTVSPropertyOp36
 70
     1
102
RTVSPropertyOp37
 70
     0
102
RTVSPropertyOp38
 70
     0
102
RTVSPropertyOp39
 70
     0
102
RTVSPropertyOp40
 70
     0
102
RTVSPropertyOp41
 70
     0
102
RTVSPropertyOp42
 70
     0
102
RTVSPropertyOp43
 70
     0
102
RTVSPropertyOp44
 70
     0
102
RTVSPropertyOp45
 70
     1
102
RTVSPropertyOp46
 70
     0
102
RTVSPropertyOp47
 70
     0
102
RTVSPropertyOp48
 70
     0
102
RTVSPropertyOp49
 70
     1
102
RTVSPropertyOp50
 70
     0
102
RTVSPropertyOp51
 70
     0
102
RTVSPropertyOp52
 70
     0
102
RTVSPropertyOp53
 70
     0
102
RTVSPropertyOp54
 70
     0
102
RTVSPropertyOp55
 70
     1
102
RTVSPropertyOp56
 70
     0
102
RTVSPropertyOp57
 70
     0
102
RTVSPropertyOp58
 70
     0
102
RTVSPropertyOp59
 70
     0
102
RTVSPropertyOp60
 70
     0
102
RTVSPropertyOp61
 70
     0
102
RTVSPropertyOp62
 70
     0
  0
XRECORD
  5
749
102
{ACAD_REACTORS
330
748
102
}
330
748
100
AcDbXrecord
280
     1
102
RTVSPost2010Prop28
280
     0
102
RTVSPost2010PropOp28
 70
     1
102
RTVSPost2010Prop29
280
     1
102
RTVSPost2010PropOp29
 70
     1
102
RTVSPost2010Prop30
280
     1
102
RTVSPost2010PropOp30
 70
     1
102
RTVSPost2010Prop31
280
     0
102
RTVSPost2010PropOp31
 70
     1
102
RTVSPost2010Prop32
280
     0
102
RTVSPost2010PropOp32
 70
     1
102
RTVSPost2010Prop33
280
     0
102
RTVSPost2010PropOp33
 70
     1
102
RTVSPost2010Prop34
280
     0
102
RTVSPost2010PropOp34
 70
     1
102
RTVSPost2010Prop35
280
     0
102
RTVSPost2010PropOp35
 70
     1
102
RTVSPost2010Prop36
280
     0
102
RTVSPost2010PropOp36
 70
     1
102
RTVSPost2010Prop37
 90
       50
102
RTVSPost2010PropOp37
 70
     1
102
RTVSPost2010Prop38
140
0.0
102
RTVSPost2010PropOp38
 70
     1
102
RTVSPost2010Prop39
140
1.0
102
RTVSPost2010PropOp39
 70
     1
102
RTVSPost2010Prop40
 90
        0
102
RTVSPost2010PropOp40
 70
     1
102
RTVSPost2010Prop41ColorIndex
 90
       18
102
RTVSPost2010Prop41ColorRGB
 90
        0
102
RTVSPost2010PropOp41
 70
     1
102
RTVSPost2010Prop42
 90
       50
102
RTVSPost2010PropOp42
 70
     1
102
RTVSPost2010Prop43
 90
        3
102
RTVSPost2010PropOp43
 70
     1
102
RTVSPost2010Prop44ColorIndex
 90
        5
102
RTVSPost2010Prop44ColorRGB
 90
      255
102
RTVSPost2010PropOp44
 70
     1
102
RTVSPost2010Prop45
280
     0
102
RTVSPost2010PropOp45
 70
     1
102
RTVSPost2010Prop46
 90
       50
102
RTVSPost2010PropOp46
 70
     1
102
RTVSPost2010Prop47
 90
       50
102
RTVSPost2010PropOp47
 70
     1
102
RTVSPost2010Prop48
 90
       50
102
RTVSPost2010PropOp48
 70
     1
102
RTVSPost2010Prop49
280
     0
102
RTVSPost2010PropOp49
 70
     1
102
RTVSPost2010Prop50
 90
       50
102
RTVSPost2010PropOp50
 70
     1
102
RTVSPost2010Prop51ColorIndex
 90
      256
102
RTVSPost2010Prop51ColorRGB
 90
-16777216
102
RTVSPost2010PropOp51
 70
     0
102
RTVSPost2010Prop52
140
1.0
102
RTVSPost2010PropOp52
 70
     0
102
RTVSPost2010Prop53
 90
        2
102
RTVSPost2010PropOp53
 70
     1
102
RTVSPost2010Prop54
  1
strokes_ogs.tif
102
RTVSPost2010PropOp54
 70
     1
102
RTVSPost2010Prop55
280
     0
102
RTVSPost2010PropOp55
 70
     1
102
RTVSPost2010Prop56
140
1.0
102
RTVSPost2010PropOp56
 70
     1
102
RTVSPost2010Prop57
140
1.0
102
RTVSPost2010PropOp57
 70
     1
102
RTVSPropertyOp0
 70
     1
102
RTVSPropertyOp1
 70
     1
102
RTVSPropertyOp2
 70
     1
102
RTVSPropertyOp3
 70
     1
102
RTVSPropertyOp4
 70
     1
102
RTVSPropertyOp5
 70
     1
102
RTVSPropertyOp6
 70
     1
102
RTVSPropertyOp7
 70
     1
102
RTVSPropertyOp8
 70
     1
102
RTVSPropertyOp9
 70
     1
102
RTVSPropertyOp10
 70
     1
102
RTVSPropertyOp11
 70
     1
102
RTVSPropertyOp12
 70
     1
102
RTVSPropertyOp13
 70
     1
102
RTVSPropertyOp14
 70
     1
102
RTVSPropertyOp15
 70
     1
102
RTVSPropertyOp16
 70
     1
102
RTVSPropertyOp17
 70
     1
102
RTVSPropertyOp18
 70
     1
102
RTVSPropertyOp19
 70
     1
102
RTVSPropertyOp20
 70
     1
102
RTVSPropertyOp21
 70
     1
102
RTVSPropertyOp22
 70
     1
102
RTVSPropertyOp23
 70
     1
102
RTVSPropertyOp24
 70
     1
102
RTVSPropertyOp25
 70
     1
102
RTVSPropertyOp26
 70
     1
102
RTVSPropertyOp27
 70
     1
102
RTVSPropertyOp28
 70
     1
102
RTVSPropertyOp29
 70
     1
102
RTVSPropertyOp30
 70
     1
102
RTVSPropertyOp31
 70
     1
102
RTVSPropertyOp32
 70
     1
102
RTVSPropertyOp33
 70
     1
102
RTVSPropertyOp34
 70
     1
102
RTVSPropertyOp35
 70
     1
102
RTVSPropertyOp36
 70
     1
102
RTVSPropertyOp37
 70
     1
102
RTVSPropertyOp38
 70
     1
102
RTVSPropertyOp39
 70
     1
102
RTVSPropertyOp40
 70
     1
102
RTVSPropertyOp41
 70
     1
102
RTVSPropertyOp42
 70
     1
102
RTVSPropertyOp43
 70
     1
102
RTVSPropertyOp44
 70
     1
102
RTVSPropertyOp45
 70
     1
102
RTVSPropertyOp46
 70
     1
102
RTVSPropertyOp47
 70
     1
102
RTVSPropertyOp48
 70
     1
102
RTVSPropertyOp49
 70
     1
102
RTVSPropertyOp50
 70
     1
102
RTVSPropertyOp51
 70
     0
102
RTVSPropertyOp52
 70
     0
102
RTVSPropertyOp53
 70
     1
102
RTVSPropertyOp54
 70
     1
102
RTVSPropertyOp55
 70
     1
102
RTVSPropertyOp56
 70
     1
102
RTVSPropertyOp57
 70
     1
102
RTVSPropertyOp58
 70
     1
102
RTVSPropertyOp59
 70
     1
102
RTVSPropertyOp60
 70
     1
102
RTVSPropertyOp61
 70
     1
102
RTVSPropertyOp62
 70
     1
  0
XRECORD
  5
75B
102
{ACAD_REACTORS
330
75A
102
}
330
75A
100
AcDbXrecord
280
     1
102
RTVSPost2010Prop28
280
     0
102
RTVSPost2010PropOp28
 70
     1
102
RTVSPost2010Prop29
280
     1
102
RTVSPost2010PropOp29
 70
     1
102
RTVSPost2010Prop30
280
     1
102
RTVSPost2010PropOp30
 70
     1
102
RTVSPost2010Prop31
280
     0
102
RTVSPost2010PropOp31
 70
     1
102
RTVSPost2010Prop32
280
     0
102
RTVSPost2010PropOp32
 70
     1
102
RTVSPost2010Prop33
280
     0
102
RTVSPost2010PropOp33
 70
     1
102
RTVSPost2010Prop34
280
     0
102
RTVSPost2010PropOp34
 70
     1
102
RTVSPost2010Prop35
280
     0
102
RTVSPost2010PropOp35
 70
     1
102
RTVSPost2010Prop36
280
     0
102
RTVSPost2010PropOp36
 70
     1
102
RTVSPost2010Prop37
 90
       50
102
RTVSPost2010PropOp37
 70
     0
102
RTVSPost2010Prop38
140
0.0
102
RTVSPost2010PropOp38
 70
     0
102
RTVSPost2010Prop39
140
1.0
102
RTVSPost2010PropOp39
 70
     0
102
RTVSPost2010Prop40
 90
        0
102
RTVSPost2010PropOp40
 70
     0
102
RTVSPost2010Prop41ColorIndex
 90
       18
102
RTVSPost2010Prop41ColorRGB
 90
        0
102
RTVSPost2010PropOp41
 70
     0
102
RTVSPost2010Prop42
 90
       50
102
RTVSPost2010PropOp42
 70
     0
102
RTVSPost2010Prop43
 90
        3
102
RTVSPost2010PropOp43
 70
     0
102
RTVSPost2010Prop44ColorIndex
 90
        5
102
RTVSPost2010Prop44ColorRGB
 90
      255
102
RTVSPost2010PropOp44
 70
     0
102
RTVSPost2010Prop45
280
     0
102
RTVSPost2010PropOp45
 70
     1
102
RTVSPost2010Prop46
 90
       50
102
RTVSPost2010PropOp46
 70
     0
102
RTVSPost2010Prop47
 90
       50
102
RTVSPost2010PropOp47
 70
     0
102
RTVSPost2010Prop48
 90
       50
102
RTVSPost2010PropOp48
 70
     0
102
RTVSPost2010Prop49
280
     0
102
RTVSPost2010PropOp49
 70
     1
102
RTVSPost2010Prop50
 90
       50
102
RTVSPost2010PropOp50
 70
     0
102
RTVSPost2010Prop51ColorIndex
 90
      256
102
RTVSPost2010Prop51ColorRGB
 90
-16777216
102
RTVSPost2010PropOp51
 70
     0
102
RTVSPost2010Prop52
140
1.0
102
RTVSPost2010PropOp52
 70
     0
102
RTVSPost2010Prop53
 90
        2
102
RTVSPost2010PropOp53
 70
     0
102
RTVSPost2010Prop54
  1
strokes_ogs.tif
102
RTVSPost2010PropOp54
 70
     0
102
RTVSPost2010Prop55
280
     0
102
RTVSPost2010PropOp55
 70
     1
102
RTVSPost2010Prop56
140
1.0
102
RTVSPost2010PropOp56
 70
     0
102
RTVSPost2010Prop57
140
1.0
102
RTVSPost2010PropOp57
 70
     0
102
RTVSPropertyOp0
 70
     0
102
RTVSPropertyOp1
 70
     0
102
RTVSPropertyOp2
 70
     0
102
RTVSPropertyOp3
 70
     0
102
RTVSPropertyOp4
 70
     0
102
RTVSPropertyOp5
 70
     0
102
RTVSPropertyOp6
 70
     0
102
RTVSPropertyOp7
 70
     0
102
RTVSPropertyOp8
 70
     0
102
RTVSPropertyOp9
 70
     0
102
RTVSPropertyOp10
 70
     0
102
RTVSPropertyOp11
 70
     0
102
RTVSPropertyOp12
 70
     0
102
RTVSPropertyOp13
 70
     0
102
RTVSPropertyOp14
 70
     2
102
RTVSPropertyOp15
 70
     0
102
RTVSPropertyOp16
 70
     0
102
RTVSPropertyOp17
 70
     0
102
RTVSPropertyOp18
 70
     0
102
RTVSPropertyOp19
 70
     0
102
RTVSPropertyOp20
 70
     0
102
RTVSPropertyOp21
 70
     0
102
RTVSPropertyOp22
 70
     0
102
RTVSPropertyOp23
 70
     0
102
RTVSPropertyOp24
 70
     0
102
RTVSPropertyOp25
 70
     0
102
RTVSPropertyOp26
 70
     0
102
RTVSPropertyOp27
 70
     0
102
RTVSPropertyOp28
 70
     1
102
RTVSPropertyOp29
 70
     1
102
RTVSPropertyOp30
 70
     1
102
RTVSPropertyOp31
 70
     1
102
RTVSPropertyOp32
 70
     1
102
RTVSPropertyOp33
 70
     1
102
RTVSPropertyOp34
 70
     1
102
RTVSPropertyOp35
 70
     1
102
RTVSPropertyOp36
 70
     1
102
RTVSPropertyOp37
 70
     0
102
RTVSPropertyOp38
 70
     0
102
RTVSPropertyOp39
 70
     0
102
RTVSPropertyOp40
 70
     0
102
RTVSPropertyOp41
 70
     0
102
RTVSPropertyOp42
 70
     0
102
RTVSPropertyOp43
 70
     0
102
RTVSPropertyOp44
 70
     0
102
RTVSPropertyOp45
 70
     1
102
RTVSPropertyOp46
 70
     0
102
RTVSPropertyOp47
 70
     0
102
RTVSPropertyOp48
 70
     0
102
RTVSPropertyOp49
 70
     1
102
RTVSPropertyOp50
 70
     0
102
RTVSPropertyOp51
 70
     0
102
RTVSPropertyOp52
 70
     0
102
RTVSPropertyOp53
 70
     0
102
RTVSPropertyOp54
 70
     0
102
RTVSPropertyOp55
 70
     1
102
RTVSPropertyOp56
 70
     0
102
RTVSPropertyOp57
 70
     0
102
RTVSPropertyOp58
 70
     0
102
RTVSPropertyOp59
 70
     0
102
RTVSPropertyOp60
 70
     0
102
RTVSPropertyOp61
 70
     0
102
RTVSPropertyOp62
 70
     0
  0
XRECORD
  5
741
102
{ACAD_REACTORS
330
740
102
}
330
740
100
AcDbXrecord
280
     1
102
RTVSPost2010Prop28
280
     0
102
RTVSPost2010PropOp28
 70
     1
102
RTVSPost2010Prop29
280
     1
102
RTVSPost2010PropOp29
 70
     1
102
RTVSPost2010Prop30
280
     1
102
RTVSPost2010PropOp30
 70
     1
102
RTVSPost2010Prop31
280
     0
102
RTVSPost2010PropOp31
 70
     1
102
RTVSPost2010Prop32
280
     0
102
RTVSPost2010PropOp32
 70
     1
102
RTVSPost2010Prop33
280
     0
102
RTVSPost2010PropOp33
 70
     1
102
RTVSPost2010Prop34
280
     0
102
RTVSPost2010PropOp34
 70
     1
102
RTVSPost2010Prop35
280
     0
102
RTVSPost2010PropOp35
 70
     1
102
RTVSPost2010Prop36
280
     0
102
RTVSPost2010PropOp36
 70
     1
102
RTVSPost2010Prop37
 90
       50
102
RTVSPost2010PropOp37
 70
     1
102
RTVSPost2010Prop38
140
0.0
102
RTVSPost2010PropOp38
 70
     1
102
RTVSPost2010Prop39
140
1.0
102
RTVSPost2010PropOp39
 70
     1
102
RTVSPost2010Prop40
 90
        0
102
RTVSPost2010PropOp40
 70
     1
102
RTVSPost2010Prop41ColorIndex
 90
       18
102
RTVSPost2010Prop41ColorRGB
 90
        0
102
RTVSPost2010PropOp41
 70
     1
102
RTVSPost2010Prop42
 90
       50
102
RTVSPost2010PropOp42
 70
     1
102
RTVSPost2010Prop43
 90
        3
102
RTVSPost2010PropOp43
 70
     1
102
RTVSPost2010Prop44ColorIndex
 90
        5
102
RTVSPost2010Prop44ColorRGB
 90
      255
102
RTVSPost2010PropOp44
 70
     1
102
RTVSPost2010Prop45
280
     0
102
RTVSPost2010PropOp45
 70
     1
102
RTVSPost2010Prop46
 90
       50
102
RTVSPost2010PropOp46
 70
     1
102
RTVSPost2010Prop47
 90
       50
102
RTVSPost2010PropOp47
 70
     1
102
RTVSPost2010Prop48
 90
       50
102
RTVSPost2010PropOp48
 70
     1
102
RTVSPost2010Prop49
280
     0
102
RTVSPost2010PropOp49
 70
     1
102
RTVSPost2010Prop50
 90
       50
102
RTVSPost2010PropOp50
 70
     1
102
RTVSPost2010Prop51ColorIndex
 90
      256
102
RTVSPost2010Prop51ColorRGB
 90
-16777216
102
RTVSPost2010PropOp51
 70
     0
102
RTVSPost2010Prop52
140
1.0
102
RTVSPost2010PropOp52
 70
     0
102
RTVSPost2010Prop53
 90
        2
102
RTVSPost2010PropOp53
 70
     1
102
RTVSPost2010Prop54
  1
strokes_ogs.tif
102
RTVSPost2010PropOp54
 70
     1
102
RTVSPost2010Prop55
280
     0
102
RTVSPost2010PropOp55
 70
     1
102
RTVSPost2010Prop56
140
1.0
102
RTVSPost2010PropOp56
 70
     1
102
RTVSPost2010Prop57
140
1.0
102
RTVSPost2010PropOp57
 70
     1
102
RTVSPropertyOp0
 70
     1
102
RTVSPropertyOp1
 70
     1
102
RTVSPropertyOp2
 70
     1
102
RTVSPropertyOp3
 70
     1
102
RTVSPropertyOp4
 70
     1
102
RTVSPropertyOp5
 70
     1
102
RTVSPropertyOp6
 70
     1
102
RTVSPropertyOp7
 70
     1
102
RTVSPropertyOp8
 70
     1
102
RTVSPropertyOp9
 70
     1
102
RTVSPropertyOp10
 70
     1
102
RTVSPropertyOp11
 70
     1
102
RTVSPropertyOp12
 70
     1
102
RTVSPropertyOp13
 70
     1
102
RTVSPropertyOp14
 70
     1
102
RTVSPropertyOp15
 70
     1
102
RTVSPropertyOp16
 70
     1
102
RTVSPropertyOp17
 70
     1
102
RTVSPropertyOp18
 70
     1
102
RTVSPropertyOp19
 70
     1
102
RTVSPropertyOp20
 70
     1
102
RTVSPropertyOp21
 70
     1
102
RTVSPropertyOp22
 70
     1
102
RTVSPropertyOp23
 70
     1
102
RTVSPropertyOp24
 70
     1
102
RTVSPropertyOp25
 70
     1
102
RTVSPropertyOp26
 70
     1
102
RTVSPropertyOp27
 70
     1
102
RTVSPropertyOp28
 70
     1
102
RTVSPropertyOp29
 70
     1
102
RTVSPropertyOp30
 70
     1
102
RTVSPropertyOp31
 70
     1
102
RTVSPropertyOp32
 70
     1
102
RTVSPropertyOp33
 70
     1
102
RTVSPropertyOp34
 70
     1
102
RTVSPropertyOp35
 70
     1
102
RTVSPropertyOp36
 70
     1
102
RTVSPropertyOp37
 70
     1
102
RTVSPropertyOp38
 70
     1
102
RTVSPropertyOp39
 70
     1
102
RTVSPropertyOp40
 70
     1
102
RTVSPropertyOp41
 70
     1
102
RTVSPropertyOp42
 70
     1
102
RTVSPropertyOp43
 70
     1
102
RTVSPropertyOp44
 70
     1
102
RTVSPropertyOp45
 70
     1
102
RTVSPropertyOp46
 70
     1
102
RTVSPropertyOp47
 70
     1
102
RTVSPropertyOp48
 70
     1
102
RTVSPropertyOp49
 70
     1
102
RTVSPropertyOp50
 70
     1
102
RTVSPropertyOp51
 70
     0
102
RTVSPropertyOp52
 70
     0
102
RTVSPropertyOp53
 70
     1
102
RTVSPropertyOp54
 70
     1
102
RTVSPropertyOp55
 70
     1
102
RTVSPropertyOp56
 70
     1
102
RTVSPropertyOp57
 70
     1
102
RTVSPropertyOp58
 70
     1
102
RTVSPropertyOp59
 70
     1
102
RTVSPropertyOp60
 70
     1
102
RTVSPropertyOp61
 70
     1
102
RTVSPropertyOp62
 70
     1
  0
XRECORD
  5
757
102
{ACAD_REACTORS
330
756
102
}
330
756
100
AcDbXrecord
280
     1
102
RTVSPost2010Prop28
280
     0
102
RTVSPost2010PropOp28
 70
     1
102
RTVSPost2010Prop29
280
     1
102
RTVSPost2010PropOp29
 70
     1
102
RTVSPost2010Prop30
280
     1
102
RTVSPost2010PropOp30
 70
     1
102
RTVSPost2010Prop31
280
     0
102
RTVSPost2010PropOp31
 70
     1
102
RTVSPost2010Prop32
280
     0
102
RTVSPost2010PropOp32
 70
     1
102
RTVSPost2010Prop33
280
     0
102
RTVSPost2010PropOp33
 70
     1
102
RTVSPost2010Prop34
280
     0
102
RTVSPost2010PropOp34
 70
     1
102
RTVSPost2010Prop35
280
     0
102
RTVSPost2010PropOp35
 70
     1
102
RTVSPost2010Prop36
280
     0
102
RTVSPost2010PropOp36
 70
     1
102
RTVSPost2010Prop37
 90
       50
102
RTVSPost2010PropOp37
 70
     1
102
RTVSPost2010Prop38
140
0.0
102
RTVSPost2010PropOp38
 70
     1
102
RTVSPost2010Prop39
140
1.0
102
RTVSPost2010PropOp39
 70
     1
102
RTVSPost2010Prop40
 90
        0
102
RTVSPost2010PropOp40
 70
     1
102
RTVSPost2010Prop41ColorIndex
 90
       18
102
RTVSPost2010Prop41ColorRGB
 90
        0
102
RTVSPost2010PropOp41
 70
     1
102
RTVSPost2010Prop42
 90
       50
102
RTVSPost2010PropOp42
 70
     1
102
RTVSPost2010Prop43
 90
        3
102
RTVSPost2010PropOp43
 70
     1
102
RTVSPost2010Prop44ColorIndex
 90
        5
102
RTVSPost2010Prop44ColorRGB
 90
      255
102
RTVSPost2010PropOp44
 70
     1
102
RTVSPost2010Prop45
280
     0
102
RTVSPost2010PropOp45
 70
     1
102
RTVSPost2010Prop46
 90
       50
102
RTVSPost2010PropOp46
 70
     1
102
RTVSPost2010Prop47
 90
       50
102
RTVSPost2010PropOp47
 70
     1
102
RTVSPost2010Prop48
 90
       50
102
RTVSPost2010PropOp48
 70
     1
102
RTVSPost2010Prop49
280
     0
102
RTVSPost2010PropOp49
 70
     1
102
RTVSPost2010Prop50
 90
       50
102
RTVSPost2010PropOp50
 70
     1
102
RTVSPost2010Prop51ColorIndex
 90
      256
102
RTVSPost2010Prop51ColorRGB
 90
-16777216
102
RTVSPost2010PropOp51
 70
     0
102
RTVSPost2010Prop52
140
1.0
102
RTVSPost2010PropOp52
 70
     0
102
RTVSPost2010Prop53
 90
        2
102
RTVSPost2010PropOp53
 70
     1
102
RTVSPost2010Prop54
  1
strokes_ogs.tif
102
RTVSPost2010PropOp54
 70
     1
102
RTVSPost2010Prop55
280
     0
102
RTVSPost2010PropOp55
 70
     1
102
RTVSPost2010Prop56
140
1.0
102
RTVSPost2010PropOp56
 70
     1
102
RTVSPost2010Prop57
140
1.0
102
RTVSPost2010PropOp57
 70
     1
102
RTVSPropertyOp0
 70
     1
102
RTVSPropertyOp1
 70
     1
102
RTVSPropertyOp2
 70
     1
102
RTVSPropertyOp3
 70
     1
102
RTVSPropertyOp4
 70
     1
102
RTVSPropertyOp5
 70
     1
102
RTVSPropertyOp6
 70
     1
102
RTVSPropertyOp7
 70
     1
102
RTVSPropertyOp8
 70
     1
102
RTVSPropertyOp9
 70
     1
102
RTVSPropertyOp10
 70
     1
102
RTVSPropertyOp11
 70
     1
102
RTVSPropertyOp12
 70
     1
102
RTVSPropertyOp13
 70
     1
102
RTVSPropertyOp14
 70
     1
102
RTVSPropertyOp15
 70
     1
102
RTVSPropertyOp16
 70
     1
102
RTVSPropertyOp17
 70
     1
102
RTVSPropertyOp18
 70
     1
102
RTVSPropertyOp19
 70
     1
102
RTVSPropertyOp20
 70
     1
102
RTVSPropertyOp21
 70
     1
102
RTVSPropertyOp22
 70
     1
102
RTVSPropertyOp23
 70
     1
102
RTVSPropertyOp24
 70
     1
102
RTVSPropertyOp25
 70
     1
102
RTVSPropertyOp26
 70
     1
102
RTVSPropertyOp27
 70
     1
102
RTVSPropertyOp28
 70
     1
102
RTVSPropertyOp29
 70
     1
102
RTVSPropertyOp30
 70
     1
102
RTVSPropertyOp31
 70
     1
102
RTVSPropertyOp32
 70
     1
102
RTVSPropertyOp33
 70
     1
102
RTVSPropertyOp34
 70
     1
102
RTVSPropertyOp35
 70
     1
102
RTVSPropertyOp36
 70
     1
102
RTVSPropertyOp37
 70
     1
102
RTVSPropertyOp38
 70
     1
102
RTVSPropertyOp39
 70
     1
102
RTVSPropertyOp40
 70
     1
102
RTVSPropertyOp41
 70
     1
102
RTVSPropertyOp42
 70
     1
102
RTVSPropertyOp43
 70
     1
102
RTVSPropertyOp44
 70
     1
102
RTVSPropertyOp45
 70
     1
102
RTVSPropertyOp46
 70
     1
102
RTVSPropertyOp47
 70
     1
102
RTVSPropertyOp48
 70
     1
102
RTVSPropertyOp49
 70
     1
102
RTVSPropertyOp50
 70
     1
102
RTVSPropertyOp51
 70
     0
102
RTVSPropertyOp52
 70
     0
102
RTVSPropertyOp53
 70
     1
102
RTVSPropertyOp54
 70
     1
102
RTVSPropertyOp55
 70
     1
102
RTVSPropertyOp56
 70
     1
102
RTVSPropertyOp57
 70
     1
102
RTVSPropertyOp58
 70
     1
102
RTVSPropertyOp59
 70
     1
102
RTVSPropertyOp60
 70
     1
102
RTVSPropertyOp61
 70
     1
102
RTVSPropertyOp62
 70
     1
  0
XRECORD
  5
755
102
{ACAD_REACTORS
330
754
102
}
330
754
100
AcDbXrecord
280
     1
102
RTVSPost2010Prop28
280
     0
102
RTVSPost2010PropOp28
 70
     1
102
RTVSPost2010Prop29
280
     1
102
RTVSPost2010PropOp29
 70
     1
102
RTVSPost2010Prop30
280
     1
102
RTVSPost2010PropOp30
 70
     1
102
RTVSPost2010Prop31
280
     0
102
RTVSPost2010PropOp31
 70
     1
102
RTVSPost2010Prop32
280
     0
102
RTVSPost2010PropOp32
 70
     1
102
RTVSPost2010Prop33
280
     0
102
RTVSPost2010PropOp33
 70
     1
102
RTVSPost2010Prop34
280
     0
102
RTVSPost2010PropOp34
 70
     1
102
RTVSPost2010Prop35
280
     0
102
RTVSPost2010PropOp35
 70
     1
102
RTVSPost2010Prop36
280
     0
102
RTVSPost2010PropOp36
 70
     1
102
RTVSPost2010Prop37
 90
       50
102
RTVSPost2010PropOp37
 70
     1
102
RTVSPost2010Prop38
140
0.0
102
RTVSPost2010PropOp38
 70
     1
102
RTVSPost2010Prop39
140
1.0
102
RTVSPost2010PropOp39
 70
     1
102
RTVSPost2010Prop40
 90
        0
102
RTVSPost2010PropOp40
 70
     1
102
RTVSPost2010Prop41ColorIndex
 90
       18
102
RTVSPost2010Prop41ColorRGB
 90
        0
102
RTVSPost2010PropOp41
 70
     1
102
RTVSPost2010Prop42
 90
       50
102
RTVSPost2010PropOp42
 70
     1
102
RTVSPost2010Prop43
 90
        3
102
RTVSPost2010PropOp43
 70
     1
102
RTVSPost2010Prop44ColorIndex
 90
        5
102
RTVSPost2010Prop44ColorRGB
 90
      255
102
RTVSPost2010PropOp44
 70
     1
102
RTVSPost2010Prop45
280
     0
102
RTVSPost2010PropOp45
 70
     1
102
RTVSPost2010Prop46
 90
       50
102
RTVSPost2010PropOp46
 70
     1
102
RTVSPost2010Prop47
 90
       50
102
RTVSPost2010PropOp47
 70
     1
102
RTVSPost2010Prop48
 90
       50
102
RTVSPost2010PropOp48
 70
     1
102
RTVSPost2010Prop49
280
     0
102
RTVSPost2010PropOp49
 70
     1
102
RTVSPost2010Prop50
 90
       50
102
RTVSPost2010PropOp50
 70
     1
102
RTVSPost2010Prop51ColorIndex
 90
      256
102
RTVSPost2010Prop51ColorRGB
 90
-16777216
102
RTVSPost2010PropOp51
 70
     0
102
RTVSPost2010Prop52
140
1.0
102
RTVSPost2010PropOp52
 70
     0
102
RTVSPost2010Prop53
 90
        2
102
RTVSPost2010PropOp53
 70
     1
102
RTVSPost2010Prop54
  1
strokes_ogs.tif
102
RTVSPost2010PropOp54
 70
     1
102
RTVSPost2010Prop55
280
     0
102
RTVSPost2010PropOp55
 70
     1
102
RTVSPost2010Prop56
140
1.0
102
RTVSPost2010PropOp56
 70
     1
102
RTVSPost2010Prop57
140
1.0
102
RTVSPost2010PropOp57
 70
     1
102
RTVSPropertyOp0
 70
     1
102
RTVSPropertyOp1
 70
     1
102
RTVSPropertyOp2
 70
     1
102
RTVSPropertyOp3
 70
     1
102
RTVSPropertyOp4
 70
     1
102
RTVSPropertyOp5
 70
     1
102
RTVSPropertyOp6
 70
     1
102
RTVSPropertyOp7
 70
     1
102
RTVSPropertyOp8
 70
     1
102
RTVSPropertyOp9
 70
     1
102
RTVSPropertyOp10
 70
     1
102
RTVSPropertyOp11
 70
     1
102
RTVSPropertyOp12
 70
     1
102
RTVSPropertyOp13
 70
     1
102
RTVSPropertyOp14
 70
     1
102
RTVSPropertyOp15
 70
     1
102
RTVSPropertyOp16
 70
     1
102
RTVSPropertyOp17
 70
     1
102
RTVSPropertyOp18
 70
     1
102
RTVSPropertyOp19
 70
     1
102
RTVSPropertyOp20
 70
     1
102
RTVSPropertyOp21
 70
     1
102
RTVSPropertyOp22
 70
     1
102
RTVSPropertyOp23
 70
     1
102
RTVSPropertyOp24
 70
     1
102
RTVSPropertyOp25
 70
     1
102
RTVSPropertyOp26
 70
     1
102
RTVSPropertyOp27
 70
     1
102
RTVSPropertyOp28
 70
     1
102
RTVSPropertyOp29
 70
     1
102
RTVSPropertyOp30
 70
     1
102
RTVSPropertyOp31
 70
     1
102
RTVSPropertyOp32
 70
     1
102
RTVSPropertyOp33
 70
     1
102
RTVSPropertyOp34
 70
     1
102
RTVSPropertyOp35
 70
     1
102
RTVSPropertyOp36
 70
     1
102
RTVSPropertyOp37
 70
     1
102
RTVSPropertyOp38
 70
     1
102
RTVSPropertyOp39
 70
     1
102
RTVSPropertyOp40
 70
     1
102
RTVSPropertyOp41
 70
     1
102
RTVSPropertyOp42
 70
     1
102
RTVSPropertyOp43
 70
     1
102
RTVSPropertyOp44
 70
     1
102
RTVSPropertyOp45
 70
     1
102
RTVSPropertyOp46
 70
     1
102
RTVSPropertyOp47
 70
     1
102
RTVSPropertyOp48
 70
     1
102
RTVSPropertyOp49
 70
     1
102
RTVSPropertyOp50
 70
     1
102
RTVSPropertyOp51
 70
     0
102
RTVSPropertyOp52
 70
     0
102
RTVSPropertyOp53
 70
     1
102
RTVSPropertyOp54
 70
     1
102
RTVSPropertyOp55
 70
     1
102
RTVSPropertyOp56
 70
     1
102
RTVSPropertyOp57
 70
     1
102
RTVSPropertyOp58
 70
     1
102
RTVSPropertyOp59
 70
     1
102
RTVSPropertyOp60
 70
     1
102
RTVSPropertyOp61
 70
     1
102
RTVSPropertyOp62
 70
     1
  0
XRECORD
  5
74F
102
{ACAD_REACTORS
330
74E
102
}
330
74E
100
AcDbXrecord
280
     1
102
RTVSPost2010Prop28
280
     0
102
RTVSPost2010PropOp28
 70
     1
102
RTVSPost2010Prop29
280
     1
102
RTVSPost2010PropOp29
 70
     1
102
RTVSPost2010Prop30
280
     1
102
RTVSPost2010PropOp30
 70
     1
102
RTVSPost2010Prop31
280
     0
102
RTVSPost2010PropOp31
 70
     1
102
RTVSPost2010Prop32
280
     0
102
RTVSPost2010PropOp32
 70
     1
102
RTVSPost2010Prop33
280
     0
102
RTVSPost2010PropOp33
 70
     1
102
RTVSPost2010Prop34
280
     0
102
RTVSPost2010PropOp34
 70
     1
102
RTVSPost2010Prop35
280
     0
102
RTVSPost2010PropOp35
 70
     1
102
RTVSPost2010Prop36
280
     0
102
RTVSPost2010PropOp36
 70
     1
102
RTVSPost2010Prop37
 90
       50
102
RTVSPost2010PropOp37
 70
     1
102
RTVSPost2010Prop38
140
0.0
102
RTVSPost2010PropOp38
 70
     1
102
RTVSPost2010Prop39
140
1.0
102
RTVSPost2010PropOp39
 70
     1
102
RTVSPost2010Prop40
 90
        0
102
RTVSPost2010PropOp40
 70
     1
102
RTVSPost2010Prop41ColorIndex
 90
       18
102
RTVSPost2010Prop41ColorRGB
 90
        0
102
RTVSPost2010PropOp41
 70
     1
102
RTVSPost2010Prop42
 90
       50
102
RTVSPost2010PropOp42
 70
     1
102
RTVSPost2010Prop43
 90
        3
102
RTVSPost2010PropOp43
 70
     1
102
RTVSPost2010Prop44ColorIndex
 90
        5
102
RTVSPost2010Prop44ColorRGB
 90
      255
102
RTVSPost2010PropOp44
 70
     1
102
RTVSPost2010Prop45
280
     0
102
RTVSPost2010PropOp45
 70
     1
102
RTVSPost2010Prop46
 90
       50
102
RTVSPost2010PropOp46
 70
     1
102
RTVSPost2010Prop47
 90
       50
102
RTVSPost2010PropOp47
 70
     1
102
RTVSPost2010Prop48
 90
       50
102
RTVSPost2010PropOp48
 70
     1
102
RTVSPost2010Prop49
280
     0
102
RTVSPost2010PropOp49
 70
     1
102
RTVSPost2010Prop50
 90
       50
102
RTVSPost2010PropOp50
 70
     1
102
RTVSPost2010Prop51ColorIndex
 90
      256
102
RTVSPost2010Prop51ColorRGB
 90
-16777216
102
RTVSPost2010PropOp51
 70
     0
102
RTVSPost2010Prop52
140
1.0
102
RTVSPost2010PropOp52
 70
     0
102
RTVSPost2010Prop53
 90
        2
102
RTVSPost2010PropOp53
 70
     1
102
RTVSPost2010Prop54
  1
strokes_ogs.tif
102
RTVSPost2010PropOp54
 70
     1
102
RTVSPost2010Prop55
280
     0
102
RTVSPost2010PropOp55
 70
     1
102
RTVSPost2010Prop56
140
1.0
102
RTVSPost2010PropOp56
 70
     1
102
RTVSPost2010Prop57
140
1.0
102
RTVSPost2010PropOp57
 70
     1
102
RTVSPropertyOp0
 70
     1
102
RTVSPropertyOp1
 70
     1
102
RTVSPropertyOp2
 70
     1
102
RTVSPropertyOp3
 70
     1
102
RTVSPropertyOp4
 70
     1
102
RTVSPropertyOp5
 70
     1
102
RTVSPropertyOp6
 70
     1
102
RTVSPropertyOp7
 70
     1
102
RTVSPropertyOp8
 70
     1
102
RTVSPropertyOp9
 70
     1
102
RTVSPropertyOp10
 70
     1
102
RTVSPropertyOp11
 70
     1
102
RTVSPropertyOp12
 70
     1
102
RTVSPropertyOp13
 70
     1
102
RTVSPropertyOp14
 70
     1
102
RTVSPropertyOp15
 70
     1
102
RTVSPropertyOp16
 70
     1
102
RTVSPropertyOp17
 70
     1
102
RTVSPropertyOp18
 70
     1
102
RTVSPropertyOp19
 70
     1
102
RTVSPropertyOp20
 70
     1
102
RTVSPropertyOp21
 70
     1
102
RTVSPropertyOp22
 70
     1
102
RTVSPropertyOp23
 70
     1
102
RTVSPropertyOp24
 70
     1
102
RTVSPropertyOp25
 70
     1
102
RTVSPropertyOp26
 70
     1
102
RTVSPropertyOp27
 70
     1
102
RTVSPropertyOp28
 70
     1
102
RTVSPropertyOp29
 70
     1
102
RTVSPropertyOp30
 70
     1
102
RTVSPropertyOp31
 70
     1
102
RTVSPropertyOp32
 70
     1
102
RTVSPropertyOp33
 70
     1
102
RTVSPropertyOp34
 70
     1
102
RTVSPropertyOp35
 70
     1
102
RTVSPropertyOp36
 70
     1
102
RTVSPropertyOp37
 70
     1
102
RTVSPropertyOp38
 70
     1
102
RTVSPropertyOp39
 70
     1
102
RTVSPropertyOp40
 70
     1
102
RTVSPropertyOp41
 70
     1
102
RTVSPropertyOp42
 70
     1
102
RTVSPropertyOp43
 70
     1
102
RTVSPropertyOp44
 70
     1
102
RTVSPropertyOp45
 70
     1
102
RTVSPropertyOp46
 70
     1
102
RTVSPropertyOp47
 70
     1
102
RTVSPropertyOp48
 70
     1
102
RTVSPropertyOp49
 70
     1
102
RTVSPropertyOp50
 70
     1
102
RTVSPropertyOp51
 70
     0
102
RTVSPropertyOp52
 70
     0
102
RTVSPropertyOp53
 70
     1
102
RTVSPropertyOp54
 70
     1
102
RTVSPropertyOp55
 70
     1
102
RTVSPropertyOp56
 70
     1
102
RTVSPropertyOp57
 70
     1
102
RTVSPropertyOp58
 70
     1
102
RTVSPropertyOp59
 70
     1
102
RTVSPropertyOp60
 70
     1
102
RTVSPropertyOp61
 70
     1
102
RTVSPropertyOp62
 70
     1
  0
XRECORD
  5
751
102
{ACAD_REACTORS
330
750
102
}
330
750
100
AcDbXrecord
280
     1
102
RTVSPost2010Prop28
280
     0
102
RTVSPost2010PropOp28
 70
     1
102
RTVSPost2010Prop29
280
     1
102
RTVSPost2010PropOp29
 70
     1
102
RTVSPost2010Prop30
280
     1
102
RTVSPost2010PropOp30
 70
     1
102
RTVSPost2010Prop31
280
     0
102
RTVSPost2010PropOp31
 70
     1
102
RTVSPost2010Prop32
280
     0
102
RTVSPost2010PropOp32
 70
     1
102
RTVSPost2010Prop33
280
     0
102
RTVSPost2010PropOp33
 70
     1
102
RTVSPost2010Prop34
280
     0
102
RTVSPost2010PropOp34
 70
     1
102
RTVSPost2010Prop35
280
     0
102
RTVSPost2010PropOp35
 70
     1
102
RTVSPost2010Prop36
280
     0
102
RTVSPost2010PropOp36
 70
     1
102
RTVSPost2010Prop37
 90
       50
102
RTVSPost2010PropOp37
 70
     1
102
RTVSPost2010Prop38
140
0.0
102
RTVSPost2010PropOp38
 70
     1
102
RTVSPost2010Prop39
140
1.0
102
RTVSPost2010PropOp39
 70
     1
102
RTVSPost2010Prop40
 90
        0
102
RTVSPost2010PropOp40
 70
     1
102
RTVSPost2010Prop41ColorIndex
 90
       18
102
RTVSPost2010Prop41ColorRGB
 90
        0
102
RTVSPost2010PropOp41
 70
     1
102
RTVSPost2010Prop42
 90
       50
102
RTVSPost2010PropOp42
 70
     1
102
RTVSPost2010Prop43
 90
        3
102
RTVSPost2010PropOp43
 70
     1
102
RTVSPost2010Prop44ColorIndex
 90
        5
102
RTVSPost2010Prop44ColorRGB
 90
      255
102
RTVSPost2010PropOp44
 70
     1
102
RTVSPost2010Prop45
280
     0
102
RTVSPost2010PropOp45
 70
     1
102
RTVSPost2010Prop46
 90
       50
102
RTVSPost2010PropOp46
 70
     1
102
RTVSPost2010Prop47
 90
       50
102
RTVSPost2010PropOp47
 70
     1
102
RTVSPost2010Prop48
 90
       50
102
RTVSPost2010PropOp48
 70
     1
102
RTVSPost2010Prop49
280
     0
102
RTVSPost2010PropOp49
 70
     1
102
RTVSPost2010Prop50
 90
       50
102
RTVSPost2010PropOp50
 70
     1
102
RTVSPost2010Prop51ColorIndex
 90
      256
102
RTVSPost2010Prop51ColorRGB
 90
-16777216
102
RTVSPost2010PropOp51
 70
     0
102
RTVSPost2010Prop52
140
1.0
102
RTVSPost2010PropOp52
 70
     0
102
RTVSPost2010Prop53
 90
        2
102
RTVSPost2010PropOp53
 70
     1
102
RTVSPost2010Prop54
  1
strokes_ogs.tif
102
RTVSPost2010PropOp54
 70
     1
102
RTVSPost2010Prop55
280
     0
102
RTVSPost2010PropOp55
 70
     1
102
RTVSPost2010Prop56
140
1.0
102
RTVSPost2010PropOp56
 70
     1
102
RTVSPost2010Prop57
140
1.0
102
RTVSPost2010PropOp57
 70
     1
102
RTVSPropertyOp0
 70
     1
102
RTVSPropertyOp1
 70
     1
102
RTVSPropertyOp2
 70
     1
102
RTVSPropertyOp3
 70
     1
102
RTVSPropertyOp4
 70
     1
102
RTVSPropertyOp5
 70
     1
102
RTVSPropertyOp6
 70
     1
102
RTVSPropertyOp7
 70
     1
102
RTVSPropertyOp8
 70
     1
102
RTVSPropertyOp9
 70
     1
102
RTVSPropertyOp10
 70
     1
102
RTVSPropertyOp11
 70
     1
102
RTVSPropertyOp12
 70
     1
102
RTVSPropertyOp13
 70
     1
102
RTVSPropertyOp14
 70
     1
102
RTVSPropertyOp15
 70
     1
102
RTVSPropertyOp16
 70
     1
102
RTVSPropertyOp17
 70
     1
102
RTVSPropertyOp18
 70
     1
102
RTVSPropertyOp19
 70
     1
102
RTVSPropertyOp20
 70
     1
102
RTVSPropertyOp21
 70
     1
102
RTVSPropertyOp22
 70
     1
102
RTVSPropertyOp23
 70
     1
102
RTVSPropertyOp24
 70
     1
102
RTVSPropertyOp25
 70
     1
102
RTVSPropertyOp26
 70
     1
102
RTVSPropertyOp27
 70
     1
102
RTVSPropertyOp28
 70
     1
102
RTVSPropertyOp29
 70
     1
102
RTVSPropertyOp30
 70
     1
102
RTVSPropertyOp31
 70
     1
102
RTVSPropertyOp32
 70
     1
102
RTVSPropertyOp33
 70
     1
102
RTVSPropertyOp34
 70
     1
102
RTVSPropertyOp35
 70
     1
102
RTVSPropertyOp36
 70
     1
102
RTVSPropertyOp37
 70
     1
102
RTVSPropertyOp38
 70
     1
102
RTVSPropertyOp39
 70
     1
102
RTVSPropertyOp40
 70
     1
102
RTVSPropertyOp41
 70
     1
102
RTVSPropertyOp42
 70
     1
102
RTVSPropertyOp43
 70
     1
102
RTVSPropertyOp44
 70
     1
102
RTVSPropertyOp45
 70
     1
102
RTVSPropertyOp46
 70
     1
102
RTVSPropertyOp47
 70
     1
102
RTVSPropertyOp48
 70
     1
102
RTVSPropertyOp49
 70
     1
102
RTVSPropertyOp50
 70
     1
102
RTVSPropertyOp51
 70
     0
102
RTVSPropertyOp52
 70
     0
102
RTVSPropertyOp53
 70
     1
102
RTVSPropertyOp54
 70
     1
102
RTVSPropertyOp55
 70
     1
102
RTVSPropertyOp56
 70
     1
102
RTVSPropertyOp57
 70
     1
102
RTVSPropertyOp58
 70
     1
102
RTVSPropertyOp59
 70
     1
102
RTVSPropertyOp60
 70
     1
102
RTVSPropertyOp61
 70
     1
102
RTVSPropertyOp62
 70
     1
  0
XRECORD
  5
747
102
{ACAD_REACTORS
330
746
102
}
330
746
100
AcDbXrecord
280
     1
102
RTVSPost2010Prop28
280
     0
102
RTVSPost2010PropOp28
 70
     1
102
RTVSPost2010Prop29
280
     1
102
RTVSPost2010PropOp29
 70
     1
102
RTVSPost2010Prop30
280
     1
102
RTVSPost2010PropOp30
 70
     1
102
RTVSPost2010Prop31
280
     0
102
RTVSPost2010PropOp31
 70
     1
102
RTVSPost2010Prop32
280
     0
102
RTVSPost2010PropOp32
 70
     1
102
RTVSPost2010Prop33
280
     0
102
RTVSPost2010PropOp33
 70
     1
102
RTVSPost2010Prop34
280
     0
102
RTVSPost2010PropOp34
 70
     1
102
RTVSPost2010Prop35
280
     0
102
RTVSPost2010PropOp35
 70
     1
102
RTVSPost2010Prop36
280
     0
102
RTVSPost2010PropOp36
 70
     1
102
RTVSPost2010Prop37
 90
       50
102
RTVSPost2010PropOp37
 70
     1
102
RTVSPost2010Prop38
140
0.0
102
RTVSPost2010PropOp38
 70
     1
102
RTVSPost2010Prop39
140
1.0
102
RTVSPost2010PropOp39
 70
     1
102
RTVSPost2010Prop40
 90
        0
102
RTVSPost2010PropOp40
 70
     1
102
RTVSPost2010Prop41ColorIndex
 90
       18
102
RTVSPost2010Prop41ColorRGB
 90
        0
102
RTVSPost2010PropOp41
 70
     1
102
RTVSPost2010Prop42
 90
       50
102
RTVSPost2010PropOp42
 70
     1
102
RTVSPost2010Prop43
 90
        3
102
RTVSPost2010PropOp43
 70
     1
102
RTVSPost2010Prop44ColorIndex
 90
        5
102
RTVSPost2010Prop44ColorRGB
 90
      255
102
RTVSPost2010PropOp44
 70
     1
102
RTVSPost2010Prop45
280
     0
102
RTVSPost2010PropOp45
 70
     1
102
RTVSPost2010Prop46
 90
       50
102
RTVSPost2010PropOp46
 70
     1
102
RTVSPost2010Prop47
 90
       50
102
RTVSPost2010PropOp47
 70
     1
102
RTVSPost2010Prop48
 90
       50
102
RTVSPost2010PropOp48
 70
     1
102
RTVSPost2010Prop49
280
     0
102
RTVSPost2010PropOp49
 70
     1
102
RTVSPost2010Prop50
 90
       50
102
RTVSPost2010PropOp50
 70
     1
102
RTVSPost2010Prop51ColorIndex
 90
      256
102
RTVSPost2010Prop51ColorRGB
 90
-16777216
102
RTVSPost2010PropOp51
 70
     0
102
RTVSPost2010Prop52
140
1.0
102
RTVSPost2010PropOp52
 70
     0
102
RTVSPost2010Prop53
 90
        2
102
RTVSPost2010PropOp53
 70
     1
102
RTVSPost2010Prop54
  1
strokes_ogs.tif
102
RTVSPost2010PropOp54
 70
     1
102
RTVSPost2010Prop55
280
     0
102
RTVSPost2010PropOp55
 70
     1
102
RTVSPost2010Prop56
140
1.0
102
RTVSPost2010PropOp56
 70
     1
102
RTVSPost2010Prop57
140
1.0
102
RTVSPost2010PropOp57
 70
     1
102
RTVSPropertyOp0
 70
     1
102
RTVSPropertyOp1
 70
     1
102
RTVSPropertyOp2
 70
     1
102
RTVSPropertyOp3
 70
     1
102
RTVSPropertyOp4
 70
     1
102
RTVSPropertyOp5
 70
     1
102
RTVSPropertyOp6
 70
     1
102
RTVSPropertyOp7
 70
     1
102
RTVSPropertyOp8
 70
     1
102
RTVSPropertyOp9
 70
     1
102
RTVSPropertyOp10
 70
     1
102
RTVSPropertyOp11
 70
     1
102
RTVSPropertyOp12
 70
     1
102
RTVSPropertyOp13
 70
     1
102
RTVSPropertyOp14
 70
     1
102
RTVSPropertyOp15
 70
     1
102
RTVSPropertyOp16
 70
     1
102
RTVSPropertyOp17
 70
     1
102
RTVSPropertyOp18
 70
     1
102
RTVSPropertyOp19
 70
     1
102
RTVSPropertyOp20
 70
     1
102
RTVSPropertyOp21
 70
     1
102
RTVSPropertyOp22
 70
     1
102
RTVSPropertyOp23
 70
     1
102
RTVSPropertyOp24
 70
     1
102
RTVSPropertyOp25
 70
     1
102
RTVSPropertyOp26
 70
     1
102
RTVSPropertyOp27
 70
     1
102
RTVSPropertyOp28
 70
     1
102
RTVSPropertyOp29
 70
     1
102
RTVSPropertyOp30
 70
     1
102
RTVSPropertyOp31
 70
     1
102
RTVSPropertyOp32
 70
     1
102
RTVSPropertyOp33
 70
     1
102
RTVSPropertyOp34
 70
     1
102
RTVSPropertyOp35
 70
     1
102
RTVSPropertyOp36
 70
     1
102
RTVSPropertyOp37
 70
     1
102
RTVSPropertyOp38
 70
     1
102
RTVSPropertyOp39
 70
     1
102
RTVSPropertyOp40
 70
     1
102
RTVSPropertyOp41
 70
     1
102
RTVSPropertyOp42
 70
     1
102
RTVSPropertyOp43
 70
     1
102
RTVSPropertyOp44
 70
     1
102
RTVSPropertyOp45
 70
     1
102
RTVSPropertyOp46
 70
     1
102
RTVSPropertyOp47
 70
     1
102
RTVSPropertyOp48
 70
     1
102
RTVSPropertyOp49
 70
     1
102
RTVSPropertyOp50
 70
     1
102
RTVSPropertyOp51
 70
     0
102
RTVSPropertyOp52
 70
     0
102
RTVSPropertyOp53
 70
     1
102
RTVSPropertyOp54
 70
     1
102
RTVSPropertyOp55
 70
     1
102
RTVSPropertyOp56
 70
     1
102
RTVSPropertyOp57
 70
     1
102
RTVSPropertyOp58
 70
     1
102
RTVSPropertyOp59
 70
     1
102
RTVSPropertyOp60
 70
     1
102
RTVSPropertyOp61
 70
     1
102
RTVSPropertyOp62
 70
     1
  0
XRECORD
  5
73B
102
{ACAD_REACTORS
330
73A
102
}
330
73A
100
AcDbXrecord
280
     1
102
RTVSPost2010Prop28
280
     0
102
RTVSPost2010PropOp28
 70
     1
102
RTVSPost2010Prop29
280
     1
102
RTVSPost2010PropOp29
 70
     1
102
RTVSPost2010Prop30
280
     1
102
RTVSPost2010PropOp30
 70
     1
102
RTVSPost2010Prop31
280
     0
102
RTVSPost2010PropOp31
 70
     1
102
RTVSPost2010Prop32
280
     0
102
RTVSPost2010PropOp32
 70
     1
102
RTVSPost2010Prop33
280
     0
102
RTVSPost2010PropOp33
 70
     1
102
RTVSPost2010Prop34
280
     0
102
RTVSPost2010PropOp34
 70
     1
102
RTVSPost2010Prop35
280
     0
102
RTVSPost2010PropOp35
 70
     1
102
RTVSPost2010Prop36
280
     0
102
RTVSPost2010PropOp36
 70
     1
102
RTVSPost2010Prop37
 90
       50
102
RTVSPost2010PropOp37
 70
     1
102
RTVSPost2010Prop38
140
0.0
102
RTVSPost2010PropOp38
 70
     1
102
RTVSPost2010Prop39
140
1.0
102
RTVSPost2010PropOp39
 70
     1
102
RTVSPost2010Prop40
 90
        0
102
RTVSPost2010PropOp40
 70
     1
102
RTVSPost2010Prop41ColorIndex
 90
       18
102
RTVSPost2010Prop41ColorRGB
 90
        0
102
RTVSPost2010PropOp41
 70
     1
102
RTVSPost2010Prop42
 90
       50
102
RTVSPost2010PropOp42
 70
     1
102
RTVSPost2010Prop43
 90
        3
102
RTVSPost2010PropOp43
 70
     1
102
RTVSPost2010Prop44ColorIndex
 90
        5
102
RTVSPost2010Prop44ColorRGB
 90
      255
102
RTVSPost2010PropOp44
 70
     1
102
RTVSPost2010Prop45
280
     0
102
RTVSPost2010PropOp45
 70
     1
102
RTVSPost2010Prop46
 90
       50
102
RTVSPost2010PropOp46
 70
     1
102
RTVSPost2010Prop47
 90
       50
102
RTVSPost2010PropOp47
 70
     1
102
RTVSPost2010Prop48
 90
       50
102
RTVSPost2010PropOp48
 70
     1
102
RTVSPost2010Prop49
280
     0
102
RTVSPost2010PropOp49
 70
     1
102
RTVSPost2010Prop50
 90
       50
102
RTVSPost2010PropOp50
 70
     1
102
RTVSPost2010Prop51ColorIndex
 90
      256
102
RTVSPost2010Prop51ColorRGB
 90
-16777216
102
RTVSPost2010PropOp51
 70
     0
102
RTVSPost2010Prop52
140
1.0
102
RTVSPost2010PropOp52
 70
     0
102
RTVSPost2010Prop53
 90
        2
102
RTVSPost2010PropOp53
 70
     1
102
RTVSPost2010Prop54
  1
strokes_ogs.tif
102
RTVSPost2010PropOp54
 70
     1
102
RTVSPost2010Prop55
280
     0
102
RTVSPost2010PropOp55
 70
     1
102
RTVSPost2010Prop56
140
1.0
102
RTVSPost2010PropOp56
 70
     1
102
RTVSPost2010Prop57
140
1.0
102
RTVSPost2010PropOp57
 70
     1
102
RTVSPropertyOp0
 70
     1
102
RTVSPropertyOp1
 70
     1
102
RTVSPropertyOp2
 70
     1
102
RTVSPropertyOp3
 70
     1
102
RTVSPropertyOp4
 70
     1
102
RTVSPropertyOp5
 70
     1
102
RTVSPropertyOp6
 70
     1
102
RTVSPropertyOp7
 70
     1
102
RTVSPropertyOp8
 70
     1
102
RTVSPropertyOp9
 70
     1
102
RTVSPropertyOp10
 70
     1
102
RTVSPropertyOp11
 70
     1
102
RTVSPropertyOp12
 70
     1
102
RTVSPropertyOp13
 70
     1
102
RTVSPropertyOp14
 70
     1
102
RTVSPropertyOp15
 70
     1
102
RTVSPropertyOp16
 70
     1
102
RTVSPropertyOp17
 70
     1
102
RTVSPropertyOp18
 70
     1
102
RTVSPropertyOp19
 70
     1
102
RTVSPropertyOp20
 70
     1
102
RTVSPropertyOp21
 70
     1
102
RTVSPropertyOp22
 70
     1
102
RTVSPropertyOp23
 70
     1
102
RTVSPropertyOp24
 70
     1
102
RTVSPropertyOp25
 70
     1
102
RTVSPropertyOp26
 70
     1
102
RTVSPropertyOp27
 70
     1
102
RTVSPropertyOp28
 70
     1
102
RTVSPropertyOp29
 70
     1
102
RTVSPropertyOp30
 70
     1
102
RTVSPropertyOp31
 70
     1
102
RTVSPropertyOp32
 70
     1
102
RTVSPropertyOp33
 70
     1
102
RTVSPropertyOp34
 70
     1
102
RTVSPropertyOp35
 70
     1
102
RTVSPropertyOp36
 70
     1
102
RTVSPropertyOp37
 70
     1
102
RTVSPropertyOp38
 70
     1
102
RTVSPropertyOp39
 70
     1
102
RTVSPropertyOp40
 70
     1
102
RTVSPropertyOp41
 70
     1
102
RTVSPropertyOp42
 70
     1
102
RTVSPropertyOp43
 70
     1
102
RTVSPropertyOp44
 70
     1
102
RTVSPropertyOp45
 70
     1
102
RTVSPropertyOp46
 70
     1
102
RTVSPropertyOp47
 70
     1
102
RTVSPropertyOp48
 70
     1
102
RTVSPropertyOp49
 70
     1
102
RTVSPropertyOp50
 70
     1
102
RTVSPropertyOp51
 70
     0
102
RTVSPropertyOp52
 70
     0
102
RTVSPropertyOp53
 70
     1
102
RTVSPropertyOp54
 70
     1
102
RTVSPropertyOp55
 70
     1
102
RTVSPropertyOp56
 70
     1
102
RTVSPropertyOp57
 70
     1
102
RTVSPropertyOp58
 70
     1
102
RTVSPropertyOp59
 70
     1
102
RTVSPropertyOp60
 70
     1
102
RTVSPropertyOp61
 70
     1
102
RTVSPropertyOp62
 70
     1
  0
XRECORD
  5
753
102
{ACAD_REACTORS
330
752
102
}
330
752
100
AcDbXrecord
280
     1
102
RTVSPost2010Prop28
280
     0
102
RTVSPost2010PropOp28
 70
     1
102
RTVSPost2010Prop29
280
     1
102
RTVSPost2010PropOp29
 70
     1
102
RTVSPost2010Prop30
280
     1
102
RTVSPost2010PropOp30
 70
     1
102
RTVSPost2010Prop31
280
     0
102
RTVSPost2010PropOp31
 70
     1
102
RTVSPost2010Prop32
280
     0
102
RTVSPost2010PropOp32
 70
     1
102
RTVSPost2010Prop33
280
     0
102
RTVSPost2010PropOp33
 70
     1
102
RTVSPost2010Prop34
280
     0
102
RTVSPost2010PropOp34
 70
     1
102
RTVSPost2010Prop35
280
     0
102
RTVSPost2010PropOp35
 70
     1
102
RTVSPost2010Prop36
280
     0
102
RTVSPost2010PropOp36
 70
     1
102
RTVSPost2010Prop37
 90
       50
102
RTVSPost2010PropOp37
 70
     1
102
RTVSPost2010Prop38
140
0.0
102
RTVSPost2010PropOp38
 70
     1
102
RTVSPost2010Prop39
140
1.0
102
RTVSPost2010PropOp39
 70
     1
102
RTVSPost2010Prop40
 90
        0
102
RTVSPost2010PropOp40
 70
     1
102
RTVSPost2010Prop41ColorIndex
 90
       18
102
RTVSPost2010Prop41ColorRGB
 90
        0
102
RTVSPost2010PropOp41
 70
     1
102
RTVSPost2010Prop42
 90
       50
102
RTVSPost2010PropOp42
 70
     1
102
RTVSPost2010Prop43
 90
        3
102
RTVSPost2010PropOp43
 70
     1
102
RTVSPost2010Prop44ColorIndex
 90
        5
102
RTVSPost2010Prop44ColorRGB
 90
      255
102
RTVSPost2010PropOp44
 70
     1
102
RTVSPost2010Prop45
280
     0
102
RTVSPost2010PropOp45
 70
     1
102
RTVSPost2010Prop46
 90
       50
102
RTVSPost2010PropOp46
 70
     1
102
RTVSPost2010Prop47
 90
       50
102
RTVSPost2010PropOp47
 70
     1
102
RTVSPost2010Prop48
 90
       50
102
RTVSPost2010PropOp48
 70
     1
102
RTVSPost2010Prop49
280
     0
102
RTVSPost2010PropOp49
 70
     1
102
RTVSPost2010Prop50
 90
       50
102
RTVSPost2010PropOp50
 70
     1
102
RTVSPost2010Prop51ColorIndex
 90
      256
102
RTVSPost2010Prop51ColorRGB
 90
-16777216
102
RTVSPost2010PropOp51
 70
     0
102
RTVSPost2010Prop52
140
1.0
102
RTVSPost2010PropOp52
 70
     0
102
RTVSPost2010Prop53
 90
        2
102
RTVSPost2010PropOp53
 70
     1
102
RTVSPost2010Prop54
  1
strokes_ogs.tif
102
RTVSPost2010PropOp54
 70
     1
102
RTVSPost2010Prop55
280
     0
102
RTVSPost2010PropOp55
 70
     1
102
RTVSPost2010Prop56
140
1.0
102
RTVSPost2010PropOp56
 70
     1
102
RTVSPost2010Prop57
140
1.0
102
RTVSPost2010PropOp57
 70
     1
102
RTVSPropertyOp0
 70
     1
102
RTVSPropertyOp1
 70
     1
102
RTVSPropertyOp2
 70
     1
102
RTVSPropertyOp3
 70
     1
102
RTVSPropertyOp4
 70
     1
102
RTVSPropertyOp5
 70
     1
102
RTVSPropertyOp6
 70
     1
102
RTVSPropertyOp7
 70
     1
102
RTVSPropertyOp8
 70
     1
102
RTVSPropertyOp9
 70
     1
102
RTVSPropertyOp10
 70
     1
102
RTVSPropertyOp11
 70
     1
102
RTVSPropertyOp12
 70
     1
102
RTVSPropertyOp13
 70
     1
102
RTVSPropertyOp14
 70
     1
102
RTVSPropertyOp15
 70
     1
102
RTVSPropertyOp16
 70
     1
102
RTVSPropertyOp17
 70
     1
102
RTVSPropertyOp18
 70
     1
102
RTVSPropertyOp19
 70
     1
102
RTVSPropertyOp20
 70
     1
102
RTVSPropertyOp21
 70
     1
102
RTVSPropertyOp22
 70
     1
102
RTVSPropertyOp23
 70
     1
102
RTVSPropertyOp24
 70
     1
102
RTVSPropertyOp25
 70
     1
102
RTVSPropertyOp26
 70
     1
102
RTVSPropertyOp27
 70
     1
102
RTVSPropertyOp28
 70
     1
102
RTVSPropertyOp29
 70
     1
102
RTVSPropertyOp30
 70
     1
102
RTVSPropertyOp31
 70
     1
102
RTVSPropertyOp32
 70
     1
102
RTVSPropertyOp33
 70
     1
102
RTVSPropertyOp34
 70
     1
102
RTVSPropertyOp35
 70
     1
102
RTVSPropertyOp36
 70
     1
102
RTVSPropertyOp37
 70
     1
102
RTVSPropertyOp38
 70
     1
102
RTVSPropertyOp39
 70
     1
102
RTVSPropertyOp40
 70
     1
102
RTVSPropertyOp41
 70
     1
102
RTVSPropertyOp42
 70
     1
102
RTVSPropertyOp43
 70
     1
102
RTVSPropertyOp44
 70
     1
102
RTVSPropertyOp45
 70
     1
102
RTVSPropertyOp46
 70
     1
102
RTVSPropertyOp47
 70
     1
102
RTVSPropertyOp48
 70
     1
102
RTVSPropertyOp49
 70
     1
102
RTVSPropertyOp50
 70
     1
102
RTVSPropertyOp51
 70
     0
102
RTVSPropertyOp52
 70
     0
102
RTVSPropertyOp53
 70
     1
102
RTVSPropertyOp54
 70
     1
102
RTVSPropertyOp55
 70
     1
102
RTVSPropertyOp56
 70
     1
102
RTVSPropertyOp57
 70
     1
102
RTVSPropertyOp58
 70
     1
102
RTVSPropertyOp59
 70
     1
102
RTVSPropertyOp60
 70
     1
102
RTVSPropertyOp61
 70
     1
102
RTVSPropertyOp62
 70
     1
  0
ENDSEC
  0
EOF
