  0
SECTION
  2
HEADER
  9
$ACADVER
  1
AC1015
  9
$ACADMAINTVER
 70
    20
  9
$DWGCODEPAGE
  3
ANSI_1252
  9
$INSBASE
 10
0.0
 20
0.0
 30
0.0
  9
$EXTMIN
 10
-57.7006526543999
 20
-31.05230647354892
 30
-0.0015258207003583
  9
$EXTMAX
 10
46.92123442995506
 20
44.44848672562341
 30
0.0000000349246037
  9
$LIMMIN
 10
0.0
 20
0.0
  9
$LIMMAX
 10
210.0
 20
297.0
  9
$ORTHOMODE
 70
     0
  9
$REGENMODE
 70
     1
  9
$FILLMODE
 70
     1
  9
$QTEXTMODE
 70
     0
  9
$MIRRTEXT
 70
     1
  9
$LTSCALE
 40
1.0
  9
$ATTMODE
 70
     1
  9
$TEXTSIZE
 40
2.5
  9
$TRACEWID
 40
1.0
  9
$TEXTSTYLE
  7
STANDARD
  9
$CLAYER
  8
0
  9
$CELTYPE
  6
ByLayer
  9
$CECOLOR
 62
   256
  9
$CELTSCALE
 40
1.0
  9
$DISPSILH
 70
     0
  9
$DIMSCALE
 40
1.0
  9
$DIMASZ
 40
2.5
  9
$DIMEXO
 40
0.625
  9
$DIMDLI
 40
3.75
  9
$DIMRND
 40
0.0
  9
$DIMDLE
 40
0.0
  9
$DIMEXE
 40
1.25
  9
$DIMTP
 40
0.0
  9
$DIMTM
 40
0.0
  9
$DIMTXT
 40
2.5
  9
$DIMCEN
 40
2.5
  9
$DIMTSZ
 40
0.0
  9
$DIMTOL
 70
     0
  9
$DIMLIM
 70
     0
  9
$DIMTIH
 70
     0
  9
$DIMTOH
 70
     0
  9
$DIMSE1
 70
     0
  9
$DIMSE2
 70
     0
  9
$DIMTAD
 70
     1
  9
$DIMZIN
 70
     8
  9
$DIMBLK
  1

  9
$DIMASO
 70
     1
  9
$DIMSHO
 70
     1
  9
$DIMPOST
  1

  9
$DIMAPOST
  1

  9
$DIMALT
 70
     0
  9
$DIMALTD
 70
     3
  9
$DIMALTF
 40
0.0393700787
  9
$DIMLFAC
 40
1.0
  9
$DIMTOFL
 70
     1
  9
$DIMTVP
 40
0.0
  9
$DIMTIX
 70
     0
  9
$DIMSOXD
 70
     0
  9
$DIMSAH
 70
     0
  9
$DIMBLK1
  1

  9
$DIMBLK2
  1

  9
$DIMSTYLE
  2
ISO-25
  9
$DIMCLRD
 70
     0
  9
$DIMCLRE
 70
     0
  9
$DIMCLRT
 70
     0
  9
$DIMTFAC
 40
1.0
  9
$DIMGAP
 40
0.625
  9
$DIMJUST
 70
     0
  9
$DIMSD1
 70
     0
  9
$DIMSD2
 70
     0
  9
$DIMTOLJ
 70
     1
  9
$DIMTZIN
 70
     0
  9
$DIMALTZ
 70
     0
  9
$DIMALTTZ
 70
     0
  9
$DIMUPT
 70
     0
  9
$DIMDEC
 70
     4
  9
$DIMTDEC
 70
     4
  9
$DIMALTU
 70
     2
  9
$DIMALTTD
 70
     2
  9
$DIMTXSTY
  7
STANDARD
  9
$DIMAUNIT
 70
     0
  9
$DIMADEC
 70
     0
  9
$DIMALTRND
 40
0.0
  9
$DIMAZIN
 70
     0
  9
$DIMDSEP
 70
    46
  9
$DIMATFIT
 70
     3
  9
$DIMFRAC
 70
     0
  9
$DIMLDRBLK
  1

  9
$DIMLUNIT
 70
     2
  9
$DIMLWD
 70
    -2
  9
$DIMLWE
 70
    -2
  9
$DIMTMOVE
 70
     0
  9
$LUNITS
 70
     2
  9
$LUPREC
 70
     4
  9
$SKETCHINC
 40
1.0
  9
$FILLETRAD
 40
10.0
  9
$AUNITS
 70
     0
  9
$AUPREC
 70
     0
  9
$MENU
  1
.
  9
$ELEVATION
 40
0.0
  9
$PELEVATION
 40
0.0
  9
$THICKNESS
 40
0.0
  9
$LIMCHECK
 70
     0
  9
$CHAMFERA
 40
10.0
  9
$CHAMFERB
 40
10.0
  9
$CHAMFERC
 40
0.0
  9
$CHAMFERD
 40
0.0
  9
$SKPOLY
 70
     0
  9
$TDCREATE
 40
2455888.578854363
  9
$TDUCREATE
 40
2455888.495521030
  9
$TDUPDATE
 40
2456818.547417141
  9
$TDUUPDATE
 40
2456818.464083808
  9
$TDINDWG
 40
0.0000099421
  9
$TDUSRTIMER
 40
0.0000099421
  9
$USRTIMER
 70
     1
  9
$ANGBASE
 50
0.0
  9
$ANGDIR
 70
     0
  9
$PDMODE
 70
     0
  9
$PDSIZE
 40
0.0
  9
$PLINEWID
 40
0.0
  9
$SPLFRAME
 70
     0
  9
$SPLINETYPE
 70
     6
  9
$SPLINESEGS
 70
     8
  9
$HANDSEED
  5
818
  9
$SURFTAB1
 70
     6
  9
$SURFTAB2
 70
     6
  9
$SURFTYPE
 70
     6
  9
$SURFU
 70
     6
  9
$SURFV
 70
     6
  9
$UCSBASE
  2

  9
$UCSNAME
  2

  9
$UCSORG
 10
0.0
 20
0.0
 30
0.0
  9
$UCSXDIR
 10
1.0
 20
0.0
 30
0.0
  9
$UCSYDIR
 10
0.0
 20
1.0
 30
0.0
  9
$UCSORTHOREF
  2

  9
$UCSORTHOVIEW
 70
     0
  9
$UCSORGTOP
 10
0.0
 20
0.0
 30
0.0
  9
$UCSORGBOTTOM
 10
0.0
 20
0.0
 30
0.0
  9
$UCSORGLEFT
 10
0.0
 20
0.0
 30
0.0
  9
$UCSORGRIGHT
 10
0.0
 20
0.0
 30
0.0
  9
$UCSORGFRONT
 10
0.0
 20
0.0
 30
0.0
  9
$UCSORGBACK
 10
0.0
 20
0.0
 30
0.0
  9
$PUCSBASE
  2

  9
$PUCSNAME
  2

  9
$PUCSORG
 10
0.0
 20
0.0
 30
0.0
  9
$PUCSXDIR
 10
1.0
 20
0.0
 30
0.0
  9
$PUCSYDIR
 10
0.0
 20
1.0
 30
0.0
  9
$PUCSORTHOREF
  2

  9
$PUCSORTHOVIEW
 70
     0
  9
$PUCSORGTOP
 10
0.0
 20
0.0
 30
0.0
  9
$PUCSORGBOTTOM
 10
0.0
 20
0.0
 30
0.0
  9
$PUCSORGLEFT
 10
0.0
 20
0.0
 30
0.0
  9
$PUCSORGRIGHT
 10
0.0
 20
0.0
 30
0.0
  9
$PUCSORGFRONT
 10
0.0
 20
0.0
 30
0.0
  9
$PUCSORGBACK
 10
0.0
 20
0.0
 30
0.0
  9
$USERI1
 70
     0
  9
$USERI2
 70
     0
  9
$USERI3
 70
     0
  9
$USERI4
 70
     0
  9
$USERI5
 70
     0
  9
$USERR1
 40
0.0
  9
$USERR2
 40
0.0
  9
$USERR3
 40
0.0
  9
$USERR4
 40
0.0
  9
$USERR5
 40
0.0
  9
$WORLDVIEW
 70
     1
  9
$SHADEDGE
 70
     3
  9
$SHADEDIF
 70
    70
  9
$TILEMODE
 70
     1
  9
$MAXACTVP
 70
    64
  9
$PINSBASE
 10
0.0
 20
0.0
 30
0.0
  9
$PLIMCHECK
 70
     0
  9
$PEXTMIN
 10
0.0
 20
0.0
 30
0.0
  9
$PEXTMAX
 10
210.0
 20
297.0
 30
0.0
  9
$PLIMMIN
 10
0.0
 20
0.0
  9
$PLIMMAX
 10
210.0
 20
297.0
  9
$UNITMODE
 70
     0
  9
$VISRETAIN
 70
     1
  9
$PLINEGEN
 70
     0
  9
$PSLTSCALE
 70
     1
  9
$TREEDEPTH
 70
  3020
  9
$CMLSTYLE
  2
Standard
  9
$CMLJUST
 70
     0
  9
$CMLSCALE
 40
1.0
  9
$PROXYGRAPHICS
 70
     1
  9
$MEASUREMENT
 70
     0
  9
$CELWEIGHT
370
    -1
  9
$ENDCAPS
280
     0
  9
$JOINSTYLE
280
     0
  9
$LWDISPLAY
290
     0
  9
$INSUNITS
 70
     0
  9
$HYPERLINKBASE
  1

  9
$STYLESHEET
  1

  9
$XEDIT
290
     1
  9
$CEPSNTYPE
380
     0
  9
$PSTYLEMODE
290
     1
  9
$FINGERPRINTGUID
  2
{2D735913-E8F9-4BFB-A49A-95B467BB6A13}
  9
$VERSIONGUID
  2
{43D733A2-C07A-432A-997F-4418E709FB2F}
  9
$EXTNAMES
290
     1
  9
$PSVPSCALE
 40
0.0
  9
$OLESTARTUP
290
     0
  0
ENDSEC
  0
SECTION
  2
CLASSES
  0
CLASS
  1
ACDBDICTIONARYWDFLT
  2
AcDbDictionaryWithDefault
  3
ObjectDBX Classes
 90
        0
280
     0
281
     0
  0
CLASS
  1
MATERIAL
  2
AcDbMaterial
  3
ObjectDBX Classes
 90
     1153
280
     0
281
     0
  0
CLASS
  1
VISUALSTYLE
  2
AcDbVisualStyle
  3
ObjectDBX Classes
 90
     4095
280
     0
281
     0
  0
CLASS
  1
SCALE
  2
AcDbScale
  3
ObjectDBX Classes
 90
     1153
280
     0
281
     0
  0
CLASS
  1
TABLESTYLE
  2
AcDbTableStyle
  3
ObjectDBX Classes
 90
     4095
280
     0
281
     0
  0
CLASS
  1
MLEADERSTYLE
  2
AcDbMLeaderStyle
  3
ACDB_MLEADERSTYLE_CLASS
 90
     4095
280
     0
281
     0
  0
CLASS
  1
ACDBSECTIONVIEWSTYLE
  2
AcDbSectionViewStyle
  3
ObjectDBX Classes
 90
     1025
280
     0
281
     0
  0
CLASS
  1
ACDBDETAILVIEWSTYLE
  2
AcDbDetailViewStyle
  3
ObjectDBX Classes
 90
     1025
280
     0
281
     0
  0
CLASS
  1
EXACXREFPANELOBJECT
  2
ExAcXREFPanelObject
  3
EXAC_ESW
 90
     1025
280
     0
281
     0
  0
CLASS
  1
NPOCOLLECTION
  2
AcDbImpNonPersistentObjectsCollection
  3
ObjectDBX Classes
 90
     1153
280
     0
281
     0
  0
CLASS
  1
DICTIONARYVAR
  2
AcDbDictionaryVar
  3
ObjectDBX Classes
 90
        0
280
     0
281
     0
  0
CLASS
  1
CELLSTYLEMAP
  2
AcDbCellStyleMap
  3
ObjectDBX Classes
 90
     1152
280
     0
281
     0
  0
CLASS
  1
ACDBPLACEHOLDER
  2
AcDbPlaceHolder
  3
ObjectDBX Classes
 90
        0
280
     0
281
     0
  0
CLASS
  1
LAYOUT
  2
AcDbLayout
  3
ObjectDBX Classes
 90
        0
280
     0
281
     0
  0
ENDSEC
  0
SECTION
  2
TABLES
  0
TABLE
  2
VPORT
  5
725
330
0
100
AcDbSymbolTable
 70
     1
  0
VPORT
  5
791
330
725
100
AcDbSymbolTableRecord
100
AcDbViewportTableRecord
  2
*ACTIVE
 70
     0
 10
0.0
 20
0.0
 11
1.0
 21
1.0
 12
-5.389709112222423
 22
6.698090126037239
 13
0.0
 23
0.0
 14
10.0
 24
10.0
 15
10.0
 25
10.0
 16
0.0
 26
0.0
 36
1.0
 17
0.0
 27
0.0
 37
0.0
 40
84.49184991188609
 41
2.2
 42
50.0
 43
0.0
 44
0.0
 50
0.0
 51
0.0
 71
     0
 72
   100
 73
     1
 74
     3
 75
     0
 76
     0
 77
     0
 78
     0
281
     0
 65
     1
110
0.0
120
0.0
130
0.0
111
1.0
121
0.0
131
0.0
112
0.0
122
1.0
132
0.0
 79
     0
146
0.0
1001
ACAD_NAV_VCDISPLAY
1070
     3
  0
ENDTAB
  0
TABLE
  2
LTYPE
  5
722
330
0
100
AcDbSymbolTable
 70
     4
  0
LTYPE
  5
777
330
722
100
AcDbSymbolTableRecord
100
AcDbLinetypeTableRecord
  2
ByBlock
 70
     0
  3

 72
    65
 73
     0
 40
0.0
  0
LTYPE
  5
778
330
722
100
AcDbSymbolTableRecord
100
AcDbLinetypeTableRecord
  2
ByLayer
 70
     0
  3

 72
    65
 73
     0
 40
0.0
  0
LTYPE
  5
779
330
722
100
AcDbSymbolTableRecord
100
AcDbLinetypeTableRecord
  2
CONTINUOUS
 70
     0
  3
Solid line
 72
    65
 73
     0
 40
0.0
  0
LTYPE
  5
785
330
722
100
AcDbSymbolTableRecord
100
AcDbLinetypeTableRecord
  2
PHANTOM2
 70
     0
  3
Phantom (.5x) ___ _ _ ___ _ _ ___ _ _ ___ _ _
 72
    65
 73
     6
 40
1.25
 49
0.625
 74
     0
 49
-0.125
 74
     0
 49
0.125
 74
     0
 49
-0.125
 74
     0
 49
0.125
 74
     0
 49
-0.125
 74
     0
  0
LTYPE
  5
792
330
722
100
AcDbSymbolTableRecord
100
AcDbLinetypeTableRecord
  2
CENTER2
 70
     0
  3
Center (.5x) ___ _ ___ _ ___ _ ___ _ ___ _ ___
 72
    65
 73
     4
 40
28.575
 49
19.05
 74
     0
 49
-3.174999999999999
 74
     0
 49
3.174999999999999
 74
     0
 49
-3.174999999999999
 74
     0
  0
LTYPE
  5
793
330
722
100
AcDbSymbolTableRecord
100
AcDbLinetypeTableRecord
  2
HIDDEN2
 70
     0
  3
Hidden (.5x) _ _ _ _ _ _ _ _ _ _ _ _ _ _ _ _ _ 
 72
    65
 73
     2
 40
4.7625
 49
3.174999999999999
 74
     0
 49
-1.587499999999999
 74
     0
  0
ENDTAB
  0
TABLE
  2
LAYER
  5
71F
330
0
100
AcDbSymbolTable
 70
    11
  0
LAYER
  5
771
102
{ACAD_XDICTIONARY
360
7B6
102
}
330
71F
100
AcDbSymbolTableRecord
100
AcDbLayerTableRecord
  2
0
 70
     0
 62
     7
  6
CONTINUOUS
370
    -3
390
72C
  0
LAYER
  5
794
102
{ACAD_XDICTIONARY
360
7B8
102
}
330
71F
100
AcDbSymbolTableRecord
100
AcDbLayerTableRecord
  2
SK6
 70
     0
 62
     5
  6
CONTINUOUS
370
    -3
390
72C
  0
LAYER
  5
795
102
{ACAD_XDICTIONARY
360
7BA
102
}
330
71F
100
AcDbSymbolTableRecord
100
AcDbLayerTableRecord
  2
SK2
 70
     0
 62
     7
  6
CONTINUOUS
370
    -3
390
72C
  0
LAYER
  5
796
102
{ACAD_XDICTIONARY
360
7BC
102
}
330
71F
100
AcDbSymbolTableRecord
100
AcDbLayerTableRecord
  2
2
 70
     0
 62
     7
  6
CONTINUOUS
370
    -3
390
72C
  0
LAYER
  5
797
102
{ACAD_XDICTIONARY
360
7BE
102
}
330
71F
100
AcDbSymbolTableRecord
100
AcDbLayerTableRecord
  2
SK4
 70
     0
 62
     2
  6
CENTER2
370
    -3
390
72C
  0
LAYER
  5
798
102
{ACAD_XDICTIONARY
360
7C0
102
}
330
71F
100
AcDbSymbolTableRecord
100
AcDbLayerTableRecord
  2
SK1
 70
     0
 62
     4
  6
CONTINUOUS
370
    -3
390
72C
  0
LAYER
  5
799
102
{ACAD_XDICTIONARY
360
7C2
102
}
330
71F
100
AcDbSymbolTableRecord
100
AcDbLayerTableRecord
  2
SK3
 70
     0
 62
     1
  6
HIDDEN2
370
    -3
390
72C
  0
LAYER
  5
79A
102
{ACAD_XDICTIONARY
360
7C4
102
}
330
71F
100
AcDbSymbolTableRecord
100
AcDbLayerTableRecord
  2
1
 70
     0
 62
     4
  6
CONTINUOUS
370
    -3
390
72C
  0
LAYER
  5
79B
102
{ACAD_XDICTIONARY
360
7C6
102
}
330
71F
100
AcDbSymbolTableRecord
100
AcDbLayerTableRecord
  2
80
 70
     0
 62
     6
  6
CONTINUOUS
370
    -3
390
72C
  0
LAYER
  5
79C
102
{ACAD_XDICTIONARY
360
7C8
102
}
330
71F
100
AcDbSymbolTableRecord
100
AcDbLayerTableRecord
  2
81
 70
     0
 62
     3
  6
CONTINUOUS
370
    -3
390
72C
  0
LAYER
  5
79D
102
{ACAD_XDICTIONARY
360
7CA
102
}
330
71F
100
AcDbSymbolTableRecord
100
AcDbLayerTableRecord
  2
4
 70
     0
 62
     2
  6
CENTER2
370
    -3
390
72C
  0
ENDTAB
  0
TABLE
  2
STYLE
  5
720
330
0
100
AcDbSymbolTable
 70
     4
  0
STYLE
  5
772
330
720
100
AcDbSymbolTableRecord
100
AcDbTextStyleTableRecord
  2
STANDARD
 70
     0
 40
0.0
 41
1.0
 50
0.0
 71
     0
 42
2.5
  3
txt
  4

  0
STYLE
  5
776
330
720
100
AcDbSymbolTableRecord
100
AcDbTextStyleTableRecord
  2
Annotative
 70
     0
 40
0.0
 41
1.0
 50
0.0
 71
     0
 42
0.2
  3
txt
  4

1001
AcadAnnotative
1000
AnnotativeData
1002
{
1070
     1
1070
     1
1002
}
  0
STYLE
  5
79E
330
720
100
AcDbSymbolTableRecord
100
AcDbTextStyleTableRecord
  2
SEACAD_SEISO_TTF
 70
     0
 40
0.0
 41
1.0
 50
0.0
 71
     0
 42
0.2
  3
seiso.ttf
  4

  0
STYLE
  5
79F
330
720
100
AcDbSymbolTableRecord
100
AcDbTextStyleTableRecord
  2
SEACAD_SEMECI1_TTF
 70
     0
 40
0.0
 41
1.0
 50
0.0
 71
     0
 42
0.2
  3
semeci1.ttf
  4

  0
ENDTAB
  0
TABLE
  2
VIEW
  5
723
330
0
100
AcDbSymbolTable
 70
     0
  0
ENDTAB
  0
TABLE
  2
UCS
  5
724
330
0
100
AcDbSymbolTable
 70
     0
  0
ENDTAB
  0
TABLE
  2
APPID
  5
726
330
0
100
AcDbSymbolTable
 70
     5
  0
APPID
  5
773
330
726
100
AcDbSymbolTableRecord
100
AcDbRegAppTableRecord
  2
ACAD
 70
     0
  0
APPID
  5
77A
330
726
100
AcDbSymbolTableRecord
100
AcDbRegAppTableRecord
  2
AcadAnnotative
 70
     0
  0
APPID
  5
7CE
330
726
100
AcDbSymbolTableRecord
100
AcDbRegAppTableRecord
  2
DCO15
 70
     0
  0
APPID
  5
7DA
330
726
100
AcDbSymbolTableRecord
100
AcDbRegAppTableRecord
  2
ACAD_NAV_VCDISPLAY
 70
     0
  0
APPID
  5
813
330
726
100
AcDbSymbolTableRecord
100
AcDbRegAppTableRecord
  2
ACAD_MLEADERVER
 70
     0
  0
ENDTAB
  0
TABLE
  2
DIMSTYLE
  5
727
330
0
100
AcDbSymbolTable
 70
     3
100
AcDbDimStyleTable
 71
     0
  0
DIMSTYLE
105
774
330
727
100
AcDbSymbolTableRecord
100
AcDbDimStyleTableRecord
  2
Standard
 70
     0
340
772
  0
DIMSTYLE
105
775
330
727
100
AcDbSymbolTableRecord
100
AcDbDimStyleTableRecord
  2
Annotative
 70
     0
340
772
1001
AcadAnnotative
1000
AnnotativeData
1002
{
1070
     1
1070
     1
1002
}
  0
DIMSTYLE
105
7A0
330
727
100
AcDbSymbolTableRecord
100
AcDbDimStyleTableRecord
  2
ISO-25
 70
     0
 41
2.5
 42
0.625
 43
3.75
 44
1.25
 73
     0
 74
     0
 77
     1
 78
     8
140
2.5
141
2.5
143
0.0393700787
147
0.625
171
     3
172
     1
274
     3
279
     2
284
     8
285
     8
286
     8
340
772
  0
ENDTAB
  0
TABLE
  2
BLOCK_RECORD
  5
71E
330
0
100
AcDbSymbolTable
 70
     8
  0
BLOCK_RECORD
  5
78D
330
71E
100
AcDbSymbolTableRecord
100
AcDbBlockTableRecord
  2
*Model_Space
340
790
  0
BLOCK_RECORD
  5
789
330
71E
100
AcDbSymbolTableRecord
100
AcDbBlockTableRecord
  2
*Paper_Space
340
78C
  0
BLOCK_RECORD
  5
7A3
330
71E
100
AcDbSymbolTableRecord
100
AcDbBlockTableRecord
  2
$MODEL_SPACE
340
0
  0
BLOCK_RECORD
  5
7A5
330
71E
100
AcDbSymbolTableRecord
100
AcDbBlockTableRecord
  2
$PAPER_SPACE
340
0
  0
BLOCK_RECORD
  5
7A7
330
71E
100
AcDbSymbolTableRecord
100
AcDbBlockTableRecord
  2
GDIMGGROUP
340
0
102
{BLKREFS
331
62
102
}
  0
BLOCK_RECORD
  5
7A9
330
71E
100
AcDbSymbolTableRecord
100
AcDbBlockTableRecord
  2
GDIMGGROUP1
340
0
102
{BLKREFS
331
6E
102
}
  0
BLOCK_RECORD
  5
7AB
330
71E
100
AcDbSymbolTableRecord
100
AcDbBlockTableRecord
  2
GDIMGGROUP2
340
0
102
{BLKREFS
331
79
102
}
  0
BLOCK_RECORD
  5
7AD
330
71E
100
AcDbSymbolTableRecord
100
AcDbBlockTableRecord
  2
GDIMGGROUP3
340
0
102
{BLKREFS
331
84
102
}
  0
BLOCK_RECORD
  5
7AF
330
71E
100
AcDbSymbolTableRecord
100
AcDbBlockTableRecord
  2
GDIMGGROUP4
340
0
102
{BLKREFS
331
8E
102
}
  0
BLOCK_RECORD
  5
7B1
330
71E
100
AcDbSymbolTableRecord
100
AcDbBlockTableRecord
  2
GDIMGGROUP5
340
0
102
{BLKREFS
331
99
102
}
  0
ENDTAB
  0
ENDSEC
  0
SECTION
  2
BLOCKS
  0
BLOCK
  5
78E
330
78D
100
AcDbEntity
  8
0
100
AcDbBlockBegin
  2
*Model_Space
 70
     0
 10
0.0
 20
0.0
 30
0.0
  3
*Model_Space
  1

  0
ENDBLK
  5
78F
330
78D
100
AcDbEntity
  8
0
100
AcDbBlockEnd
  0
BLOCK
  5
78A
330
789
100
AcDbEntity
 67
     1
  8
0
100
AcDbBlockBegin
  2
*Paper_Space
 70
     0
 10
0.0
 20
0.0
 30
0.0
  3
*Paper_Space
  1

  0
ENDBLK
  5
78B
330
789
100
AcDbEntity
 67
     1
  8
0
100
AcDbBlockEnd
  0
BLOCK
  5
7A4
330
7A3
100
AcDbEntity
  8
0
100
AcDbBlockBegin
  2
$MODEL_SPACE
 70
     0
 10
0.0
 20
0.0
 30
0.0
  3
$MODEL_SPACE
  1

  0
ENDBLK
  5
21
330
7A3
100
AcDbEntity
  8
0
100
AcDbBlockEnd
  0
BLOCK
  5
7A6
330
7A5
100
AcDbEntity
  8
0
100
AcDbBlockBegin
  2
$PAPER_SPACE
 70
     0
 10
0.0
 20
0.0
 30
0.0
  3
$PAPER_SPACE
  1

  0
ENDBLK
  5
1D
330
7A5
100
AcDbEntity
  8
0
100
AcDbBlockEnd
  0
BLOCK
  5
7A8
330
7A7
100
AcDbEntity
  8
0
100
AcDbBlockBegin
  2
GDIMGGROUP
 70
     0
 10
0.0
 20
0.0
 30
0.0
  3
GDIMGGROUP
  1

  0
LWPOLYLINE
  5
63
330
7A7
100
AcDbEntity
  8
SK2
  6
Continuous
 62
     7
100
AcDbPolyline
 90
        4
 70
     0
 43
0.0
 10
-54.08333181949999
 20
2.499999891999999
 10
-52.9166651168
 20
2.499999891999999
 10
-53.4999984682
 20
6.0
 10
-54.08333181949999
 20
2.499999891999999
  0
LWPOLYLINE
  5
64
330
7A7
100
AcDbEntity
  8
SK2
  6
Continuous
 62
     7
100
AcDbPolyline
 90
        4
 70
     0
 43
0.0
 10
-54.08333181949999
 20
-2.4999999963
 10
-52.9166651168
 20
-2.4999999963
 10
-53.4999984682
 20
-6.000000104299999
 10
-54.08333181949999
 20
-2.4999999963
  0
LINE
  5
65
330
7A7
100
AcDbEntity
  8
SK2
  6
Continuous
 62
     7
100
AcDbLine
 10
-20.8
 20
6.0
 30
0.0
 11
-55.2499985222
 21
6.0
 31
0.0
  0
LINE
  5
66
330
7A7
100
AcDbEntity
  8
SK2
  6
Continuous
 62
     7
100
AcDbLine
 10
-20.8
 20
-6.0
 30
0.0
 11
-55.2499985222
 21
-6.0
 31
0.0
  0
LINE
  5
67
330
7A7
100
AcDbEntity
  8
SK2
  6
Continuous
 62
     7
100
AcDbLine
 10
-53.4999984682
 20
6.0
 30
0.0
 11
-53.4999984682
 21
-6.000000104299999
 31
0.0
  0
TEXT
  5
69
330
7A7
100
AcDbEntity
  8
SK2
  6
Continuous
 62
     7
100
AcDbText
 10
-54.37499846819999
 20
-4.788462735799999
 30
0.0
 40
3.5
  1
O
 50
90.0
  7
SEACAD_SEMECI1_TTF
 11
-57.8749984682
 21
-4.788462735799999
 31
0.0
100
AcDbText
 73
     3
  0
TEXT
  5
6A
330
7A7
100
AcDbEntity
  8
SK2
  6
Continuous
 62
     7
100
AcDbText
 10
-54.37499846819999
 20
1.208917176899999
 30
0.0
 40
3.5
  1
12
 50
90.0
  7
SEACAD_SEISO_TTF
 11
-57.8749984682
 21
1.2089171769
 31
0.0
100
AcDbText
 73
     3
  0
ENDBLK
  5
6C
330
7A7
100
AcDbEntity
  8
0
100
AcDbBlockEnd
  0
BLOCK
  5
7AA
330
7A9
100
AcDbEntity
  8
0
100
AcDbBlockBegin
  2
GDIMGGROUP1
 70
     0
 10
0.0
 20
0.0
 30
0.0
  3
GDIMGGROUP1
  1

  0
LWPOLYLINE
  5
6F
330
7A9
100
AcDbEntity
  8
SK2
  6
Continuous
 62
     7
100
AcDbPolyline
 90
        4
 70
     0
 43
0.0
 10
22.7059349946
 20
8.262500107999999
 10
21.5392682919
 20
8.262500107999999
 10
22.1226016433
 20
4.7625
 10
22.7059349946
 20
8.262500107999999
  0
LWPOLYLINE
  5
70
330
7A9
100
AcDbEntity
  8
SK2
  6
Continuous
 62
     7
100
AcDbPolyline
 90
        4
 70
     0
 43
0.0
 10
22.7059349946
 20
-8.262500107999999
 10
21.5392682919
 20
-8.262500107999999
 10
22.1226016433
 20
-4.7625
 10
22.7059349946
 20
-8.262500107999999
  0
LINE
  5
71
330
7A9
100
AcDbEntity
  8
SK2
  6
Continuous
 62
     7
100
AcDbLine
 10
3.588637933199999
 20
4.7625
 30
0.0
 11
23.8726016973
 21
4.7625
 31
0.0
  0
LINE
  5
72
330
7A9
100
AcDbEntity
  8
SK2
  6
Continuous
 62
     7
100
AcDbLine
 10
3.588637933199999
 20
-4.7625
 30
0.0
 11
23.8726016973
 21
-4.7625
 31
0.0
  0
LINE
  5
73
330
7A9
100
AcDbEntity
  8
SK2
  6
Continuous
 62
     7
100
AcDbLine
 10
22.1226016433
 20
23.8947658211
 30
0.0
 11
22.1226016433
 21
-11.7625003338
 31
0.0
  0
TEXT
  5
74
330
7A9
100
AcDbEntity
  8
SK2
  6
Continuous
 62
     7
100
AcDbText
 10
21.2476016433
 20
10.0701136246
 30
0.0
 40
3.5
  1
O
 50
90.0
  7
SEACAD_SEMECI1_TTF
 11
17.7476016433
 21
10.0701136246
 31
0.0
100
AcDbText
 73
     3
  0
TEXT
  5
75
330
7A9
100
AcDbEntity
  8
SK2
  6
Continuous
 62
     7
100
AcDbText
 10
21.2476016433
 20
16.0674935373
 30
0.0
 40
3.5
  1
9,53
 50
90.0
  7
SEACAD_SEISO_TTF
 11
17.7476016433
 21
16.0674935373
 31
0.0
100
AcDbText
 73
     3
  0
ENDBLK
  5
77
330
7A9
100
AcDbEntity
  8
0
100
AcDbBlockEnd
  0
BLOCK
  5
7AC
330
7AB
100
AcDbEntity
  8
0
100
AcDbBlockBegin
  2
GDIMGGROUP2
 70
     0
 10
0.0
 20
0.0
 30
0.0
  3
GDIMGGROUP2
  1

  0
LWPOLYLINE
  5
7A
330
7AB
100
AcDbEntity
  8
SK2
  6
Continuous
 62
     7
100
AcDbPolyline
 90
        4
 70
     0
 43
0.0
 10
31.1059347025
 20
4.499999891999999
 10
29.9392679998
 20
4.499999891999999
 10
30.5226013511
 20
8.0
 10
31.1059347025
 20
4.499999891999999
  0
LWPOLYLINE
  5
7B
330
7AB
100
AcDbEntity
  8
SK2
  6
Continuous
 62
     7
100
AcDbPolyline
 90
        4
 70
     0
 43
0.0
 10
31.1059347025
 20
-4.500000651899999
 10
29.9392679998
 20
-4.500000651899999
 10
30.5226013511
 20
-8.00000076
 10
31.1059347025
 20
-4.500000651899999
  0
LINE
  5
7C
330
7AB
100
AcDbEntity
  8
SK2
  6
Continuous
 62
     7
100
AcDbLine
 10
2.0
 20
8.0
 30
0.0
 11
32.2726014052
 21
8.0
 31
0.0
  0
LINE
  5
7D
330
7AB
100
AcDbEntity
  8
SK2
  6
Continuous
 62
     7
100
AcDbLine
 10
2.0
 20
-8.0
 30
0.0
 11
32.2726014052
 21
-8.0
 31
0.0
  0
LINE
  5
7E
330
7AB
100
AcDbEntity
  8
SK2
  6
Continuous
 62
     7
100
AcDbLine
 10
30.5226013511
 20
8.0
 30
0.0
 11
30.5226013511
 21
-8.00000076
 31
0.0
  0
TEXT
  5
7F
330
7AB
100
AcDbEntity
  8
SK2
  6
Continuous
 62
     7
100
AcDbText
 10
29.6476013511
 20
-4.7884630636
 30
0.0
 40
3.5
  1
O
 50
90.0
  7
SEACAD_SEMECI1_TTF
 11
26.1476013511
 21
-4.7884630636
 31
0.0
100
AcDbText
 73
     3
  0
TEXT
  5
80
330
7AB
100
AcDbEntity
  8
SK2
  6
Continuous
 62
     7
100
AcDbText
 10
29.6476013511
 20
1.208916849099999
 30
0.0
 40
3.5
  1
16
 50
90.0
  7
SEACAD_SEISO_TTF
 11
26.1476013511
 21
1.208916849099999
 31
0.0
100
AcDbText
 73
     3
  0
ENDBLK
  5
82
330
7AB
100
AcDbEntity
  8
0
100
AcDbBlockEnd
  0
BLOCK
  5
7AE
330
7AD
100
AcDbEntity
  8
0
100
AcDbBlockBegin
  2
GDIMGGROUP3
 70
     0
 10
0.0
 20
0.0
 30
0.0
  3
GDIMGGROUP3
  1

  0
LWPOLYLINE
  5
85
330
7AD
100
AcDbEntity
  8
SK2
  6
Continuous
 62
     7
100
AcDbPolyline
 90
        4
 70
     0
 43
0.0
 10
-36.499999892
 20
-21.4654425314
 10
-36.499999892
 20
-20.2987758288
 10
-40.0
 20
-20.8821091801
 10
-36.499999892
 20
-21.4654425314
  0
LWPOLYLINE
  5
86
330
7AD
100
AcDbEntity
  8
SK2
  6
Continuous
 62
     7
100
AcDbPolyline
 90
        4
 70
     0
 43
0.0
 10
-3.500001002099999
 20
-21.4654425314
 10
-3.500001002099999
 20
-20.2987758288
 10
-0.0000008941
 20
-20.8821091801
 10
-3.500001002099999
 20
-21.4654425314
  0
LINE
  5
87
330
7AD
100
AcDbEntity
  8
SK2
  6
Continuous
 62
     7
100
AcDbLine
 10
-40.0
 20
0.0
 30
0.0
 11
-40.0
 21
-22.6321092341
 31
0.0
  0
LINE
  5
88
330
7AD
100
AcDbEntity
  8
SK2
  6
Continuous
 62
     7
100
AcDbLine
 10
0.0
 20
-6.834314575099999
 30
0.0
 11
0.0
 21
-22.6321092341
 31
0.0
  0
LINE
  5
89
330
7AD
100
AcDbEntity
  8
SK2
  6
Continuous
 62
     7
100
AcDbLine
 10
-40.0
 20
-20.8821091801
 30
0.0
 11
-0.0000008941
 21
-20.8821091801
 31
0.0
  0
TEXT
  5
8A
330
7AD
100
AcDbEntity
  8
SK2
  6
Continuous
 62
     7
100
AcDbText
 10
-22.0681822652
 20
-20.0071091801
 30
0.0
 40
3.5
  1
40
  7
SEACAD_SEISO_TTF
 11
-22.0681822652
 21
-16.5071091801
 31
0.0
100
AcDbText
 73
     3
  0
ENDBLK
  5
8C
330
7AD
100
AcDbEntity
  8
0
100
AcDbBlockEnd
  0
BLOCK
  5
7B0
330
7AF
100
AcDbEntity
  8
0
100
AcDbBlockBegin
  2
GDIMGGROUP4
 70
     0
 10
0.0
 20
0.0
 30
0.0
  3
GDIMGGROUP4
  1

  0
LWPOLYLINE
  5
8F
330
7AF
100
AcDbEntity
  8
SK2
  6
Continuous
 62
     7
100
AcDbPolyline
 90
        4
 70
     0
 43
0.0
 10
-36.499999892
 20
-29.8654413006
 10
-36.499999892
 20
-28.6987745979
 10
-40.0
 20
-29.2821079493
 10
-36.499999892
 20
-29.8654413006
  0
LWPOLYLINE
  5
90
330
7AF
100
AcDbEntity
  8
SK2
  6
Continuous
 62
     7
100
AcDbPolyline
 90
        4
 70
     0
 43
0.0
 10
0.4999996535000001
 20
-29.8654413006
 10
0.4999996535000001
 20
-28.6987745979
 10
3.9999997616
 20
-29.2821079493
 10
0.4999996535000001
 20
-29.8654413006
  0
LINE
  5
91
330
7AF
100
AcDbEntity
  8
SK2
  6
Continuous
 62
     7
100
AcDbLine
 10
-40.0
 20
0.0
 30
0.0
 11
-40.0
 21
-31.0321080033
 31
0.0
  0
LINE
  5
92
330
7AF
100
AcDbEntity
  8
SK2
  6
Continuous
 62
     7
100
AcDbLine
 10
4.0
 20
-6.1113028387
 30
0.0
 11
4.0
 21
-31.0321080033
 31
0.0
  0
LINE
  5
93
330
7AF
100
AcDbEntity
  8
SK2
  6
Continuous
 62
     7
100
AcDbLine
 10
-40.0
 20
-29.2821079493
 30
0.0
 11
3.9999997616
 21
-29.2821079493
 31
0.0
  0
TEXT
  5
94
330
7AF
100
AcDbEntity
  8
SK2
  6
Continuous
 62
     7
100
AcDbText
 10
-20.0681819374
 20
-28.4071079493
 30
0.0
 40
3.5
  1
44
  7
SEACAD_SEISO_TTF
 11
-20.0681819374
 21
-24.9071079493
 31
0.0
100
AcDbText
 73
     3
  0
ENDBLK
  5
96
330
7AF
100
AcDbEntity
  8
0
100
AcDbBlockEnd
  0
BLOCK
  5
7B2
330
7B1
100
AcDbEntity
  8
0
100
AcDbBlockBegin
  2
GDIMGGROUP5
 70
     0
 10
0.0
 20
0.0
 30
0.0
  3
GDIMGGROUP5
  1

  0
LWPOLYLINE
  5
9A
330
7B1
100
AcDbEntity
  8
2
  6
Continuous
 62
     7
100
AcDbPolyline
 90
        4
 70
     0
 43
0.0
 10
7.500000107999999
 20
26.4957789478
 10
7.500000107999999
 20
25.3291122451
 10
4.0
 20
25.9124455965
 10
7.500000107999999
 20
26.4957789478
  0
LWPOLYLINE
  5
9B
330
7B1
100
AcDbEntity
  8
2
  6
Continuous
 62
     7
100
AcDbPolyline
 90
        4
 70
     0
 43
0.0
 10
-3.500000108
 20
26.4957789478
 10
-3.500000108
 20
25.3291122451
 10
0.0
 20
25.9124455965
 10
-3.500000108
 20
26.4957789478
  0
LINE
  5
9C
330
7B1
100
AcDbEntity
  8
2
  6
Continuous
 62
     7
100
AcDbLine
 10
4.0
 20
6.998889706199999
 30
0.0
 11
4.0
 21
27.6624456505
 31
0.0
  0
LINE
  5
9D
330
7B1
100
AcDbEntity
  8
2
  6
Continuous
 62
     7
100
AcDbLine
 10
0.0
 20
6.834314575099999
 30
0.0
 11
0.0
 21
27.6624456505
 31
0.0
  0
LINE
  5
9E
330
7B1
100
AcDbEntity
  8
2
  6
Continuous
 62
     7
100
AcDbLine
 10
11.0000002161
 20
25.9124455965
 30
0.0
 11
-6.999999940399999
 21
25.9124455965
 31
0.0
  0
TEXT
  5
9F
330
7B1
100
AcDbEntity
  8
2
  6
Continuous
 62
     7
100
AcDbText
 10
0.9659089958999997
 20
26.7874455965
 30
0.0
 40
3.5
  1
4
  7
SEACAD_SEISO_TTF
 11
0.9659089958999999
 21
30.2874455965
 31
0.0
100
AcDbText
 73
     3
  0
ENDBLK
  5
A1
330
7B1
100
AcDbEntity
  8
0
100
AcDbBlockEnd
  0
ENDSEC
  0
SECTION
  2
ENTITIES
  0
TEXT
  5
5E
330
78D
100
AcDbEntity
  8
SK6
  6
Continuous
100
AcDbText
 10
-35.1241495719
 20
36.826112437
 30
0.0
 40
8.0
  1
A393.CG-12 06 40
  7
SEACAD_SEISO_TTF
 11
-35.1241495719
 21
44.826112437
 31
0.0
100
AcDbText
 73
     3
  0
INSERT
  5
62
330
78D
100
AcDbEntity
  8
SK2
100
AcDbBlockReference
  2
GDIMGGROUP
 10
0.0
 20
0.0
 30
0.0
  0
INSERT
  5
6E
330
78D
100
AcDbEntity
  8
SK2
100
AcDbBlockReference
  2
GDIMGGROUP1
 10
0.0
 20
0.0
 30
0.0
  0
INSERT
  5
79
330
78D
100
AcDbEntity
  8
SK2
100
AcDbBlockReference
  2
GDIMGGROUP2
 10
0.0
 20
0.0
 30
0.0
  0
INSERT
  5
84
330
78D
100
AcDbEntity
  8
SK2
100
AcDbBlockReference
  2
GDIMGGROUP3
 10
0.0
 20
0.0
 30
0.0
  0
INSERT
  5
8E
330
78D
100
AcDbEntity
  8
SK2
100
AcDbBlockReference
  2
GDIMGGROUP4
 10
0.0
 20
0.0
 30
0.0
  0
INSERT
  5
99
330
78D
100
AcDbEntity
  8
2
100
AcDbBlockReference
  2
GDIMGGROUP5
 10
0.0
 20
0.0
 30
0.0
  0
LINE
  5
A4
330
78D
100
AcDbEntity
  8
SK4
100
AcDbLine
 10
-42.0
 20
0.0
 30
0.0
 11
6.0
 21
0.0
 31
0.0
  0
LINE
  5
A6
330
78D
100
AcDbEntity
  8
SK1
  6
Continuous
100
AcDbLine
 10
-0.4
 20
5.849999999999999
 30
0.0
 11
-0.4
 21
4.409736217299999
 31
0.0
  0
LINE
  5
A7
330
78D
100
AcDbEntity
  8
SK1
  6
Continuous
100
AcDbLine
 10
-1.566987298099999
 20
5.849999999999999
 30
0.0
 11
-1.566987298099999
 21
4.409736217299999
 31
0.0
  0
LINE
  5
AA
330
78D
100
AcDbEntity
  8
SK3
100
AcDbLine
 10
-36.0
 20
3.31229289
 30
0.0
 11
-36.0
 21
-3.31229289
 31
0.0
  0
LINE
  5
AB
330
78D
100
AcDbEntity
  8
SK3
100
AcDbLine
 10
-35.8051442841
 20
4.7625
 30
0.0
 11
-35.8051442841
 21
3.638539827099999
 31
0.0
  0
LINE
  5
AC
330
78D
100
AcDbEntity
  8
SK3
100
AcDbLine
 10
-39.5
 20
-5.099999999999999
 30
0.0
 11
-39.5
 21
5.099999999999999
 31
0.0
  0
LINE
  5
AE
330
78D
100
AcDbEntity
  8
1
  6
Continuous
100
AcDbLine
 10
3.9828427125
 20
7.017157287499999
 30
0.0
 11
3.9828427125
 21
5.236654194499999
 31
0.0
  0
LINE
  5
AF
330
78D
100
AcDbEntity
  8
1
  6
Continuous
100
AcDbLine
 10
2.8343145751
 20
8.0
 30
0.0
 11
2.8343145751
 21
5.932621469199999
 31
0.0
  0
LINE
  5
B0
330
78D
100
AcDbEntity
  8
1
  6
Continuous
100
AcDbLine
 10
3.117157287499999
 20
5.283988038899999
 30
0.0
 11
3.117157287499999
 21
-5.283988038899999
 31
0.0
  0
LINE
  5
B1
330
78D
100
AcDbEntity
  8
1
  6
Continuous
100
AcDbLine
 10
1.165685424899999
 20
5.3669360443
 30
0.0
 11
1.165685424899999
 21
-5.3669360443
 31
0.0
  0
LINE
  5
B2
330
78D
100
AcDbEntity
  8
1
  6
Continuous
100
AcDbLine
 10
0.8828427125000001
 20
7.882842712499999
 30
0.0
 11
0.8828427125000001
 21
5.849673463899999
 31
0.0
  0
LINE
  5
B3
330
78D
100
AcDbEntity
  8
1
  6
Continuous
100
AcDbLine
 10
0.0
 20
6.834314575099999
 30
0.0
 11
0.0
 21
5.107148657899999
 31
0.0
  0
LINE
  5
B4
330
78D
100
AcDbEntity
  8
1
  6
Continuous
100
AcDbLine
 10
0.1171572875
 20
4.7417929885
 30
0.0
 11
0.1171572875
 21
-4.7417929885
 31
0.0
  0
LINE
  5
B5
330
78D
100
AcDbEntity
  8
SK1
  6
Continuous
100
AcDbLine
 10
-40.0
 20
-5.464914703899999
 30
0.0
 11
-40.0
 21
5.464914703899999
 31
0.0
  0
LINE
  5
B6
330
78D
100
AcDbEntity
  8
SK1
  6
Continuous
100
AcDbLine
 10
-39.8
 20
-5.811324865399999
 30
0.0
 11
-39.8
 21
5.811324865399999
 31
0.0
  0
LINE
  5
B7
330
78D
100
AcDbEntity
  8
1
  6
Continuous
100
AcDbLine
 10
4.0
 20
6.998889706199999
 30
0.0
 11
4.0
 21
5.223715971299999
 31
0.0
  0
LINE
  5
B8
330
78D
100
AcDbEntity
  8
SK1
  6
Continuous
100
AcDbLine
 10
-39.4732050808
 20
-6.0
 30
0.0
 11
-39.4732050808
 21
6.0
 31
0.0
  0
LINE
  5
B9
330
78D
100
AcDbEntity
  8
SK1
  6
Continuous
100
AcDbLine
 10
-2.126794919199999
 20
3.950359385199999
 30
0.0
 11
-2.126794919199999
 21
-3.950359385199999
 31
0.0
  0
LINE
  5
BA
330
78D
100
AcDbEntity
  8
SK3
100
AcDbLine
 10
3.588637933199999
 20
4.7625
 30
0.0
 11
3.588637933199999
 21
3.638539827099999
 31
0.0
  0
LINE
  5
BB
330
78D
100
AcDbEntity
  8
SK3
100
AcDbLine
 10
4.0
 20
3.241359324899999
 30
0.0
 11
3.588637933199999
 21
3.072854402099999
 31
0.0
  0
LWPOLYLINE
  5
BC
330
78D
100
AcDbEntity
  8
SK1
  6
Continuous
100
AcDbPolyline
 90
      265
 70
     0
 43
0.0
 10
-37.4515216681
 20
3.950359385199999
 10
-37.45767170510001
 20
3.9503745695
 10
-37.4638221676
 20
3.950420112499999
 10
-37.4699726599
 20
3.950495999999999
 10
-37.4761227862
 20
3.9506022175
 10
-37.4822721508
 20
3.9507387505
 10
-37.4884203577
 20
3.9509055847
 10
-37.4945670114
 20
3.951102705699999
 10
-37.5007117161
 20
3.951330098899999
 10
-37.5068540758
 20
3.951587750099999
 10
-37.512993695
 20
3.9518756448
 10
-37.51913017790001
 20
3.9521937685
 10
-37.52526312860001
 20
3.9525421068
 10
-37.5313633358
 20
3.9529187611
 10
-37.537439387
 20
3.9533237473
 10
-37.5435164399
 20
3.953758642799999
 10
-37.5495939563
 20
3.954223526
 10
-37.555671398
 20
3.954718475099999
 10
-37.5617482268
 20
3.9552435687
 10
-37.5678239047
 20
3.9557988848
 10
-37.5738978935
 20
3.9563845019
 10
-37.579969655
 20
3.957000498399999
 10
-37.5860386511
 20
3.9576469524
 10
-37.5921043436
 20
3.9583239424
 10
-37.5981661945
 20
3.9590315467
 10
-37.6042236655
 20
3.9597698435
 10
-37.6102762186
 20
3.9605389113
 10
-37.6163233155
 20
3.961338828299999
 10
-37.6223644182
 20
3.962169672899999
 10
-37.6283989885
 20
3.963031523399999
 10
-37.6344264882
 20
3.963924458
 10
-37.6404463792
 20
3.964848555199999
 10
-37.6464581234
 20
3.9658038933
 10
-37.6524611826
 20
3.966790550599999
 10
-37.6584550186
 20
3.967808605299999
 10
-37.6644390935
 20
3.968858135899999
 10
-37.6704128688
 20
3.969939220699999
 10
-37.6763758067
 20
3.9710519379
 10
-37.6823273688
 20
3.9721963659
 10
-37.68826701710001
 20
3.9733725831
 10
-37.6941942134
 20
3.974580667699999
 10
-37.7001084196
 20
3.9758206981
 10
-37.7060090975
 20
3.977092752599999
 10
-37.71189570900001
 20
3.978396909499999
 10
-37.7177677159
 20
3.9797332471
 10
-37.7236245801
 20
3.981101843799999
 10
-37.7294657634
 20
3.9825027779
 10
-37.7352907278
 20
3.983936127799999
 10
-37.741098935
 20
3.9854019716
 10
-37.746889847
 20
3.9869003879
 10
-37.7526629255
 20
3.9884314548
 10
-37.7584176325
 20
3.989995250699999
 10
-37.7641534297
 20
3.991591853999999
 10
-37.7698697791
 20
3.9932213429
 10
-37.7755661425
 20
3.994883795899999
 10
-37.7812419818
 20
3.9965792911
 10
-37.7868967587
 20
3.9983079069
 10
-37.7925299353
 20
4.0000697218
 10
-37.7981409733
 20
4.0018648139
 10
-37.8037293345
 20
4.0036932616
 10
-37.8092944809
 20
4.005555143199999
 10
-37.8148358743
 20
4.007450537099999
 10
-37.8203575527
 20
4.009381141399999
 10
-37.8259071806
 20
4.0113649531
 10
-37.8314376354
 20
4.013386516099999
 10
-37.8369475191
 20
4.0154459411
 10
-37.84243543360001
 20
4.0175433391
 10
-37.8478999809
 20
4.0196788208
 10
-37.8533397629
 20
4.0218524973
 10
-37.8587533818
 20
4.024064479299999
 10
-37.8641394393
 20
4.026314877599999
 10
-37.8694965376
 20
4.0286038033
 10
-37.8748232785
 20
4.030931367099999
 10
-37.8801182641
 20
4.03329768
 10
-37.88538009630001
 20
4.0357028527
 10
-37.8906073772
 20
4.0381469961
 10
-37.89579870860001
 20
4.040630221199999
 10
-37.9009526925
 20
4.043152638799999
 10
-37.906067931
 20
4.0457143597
 10
-37.911143026
 20
4.048315494799999
 10
-37.9161765794
 20
4.050956154999999
 10
-37.9211671934
 20
4.0536364512
 10
-37.9261134697
 20
4.0563564941
 10
-37.9310140104
 20
4.0591163948
 10
-37.9358674176
 20
4.061916263999999
 10
-37.940672293
 20
4.064756212599999
 10
-37.9454272388
 20
4.0676363516
 10
-37.9501308569
 20
4.0705567916
 10
-37.954781716
 20
4.073517625
 10
-37.95938210300001
 20
4.0765223317
 10
-37.9639339571
 20
4.0795741738
 10
-37.9684344377
 20
4.0826726185
 10
-37.9728807046
 20
4.085817132599999
 10
-37.9772699174
 20
4.089007183399999
 10
-37.9815992357
 20
4.092242237899999
 10
-37.98586581929999
 20
4.095521763099999
 10
-37.9900668278
 20
4.098845226199999
 10
-37.9941994207
 20
4.1022120941
 10
-37.9982607579
 20
4.105621833999999
 10
-38.00224799889999
 20
4.109073913
 10
-38.0061583034
 20
4.112567797999999
 10
-38.009988831
 20
4.116102956199999
 10
-38.01373674150001
 20
4.1196788547
 10
-38.0173991944
 20
4.123294960499999
 10
-38.0209733494
 20
4.126950740599999
 10
-38.0244563662
 20
4.1306456622
 10
-38.0278454044
 20
4.134379192299999
 10
-38.03113762360001
 20
4.138150797999999
 10
-38.0343301836
 20
4.1419599464
 10
-38.0374276191
 20
4.145816973099999
 10
-38.0404255536
 20
4.149721348599999
 10
-38.0433201438
 20
4.1536700248
 10
-38.04610807599999
 20
4.157660576799999
 10
-38.0487860362
 20
4.1616905796
 10
-38.0513507104
 20
4.165757608399999
 10
-38.0537987847
 20
4.169859238399999
 10
-38.05612694510001
 20
4.173993044499999
 10
-38.0583318778
 20
4.178156601899999
 10
-38.0604102688
 20
4.1823474858
 10
-38.0623588042
 20
4.186563271099999
 10
-38.06417417
 20
4.1908015331
 10
-38.0658530522
 20
4.195059846899999
 10
-38.0673921371
 20
4.199335787499999
 10
-38.0687881105
 20
4.20362693
 10
-38.0700454306
 20
4.207957291199999
 10
-38.0711612878
 20
4.212322682699999
 10
-38.0721301544
 20
4.216704975699999
 10
-38.0729507612
 20
4.221100278099999
 10
-38.07362183929999
 20
4.225504697899999
 10
-38.0741421196
 20
4.229914343099999
 10
-38.0745103329
 20
4.2343253217
 10
-38.07472521010001
 20
4.238733741699999
 10
-38.07478548360001
 20
4.2431309479
 10
-38.0746898897
 20
4.247470596
 10
-38.07443948679999
 20
4.25180991
 10
-38.0740363955
 20
4.2561456593
 10
-38.0734827364
 20
4.2604746136
 10
-38.0727806303
 20
4.2647935424
 10
-38.0719321979
 20
4.269099215299999
 10
-38.0709395597
 20
4.273388402
 10
-38.0698048366
 20
4.277657871799999
 10
-38.0685301491
 20
4.281904394499999
 10
-38.0671176179
 20
4.286124739699999
 10
-38.0655693637
 20
4.290315676799999
 10
-38.0638875073
 20
4.294473975499999
 10
-38.0620741692
 20
4.298596405299999
 10
-38.0601314702
 20
4.302679735799999
 10
-38.0580615308
 20
4.306720736599999
 10
-38.05586647190001
 20
4.3107161772
 10
-38.0535390475
 20
4.3146813648
 10
-38.0510847612
 20
4.3186152879
 10
-38.0485097628
 20
4.3225123735
 10
-38.0458174746
 20
4.326371535399999
 10
-38.0430113186
 20
4.3301916875
 10
-38.0400947172
 20
4.3339717436
 10
-38.0370710926
 20
4.337710617499999
 10
-38.0339438671
 20
4.3414072232
 10
-38.0307164628
 20
4.3450604745
 10
-38.027392302
 20
4.348669285199999
 10
-38.0239748069
 20
4.352232569199999
 10
-38.0204673999
 20
4.355749240399999
 10
-38.016873503
 20
4.3592182125
 10
-38.0131965385
 20
4.362638399499999
 10
-38.0094399287
 20
4.366008715199999
 10
-38.0056070958
 20
4.3693280735
 10
-38.0017101267
 20
4.3725887711
 10
-37.9977438247
 20
4.375799752699999
 10
-37.9937028852
 20
4.378967604899999
 10
-37.9895893661
 20
4.382092422599999
 10
-37.98540532550001
 20
4.3851743005
 10
-37.9811528213
 20
4.388213333399999
 10
-37.9768339113
 20
4.3912096161
 10
-37.9724506536
 20
4.394163243199999
 10
-37.968005106
 20
4.397074309599999
 10
-37.9634993265
 20
4.39994291
 10
-37.9589353731
 20
4.4027691392
 10
-37.9543153036
 20
4.405553091999999
 10
-37.9496411761
 20
4.4082948631
 10
-37.9449150484
 20
4.4109945472
 10
-37.9401389785
 20
4.4136522392
 10
-37.9353150243
 20
4.416268033799999
 10
-37.9304452438
 20
4.4188420258
 10
-37.9255316948
 20
4.42137431
 10
-37.9205764354
 20
4.423864981
 10
-37.9155815235
 20
4.4263141337
 10
-37.9105490169
 20
4.428721862799999
 10
-37.9054809738
 20
4.4310882631
 10
-37.9003794518
 20
4.433413429299999
 10
-37.8952465091
 20
4.435697456299999
 10
-37.8900842036
 20
4.4379404388
 10
-37.8849072633
 20
4.4401376041
 10
-37.8796969918
 20
4.4422984437
 10
-37.8744526571
 20
4.444423812
 10
-37.8691750645
 20
4.4465138994
 10
-37.8638650193
 20
4.4485688962
 10
-37.8585233268
 20
4.450588992799999
 10
-37.8531507921
 20
4.452574379499999
 10
-37.84774822070001
 20
4.4545252468
 10
-37.8423164178
 20
4.456441784999999
 10
-37.8368561887
 20
4.4583241844
 10
-37.83136833869999
 20
4.4601726354
 10
-37.82585367300001
 20
4.461987328399999
 10
-37.8203129969
 20
4.4637684537
 10
-37.8147471157
 20
4.465516201699999
 10
-37.8091568347
 20
4.467230762799999
 10
-37.8035429592
 20
4.468912327299999
 10
-37.7979062945
 20
4.470561085599999
 10
-37.7922476458
 20
4.472177228099999
 10
-37.7865678184
 20
4.473760945099999
 10
-37.7808676176
 20
4.4753124269
 10
-37.7751478487
 20
4.476831863999999
 10
-37.769409317
 20
4.4783194467
 10
-37.7636528277
 20
4.4797753654
 10
-37.7578791861
 20
4.4811998104
 10
-37.7520891976
 20
4.482592972099999
 10
-37.7462836674
 20
4.483955040899999
 10
-37.7404634007
 20
4.485286207099999
 10
-37.7346292029
 20
4.486586661
 10
-37.7287818792
 20
4.4878565932
 10
-37.7229222349
 20
4.4890961938
 10
-37.7170510754
 20
4.4903056533
 10
-37.7111692058
 20
4.4914851621
 10
-37.7052774315
 20
4.4926349105
 10
-37.6993765578
 20
4.493755088799999
 10
-37.6934673899
 20
4.4948458875
 10
-37.6875507331
 20
4.4959074968
 10
-37.6816273927
 20
4.4969401072
 10
-37.6756999057
 20
4.497943618799999
 10
-37.66977457
 20
4.4989172314
 10
-37.66383696750001
 20
4.4998634801
 10
-37.6578875137
 20
4.500782403799999
 10
-37.6519266242
 20
4.5016740413
 10
-37.6459547145
 20
4.502538431399999
 10
-37.6399722002
 20
4.5033756131
 10
-37.6339794968
 20
4.504185625099999
 10
-37.62797702
 20
4.5049685063
 10
-37.6219651852
 20
4.5057242956
 10
-37.6159444081
 20
4.506453031899999
 10
-37.6099151041
 20
4.5071547538
 10
-37.6038776889
 20
4.5078295004
 10
-37.597832578
 20
4.5084773105
 10
-37.591780187
 20
4.5090982229
 10
-37.5857209314
 20
4.5096922765
 10
-37.5796552269
 20
4.5102595101
 10
-37.5735834888
 20
4.5107999626
 10
-37.5675061329
 20
4.5113136729
 10
-37.5614235747
 20
4.5118006797
 10
-37.5553362297
 20
4.512261021999999
 10
-37.5492445135
 20
4.5126947385
 10
-37.5431488416
 20
4.513101868199999
 10
-37.5370496297
 20
4.513482449899999
 10
-37.5309472933
 20
4.5138365224
 10
-37.5248422479
 20
4.5141641247
 10
-37.5187349091
 20
4.514465295399999
 10
-37.5126256924
 20
4.5147400736
 10
-37.5065150135
 20
4.5149884981
 10
-37.50040328780001
 20
4.5152106076
 10
-37.494290931
 20
4.515406441199999
 10
-37.48817835860001
 20
4.515576037499999
 10
-37.4820659862
 20
4.5157194355
 10
-37.4759542293
 20
4.515836673999999
 10
-37.4698435035
 20
4.5159277918
 10
-37.4637342243
 20
4.515992827899999
 10
-37.4576268073
 20
4.5160318211
 10
-37.4515216681
 20
4.516044810199999
  0
LINE
  5
BD
330
78D
100
AcDbEntity
  8
SK1
  6
Continuous
100
AcDbLine
 10
-37.4515216681
 20
3.950359385199999
 30
0.0
 11
-2.126794919199999
 21
3.950359385199999
 31
0.0
  0
LINE
  5
BE
330
78D
100
AcDbEntity
  8
SK1
  6
Continuous
100
AcDbLine
 10
-2.126794919199999
 20
3.950359385199999
 30
0.0
 11
-1.566987298099999
 21
3.8440507923
 31
0.0
  0
LINE
  5
BF
330
78D
100
AcDbEntity
  8
SK1
  6
Continuous
100
AcDbLine
 10
-1.566987298099999
 20
3.8440507923
 30
0.0
 11
-0.4
 21
3.8440507923
 31
0.0
  0
LWPOLYLINE
  5
C0
330
78D
100
AcDbEntity
  8
SK1
  6
Continuous
100
AcDbPolyline
 90
       41
 70
     0
 43
0.0
 10
-0.4
 20
3.8440507923
 10
-0.3842414761
 20
3.844282104999999
 10
-0.3685149393
 20
3.8449711769
 10
-0.3528431115
 20
3.846110709199999
 10
-0.3372487146
 20
3.847693402799999
 10
-0.3217544703000001
 20
3.8497119588
 10
-0.3063831004
 20
3.8521590781
 10
-0.2911573269
 20
3.8550274617
 10
-0.2760998714
 20
3.858309810799999
 10
-0.2612334559
 20
3.8619988262
 10
-0.2465808021
 20
3.866087208999999
 10
-0.232164632
 20
3.870567660299999
 10
-0.2180076672
 20
3.875432880899999
 10
-0.2041326297
 20
3.880675571999999
 10
-0.1905622412
 20
3.886288434499999
 10
-0.1773192236
 20
3.892264169499999
 10
-0.1644262988
 20
3.8985954779
 10
-0.1519061884
 20
3.905275060799999
 10
-0.1397816144
 20
3.9122956192
 10
-0.1280752986
 20
3.9196498541
 10
-0.1168099627
 20
3.927330466499999
 10
-0.1060019526
 20
3.935328157499999
 10
-0.0956589033
 20
3.943628403099999
 10
-0.0857904707
 20
3.9522160672
 10
-0.0764063106
 20
3.961076013699999
 10
-0.0675160789
 20
3.970193106299999
 10
-0.0591294315
 20
3.979552208899999
 10
-0.0512560242
 20
3.989138185099999
 10
-0.0439055128
 20
3.998935898899999
 10
-0.0370875534
 20
4.0089302141
 10
-0.0308118017
 20
4.0191059943
 10
-0.0250879135
 20
4.0294481035
 10
-0.0199255449
 20
4.0399414055
 10
-0.0153343515
 20
4.050570763999999
 10
-0.0113239894
 20
4.061321042799999
 10
-0.0079041143
 20
4.072177105799999
 10
-0.0050843821
 20
4.0831238167
 10
-0.0028744487
 20
4.094146039399999
 10
-0.00128397
 20
4.105228637599999
 10
-0.0003226018
 20
4.116356475199999
 10
0.0
 20
4.127514415899999
  0
ARC
  5
C1
330
78D
100
AcDbEntity
  8
1
  6
Continuous
100
AcDbCircle
 10
0.2497990033
 20
4.5297982002
 30
0.0
 40
0.2500712199696222
100
AcDbArc
 50
122.0335502558
 51
177.3263625926
  0
LINE
  5
C2
330
78D
100
AcDbEntity
  8
1
  6
Continuous
100
AcDbLine
 10
0.1171572875
 20
4.7417929885
 30
0.0
 11
0.8828427125000001
 21
5.283988038899999
 31
0.0
  0
ARC
  5
C3
330
78D
100
AcDbEntity
  8
1
  6
Continuous
100
AcDbCircle
 10
1.157412205299999
 20
4.8714429249
 30
0.0
 40
0.4955621832731503
100
AcDbArc
 50
89.04342460389999
 51
123.6457595204
  0
LINE
  5
C4
330
78D
100
AcDbEntity
  8
1
  6
Continuous
100
AcDbLine
 10
1.165685424899999
 20
5.3669360443
 30
0.0
 11
2.8343145751
 21
5.3669360443
 31
0.0
  0
ARC
  5
C5
330
78D
100
AcDbEntity
  8
1
  6
Continuous
100
AcDbCircle
 10
2.8425927656
 20
4.8714598749
 30
0.0
 40
0.4955453186829698
100
AcDbArc
 50
56.3536331046
 51
90.95718277040001
  0
LWPOLYLINE
  5
C6
330
78D
100
AcDbEntity
  8
1
  6
Continuous
100
AcDbPolyline
 90
       25
 70
     0
 43
0.0
 10
3.117157287499999
 20
5.283988038899999
 10
3.153230283899999
 20
5.258447526499999
 10
3.189303066499999
 20
5.232906863
 10
3.225375631699999
 20
5.207366045899999
 10
3.261447975699999
 20
5.181825072599999
 10
3.297520094999999
 20
5.156283940399999
 10
3.3335919856
 20
5.130742646699999
 10
3.3696636441
 20
5.105201188899999
 10
3.4057350666
 20
5.079659564399999
 10
3.441806249399999
 20
5.0541177705
 10
3.477877188799999
 20
5.028575804799999
 10
3.5139478812
 20
5.0030336645
 10
3.550018322799999
 20
4.977491347099999
 10
3.5860885099
 20
4.951948849899999
 10
3.622158438899999
 20
4.926406170299999
 10
3.658228105899999
 20
4.900863305799999
 10
3.6942975073
 20
4.875320253599999
 10
3.730366639499999
 20
4.849777011299999
 10
3.766435498599999
 20
4.8242335761
 10
3.802504081
 20
4.7986899455
 10
3.8385723829
 20
4.7731461168
 10
3.874640400799999
 20
4.747602087499999
 10
3.910708130799999
 20
4.7220578549
 10
3.9467755693
 20
4.6965134165
 10
3.9828427125
 20
4.670968769499999
  0
LINE
  5
C7
330
78D
100
AcDbEntity
  8
1
  6
Continuous
100
AcDbLine
 10
3.9828427125
 20
4.670968769499999
 30
0.0
 11
4.0
 21
4.6580305463
 31
0.0
  0
LWPOLYLINE
  5
C8
330
78D
100
AcDbEntity
  8
SK3
100
AcDbPolyline
 90
      265
 70
     0
 43
0.0
 10
-36.3597090417
 20
3.31229289
 10
-36.3660652347
 20
3.3123076867
 10
-36.3724230273
 20
3.3123520849
 10
-36.37878204670001
 20
3.312426096399999
 10
-36.38514192040001
 20
3.3125297329
 10
-36.3915022755
 20
3.3126630062
 10
-36.3978627395
 20
3.3128259282
 10
-36.4042229397
 20
3.3130185107
 10
-36.4105825034
 20
3.313240765599999
 10
-36.4169410579
 20
3.313492704499999
 10
-36.4232982305
 20
3.3137743394
 10
-36.4296536487
 20
3.314085681999999
 10
-36.4360069396
 20
3.3144267442
 10
-36.44235773070001
 20
3.314797537799999
 10
-36.4487056492
 20
3.3151980745
 10
-36.4550503225
 20
3.315628366299999
 10
-36.4613913779
 20
3.3160884249
 10
-36.4677284428
 20
3.316578262099999
 10
-36.47406114440001
 20
3.3170978898
 10
-36.4803891101
 20
3.3176473197
 10
-36.4867119672
 20
3.3182265637
 10
-36.4930293431
 20
3.3188356336
 10
-36.499340865
 20
3.319474541199999
 10
-36.5056461603
 20
3.320143298399999
 10
-36.5119448563
 20
3.3208419168
 10
-36.5182365804
 20
3.321570408399999
 10
-36.5245209599
 20
3.322328784999999
 10
-36.5307976221
 20
3.323117058399999
 10
-36.5370661942
 20
3.323935240299999
 10
-36.5433263038
 20
3.324783342699999
 10
-36.549577578
 20
3.3256613772
 10
-36.5558188511
 20
3.3265692367
 10
-36.5620475755
 20
3.327506422099999
 10
-36.5682727338
 20
3.328474327099999
 10
-36.5744936571
 20
3.329473097699999
 10
-36.5807096765
 20
3.3305028797
 10
-36.5869201232
 20
3.3315638192
 10
-36.5931243281
 20
3.3326560622
 10
-36.5993216226
 20
3.333779754599999
 10
-36.6055113375
 20
3.3349350423
 10
-36.61169280420001
 20
3.336122071399999
 10
-36.6178653536
 20
3.337340987799999
 10
-36.624028317
 20
3.338591937399999
 10
-36.63018102530001
 20
3.339875066299999
 10
-36.6363228098
 20
3.341190520299999
 10
-36.6424530015
 20
3.3425384455
 10
-36.6485709316
 20
3.3439189879
 10
-36.6546759311
 20
3.345332293299999
 10
-36.6607673312
 20
3.346778507799999
 10
-36.66684446300001
 20
3.3482577773
 10
-36.6729066576
 20
3.349770247699999
 10
-36.678953246
 20
3.351316065099999
 10
-36.6849835595
 20
3.3528953755
 10
-36.69099692920001
 20
3.354508324599999
 10
-36.6969926861
 20
3.3561550587
 10
-36.7029701613
 20
3.3578357235
 10
-36.708928686
 20
3.359550465099999
 10
-36.7148675913
 20
3.361299429399999
 10
-36.7207862083
 20
3.363082762499999
 10
-36.7266838681
 20
3.364900610199999
 10
-36.73255990179999
 20
3.3667531185
 10
-36.7384136405
 20
3.368640433399999
 10
-36.7442444154
 20
3.370562700799999
 10
-36.7500515575
 20
3.372520066799999
 10
-36.755834398
 20
3.3745126773
 10
-36.761592268
 20
3.3765406782
 10
-36.76732449860001
 20
3.3786042155
 10
-36.7730304209
 20
3.380703435199999
 10
-36.778709366
 20
3.3828384832
 10
-36.784360665
 20
3.3850095055
 10
-36.7899836491
 20
3.387216648199999
 10
-36.7955776493
 20
3.389460056999999
 10
-36.8011719344
 20
3.391752670899999
 10
-36.8067430953
 20
3.3940864547
 10
-36.8122884578
 20
3.396461222699999
 10
-36.8178061718
 20
3.398877123299999
 10
-36.8232943871
 20
3.401334304599999
 10
-36.82875125360001
 20
3.4038329147
 10
-36.83417492090001
 20
3.406373101999999
 10
-36.8395635391
 20
3.408955014599999
 10
-36.8449152579
 20
3.4115788007
 10
-36.8502282271
 20
3.414244608399999
 10
-36.8555005966
 20
3.4169525861
 10
-36.8607305161
 20
3.4197028818
 10
-36.8659161356
 20
3.4224956438
 10
-36.8710556049
 20
3.425331020199999
 10
-36.8761470737
 20
3.4282091594
 10
-36.8811886919
 20
3.4311302094
 10
-36.8861786093
 20
3.4340943185
 10
-36.8911149758
 20
3.4371016348
 10
-36.8959959412
 20
3.440152306499999
 10
-36.90081965530001
 20
3.443246481999999
 10
-36.905584268
 20
3.4463843092
 10
-36.910287929
 20
3.449565936499999
 10
-36.9149287882
 20
3.452791512099999
 10
-36.9195054937
 20
3.4560616008
 10
-36.9240222719
 20
3.459382516999999
 10
-36.9284770993
 20
3.462755430899999
 10
-36.9328662019
 20
3.466179514399999
 10
-36.93718580570001
 20
3.469653939499999
 10
-36.9414321367
 20
3.4731778781
 10
-36.945601421
 20
3.476750502099999
 10
-36.9496898844
 20
3.4803709835
 10
-36.953693753
 20
3.4840384943
 10
-36.9576092527
 20
3.4877522063
 10
-36.9614326097
 20
3.491511291499999
 10
-36.9651600499
 20
3.495314921799999
 10
-36.9687877992
 20
3.4991622692
 10
-36.9723120838
 20
3.503052505699999
 10
-36.9757291295
 20
3.506984803099999
 10
-36.9790351624
 20
3.510958333399999
 10
-36.9822264084
 20
3.5149722685
 10
-36.9852990937
 20
3.5190257804
 10
-36.9882529552
 20
3.5231239066
 10
-36.9910874435
 20
3.5272737995
 10
-36.9937972017
 20
3.5314707643
 10
-36.9963782628
 20
3.5357114318
 10
-36.99882665980001
 20
3.5399924326
 10
-37.0011384256
 20
3.544310397499999
 10
-37.0033095932
 20
3.548661957099999
 10
-37.0053361956
 20
3.553043742099999
 10
-37.0072142659
 20
3.557452383199999
 10
-37.0089398369
 20
3.5618845111
 10
-37.01050894170001
 20
3.566336756399999
 10
-37.0119176132
 20
3.570805749899999
 10
-37.0131618844
 20
3.5752881223
 10
-37.0142380407
 20
3.579781645099999
 10
-37.01515485
 20
3.584337426199999
 10
-37.01590096949999
 20
3.588906475799999
 10
-37.0164751369
 20
3.593483829399999
 10
-37.01687608949999
 20
3.5980645225
 10
-37.0171025649
 20
3.6026435905
 10
-37.0171532864
 20
3.607202244499999
 10
-37.0170267775
 20
3.6116953705
 10
-37.0167246654
 20
3.6161867591
 10
-37.0162497295
 20
3.620672478299999
 10
-37.0156047491
 20
3.625148596199999
 10
-37.0147925037
 20
3.6296111808
 10
-37.0138157725
 20
3.634056300199999
 10
-37.012677335
 20
3.6384800226
 10
-37.0113799705
 20
3.642878415899999
 10
-37.0099264583
 20
3.647247548299999
 10
-37.0083195778
 20
3.6515834879
 10
-37.0065621083
 20
3.655882302699999
 10
-37.0046568293
 20
3.660140060699999
 10
-37.00260652
 20
3.664352830199999
 10
-37.0004139599
 20
3.6685166792
 10
-36.9980819282
 20
3.672627675699999
 10
-36.9956002659
 20
3.676707584399999
 10
-36.9929795402
 20
3.680749137099999
 10
-36.9902259399
 20
3.684748025599999
 10
-36.9873437094
 20
3.688703114399999
 10
-36.9843370934
 20
3.6926132679
 10
-36.9812103364
 20
3.696477350899999
 10
-36.9779676829
 20
3.700294227699999
 10
-36.9746133775
 20
3.704062763
 10
-36.9711516649
 20
3.707781821399999
 10
-36.9675867895
 20
3.7114502673
 10
-36.9639229959
 20
3.715066965299999
 10
-36.9601645288
 20
3.7186307799
 10
-36.9563156325
 20
3.722140575799999
 10
-36.9523805518
 20
3.725595217399999
 10
-36.9483635311
 20
3.7289935694
 10
-36.9442797468
 20
3.732326657799999
 10
-36.9401195238
 20
3.735607800799999
 10
-36.9358799926
 20
3.738841687699999
 10
-36.93156350360001
 20
3.7420285399
 10
-36.9271724069
 20
3.7451685792
 10
-36.922709053
 20
3.7482620271
 10
-36.9181757921
 20
3.751309105199999
 10
-36.9135749745
 20
3.7543100351
 10
-36.9089089506
 20
3.757265038399999
 10
-36.9041800707
 20
3.7601743368
 10
-36.899390685
 20
3.7630381519
 10
-36.8945431439
 20
3.765856705199999
 10
-36.8896397977
 20
3.768630218399999
 10
-36.8846829967
 20
3.771358913
 10
-36.8796750912
 20
3.774043010699999
 10
-36.8746184315
 20
3.776682733099999
 10
-36.8695153679
 20
3.7792783018
 10
-36.8643682507
 20
3.781829938399999
 10
-36.8591794302
 20
3.784337864499999
 10
-36.85395125679999
 20
3.7868023017
 10
-36.8486860807
 20
3.7892234716
 10
-36.8433862523
 20
3.791601595899999
 10
-36.8380541218
 20
3.793936896099999
 10
-36.8326920396
 20
3.796229593899999
 10
-36.827316179
 20
3.7984746325
 10
-36.8219077966
 20
3.800681661499999
 10
-36.8164648516
 20
3.8028521429
 10
-36.8109881602
 20
3.8049863197
 10
-36.8054785387
 20
3.8070844348
 10
-36.79993680320001
 20
3.8091467311
 10
-36.79436377
 20
3.8111734517
 10
-36.7887602555
 20
3.8131648394
 10
-36.7831270757
 20
3.8151211373
 10
-36.7774650469
 20
3.817042588099999
 10
-36.7717749854
 20
3.818929434999999
 10
-36.7660577074
 20
3.820781920899999
 10
-36.7603140291
 20
3.8226002886
 10
-36.75454476690001
 20
3.8243847812
 10
-36.7487507368
 20
3.8261356416
 10
-36.7429327552
 20
3.827853112799999
 10
-36.7370916383
 20
3.829537437599999
 10
-36.73122820230001
 20
3.8311888591
 10
-36.7253432634
 20
3.8328076201
 10
-36.719437638
 20
3.8343939637
 10
-36.7135121421
 20
3.835948132799999
 10
-36.7075675922
 20
3.837470370299999
 10
-36.7016048044
 20
3.8389609192
 10
-36.6956245949
 20
3.8404200224
 10
-36.68962778
 20
3.8418479229
 10
-36.6836151759
 20
3.8432448636
 10
-36.6775875988
 20
3.8446110875
 10
-36.671545865
 20
3.8459468375
 10
-36.6654907908
 20
3.8472523566
 10
-36.6594231923
 20
3.848527887699999
 10
-36.6533438859
 20
3.8497736737
 10
-36.6472536876
 20
3.850989957699999
 10
-36.6411534139
 20
3.852176982499999
 10
-36.6350438808
 20
3.8533349911
 10
-36.6289259047
 20
3.854464226499999
 10
-36.6228003018
 20
3.8555649316
 10
-36.6166678883
 20
3.8566373493
 10
-36.6105294804
 20
3.857681722699999
 10
-36.6043931056
 20
3.858697081
 10
-36.5982549373
 20
3.859684188
 10
-36.5921049174
 20
3.8606447986
 10
-36.5859434274
 20
3.8615789587
 10
-36.5797708487
 20
3.862486713999999
 10
-36.5735875628
 20
3.863368110099999
 10
-36.5673939513
 20
3.8642231929
 10
-36.5611903956
 20
3.8650520079
 10
-36.5549772773
 20
3.865854601
 10
-36.5487549779
 20
3.866631017799999
 10
-36.5425238789
 20
3.8673813041
 10
-36.5362843617
 20
3.868105505499999
 10
-36.530036808
 20
3.868803667799999
 10
-36.5237815991
 20
3.869475836799999
 10
-36.5175191166
 20
3.8701220581
 10
-36.5112497421
 20
3.8707423774
 10
-36.504973857
 20
3.8713368404
 10
-36.4986918427
 20
3.8719054929
 10
-36.492404081
 20
3.872448380699999
 10
-36.48611095310001
 20
3.872965549299999
 10
-36.4798128407
 20
3.873457044499999
 10
-36.4735101252
 20
3.873922912099999
 10
-36.4672031882
 20
3.874363197799999
 10
-36.4608924112
 20
3.8747779472
 10
-36.4545781756
 20
3.8751672061
 10
-36.448260863
 20
3.8755310202
 10
-36.44194085480001
 20
3.875869435199999
 10
-36.4356185327
 20
3.8761824968
 10
-36.429294278
 20
3.876470250799999
 10
-36.4229684723
 20
3.8767327429
 10
-36.4166414972
 20
3.876970018799999
 10
-36.410313734
 20
3.8771821241
 10
-36.4039855644
 20
3.877369104699999
 10
-36.3976573697
 20
3.877531006199999
 10
-36.3913295316
 20
3.8776678743
 10
-36.3850024315
 20
3.8777797549
 10
-36.378676451
 20
3.8778666935
 10
-36.3723519715
 20
3.877928735899999
 10
-36.36602937460001
 20
3.877965927799999
 10
-36.3597090417
 20
3.8779783149
  0
LINE
  5
C9
330
78D
100
AcDbEntity
  8
SK3
100
AcDbLine
 10
-36.3597090417
 20
3.31229289
 30
0.0
 11
-36.0
 21
3.31229289
 31
0.0
  0
LINE
  5
CA
330
78D
100
AcDbEntity
  8
SK3
100
AcDbLine
 10
-36.0
 20
3.31229289
 30
0.0
 11
-35.8051442841
 21
3.072854402099999
 31
0.0
  0
LINE
  5
CB
330
78D
100
AcDbEntity
  8
SK3
100
AcDbLine
 10
-35.8051442841
 20
3.072854402099999
 30
0.0
 11
3.588637933199999
 21
3.072854402099999
 31
0.0
  0
LINE
  5
CC
330
78D
100
AcDbEntity
  8
SK3
100
AcDbLine
 10
4.0
 20
3.8070447498
 30
0.0
 11
3.588637933199999
 21
3.638539827099999
 31
0.0
  0
LINE
  5
CD
330
78D
100
AcDbEntity
  8
SK3
100
AcDbLine
 10
-36.3597090417
 20
3.8779783149
 30
0.0
 11
-36.0
 21
3.8779783149
 31
0.0
  0
LINE
  5
CE
330
78D
100
AcDbEntity
  8
SK3
100
AcDbLine
 10
-36.0
 20
3.8779783149
 30
0.0
 11
-35.8051442841
 21
3.638539827099999
 31
0.0
  0
LINE
  5
CF
330
78D
100
AcDbEntity
  8
SK3
100
AcDbLine
 10
-35.8051442841
 20
3.638539827099999
 30
0.0
 11
3.588637933199999
 21
3.638539827099999
 31
0.0
  0
LWPOLYLINE
  5
D0
330
78D
100
AcDbEntity
  8
SK1
  6
Continuous
100
AcDbPolyline
 90
        3
 70
     0
 43
0.0
 10
-37.4515216681
 20
4.516044810199999
 10
-36.9734946448
 20
4.2301204967
 10
-36.4882290452
 20
3.950359385199999
  0
LINE
  5
D1
330
78D
100
AcDbEntity
  8
SK1
  6
Continuous
100
AcDbLine
 10
-37.4515216681
 20
4.516044810199999
 30
0.0
 11
-2.126794919199999
 21
4.516044810199999
 31
0.0
  0
LINE
  5
D2
330
78D
100
AcDbEntity
  8
SK1
  6
Continuous
100
AcDbLine
 10
-2.126794919199999
 20
4.516044810199999
 30
0.0
 11
-1.566987298099999
 21
4.409736217299999
 31
0.0
  0
LINE
  5
D3
330
78D
100
AcDbEntity
  8
SK1
  6
Continuous
100
AcDbLine
 10
-1.566987298099999
 20
4.409736217299999
 30
0.0
 11
-0.4
 21
4.409736217299999
 31
0.0
  0
LWPOLYLINE
  5
D4
330
78D
100
AcDbEntity
  8
SK1
  6
Continuous
100
AcDbPolyline
 90
       41
 70
     0
 43
0.0
 10
-0.4
 20
4.409736217299999
 10
-0.3842414761
 20
4.4099675299
 10
-0.3685149393
 20
4.4106566019
 10
-0.3528431115
 20
4.4117961342
 10
-0.3372487146
 20
4.413378827799999
 10
-0.3217544703000001
 20
4.4153973837
 10
-0.3063831004
 20
4.417844503
 10
-0.2911573269
 20
4.4207128867
 10
-0.2760998714
 20
4.423995235699999
 10
-0.2612334559
 20
4.427684251199999
 10
-0.2465808021
 20
4.431772633999999
 10
-0.232164632
 20
4.436253085199999
 10
-0.2180076672
 20
4.441118305899999
 10
-0.2041326297
 20
4.4463609969
 10
-0.1905622412
 20
4.451973859499999
 10
-0.1773192236
 20
4.457949594399999
 10
-0.1644262988
 20
4.4642809029
 10
-0.1519061884
 20
4.4709604858
 10
-0.1397816144
 20
4.477981044199999
 10
-0.1280752986
 20
4.4853352791
 10
-0.1168099627
 20
4.493015891499999
 10
-0.1060019526
 20
4.501013582399999
 10
-0.0956589033
 20
4.509313827999999
 10
-0.0857904707
 20
4.5179014922
 10
-0.0764063106
 20
4.5267614387
 10
-0.0675160789
 20
4.535878531299999
 10
-0.0591294315
 20
4.5452376338
 10
-0.0512560242
 20
4.554823610099999
 10
-0.0439055128
 20
4.564621323899999
 10
-0.0370875534
 20
4.574615639
 10
-0.0308118017
 20
4.5847914193
 10
-0.0250879135
 20
4.595133528499999
 10
-0.0199255449
 20
4.6056268304
 10
-0.0153343515
 20
4.616256188899999
 10
-0.0113239894
 20
4.627006467799999
 10
-0.0079041143
 20
4.637862530699999
 10
-0.0050843821
 20
4.6488092417
 10
-0.0028744487
 20
4.659831464299999
 10
-0.00128397
 20
4.670914062599999
 10
-0.0003226018
 20
4.682041900099999
 10
0.0
 20
4.693199840899999
  0
LINE
  5
D5
330
78D
100
AcDbEntity
  8
1
  6
Continuous
100
AcDbLine
 10
0.0
 20
4.693199840899999
 30
0.0
 11
0.0
 21
5.107148657899999
 31
0.0
  0
ARC
  5
D6
330
78D
100
AcDbEntity
  8
1
  6
Continuous
100
AcDbCircle
 10
0.2497990033
 20
5.095483625099999
 30
0.0
 40
0.2500712199696218
100
AcDbArc
 50
122.0335502558
 51
177.3263625926
  0
LINE
  5
D7
330
78D
100
AcDbEntity
  8
1
  6
Continuous
100
AcDbLine
 10
0.1171572875
 20
5.3074784135
 30
0.0
 11
0.8828427125000001
 21
5.849673463899999
 31
0.0
  0
ARC
  5
D8
330
78D
100
AcDbEntity
  8
1
  6
Continuous
100
AcDbCircle
 10
1.157412205299999
 20
5.4371283499
 30
0.0
 40
0.4955621832731503
100
AcDbArc
 50
89.04342460389999
 51
123.6457595204
  0
LINE
  5
D9
330
78D
100
AcDbEntity
  8
1
  6
Continuous
100
AcDbLine
 10
1.165685424899999
 20
5.932621469199999
 30
0.0
 11
2.8343145751
 21
5.932621469199999
 31
0.0
  0
ARC
  5
DA
330
78D
100
AcDbEntity
  8
1
  6
Continuous
100
AcDbCircle
 10
2.8425927656
 20
5.4371452998
 30
0.0
 40
0.4955453186829767
100
AcDbArc
 50
56.3536331046
 51
90.95718277040001
  0
LWPOLYLINE
  5
DB
330
78D
100
AcDbEntity
  8
1
  6
Continuous
100
AcDbPolyline
 90
       25
 70
     0
 43
0.0
 10
3.117157287499999
 20
5.849673463899999
 10
3.153230283899999
 20
5.824132951499999
 10
3.189303066499999
 20
5.798592287999999
 10
3.225375631699999
 20
5.7730514709
 10
3.261447975699999
 20
5.7475104975
 10
3.297520094999999
 20
5.721969365299999
 10
3.3335919856
 20
5.696428071599999
 10
3.3696636441
 20
5.670886613799999
 10
3.4057350666
 20
5.645344989299999
 10
3.441806249399999
 20
5.619803195499999
 10
3.477877188799999
 20
5.594261229799999
 10
3.5139478812
 20
5.5687190895
 10
3.550018322799999
 20
5.5431767721
 10
3.5860885099
 20
5.517634274899999
 10
3.622158438899999
 20
5.492091595299999
 10
3.658228105899999
 20
5.4665487307
 10
3.6942975073
 20
5.441005678599999
 10
3.730366639499999
 20
5.4154624362
 10
3.766435498599999
 20
5.389919001099999
 10
3.802504081
 20
5.3643753704
 10
3.8385723829
 20
5.3388315418
 10
3.874640400799999
 20
5.313287512499999
 10
3.910708130799999
 20
5.287743279899999
 10
3.9467755693
 20
5.2621988414
 10
3.9828427125
 20
5.236654194499999
  0
LINE
  5
DC
330
78D
100
AcDbEntity
  8
1
  6
Continuous
100
AcDbLine
 10
3.9828427125
 20
5.236654194499999
 30
0.0
 11
4.0
 21
5.223715971299999
 31
0.0
  0
LINE
  5
DD
330
78D
100
AcDbEntity
  8
1
  6
Continuous
100
AcDbLine
 10
4.0
 20
5.223715971299999
 30
0.0
 11
4.0
 21
4.6580305463
 31
0.0
  0
LINE
  5
DE
330
78D
100
AcDbEntity
  8
SK3
100
AcDbLine
 10
-36.0
 20
3.8779783149
 30
0.0
 11
-36.0
 21
5.099999999999999
 31
0.0
  0
LINE
  5
DF
330
78D
100
AcDbEntity
  8
1
  6
Continuous
100
AcDbLine
 10
3.117157287499999
 20
5.849673463899999
 30
0.0
 11
3.117157287499999
 21
7.882842712499999
 31
0.0
  0
LINE
  5
E0
330
78D
100
AcDbEntity
  8
1
  6
Continuous
100
AcDbLine
 10
1.165685424899999
 20
5.932621469199999
 30
0.0
 11
1.165685424899999
 21
8.0
 31
0.0
  0
LINE
  5
E1
330
78D
100
AcDbEntity
  8
1
  6
Continuous
100
AcDbLine
 10
0.1171572875
 20
5.3074784135
 30
0.0
 11
0.1171572875
 21
7.1171572875
 31
0.0
  0
LINE
  5
E2
330
78D
100
AcDbEntity
  8
SK1
  6
Continuous
100
AcDbLine
 10
-2.126794919199999
 20
4.516044810199999
 30
0.0
 11
-2.126794919199999
 21
6.0
 31
0.0
  0
LWPOLYLINE
  5
E3
330
78D
100
AcDbEntity
  8
SK3
100
AcDbPolyline
 90
       25
 70
     0
 43
0.0
 10
-36.9347726839
 20
3.467690868
 10
-36.932433231
 20
3.4658292611
 10
-36.9300717478
 20
3.463980666
 10
-36.9276886077
 20
3.462145080099999
 10
-36.9252841844
 20
3.460322501199999
 10
-36.9228588515
 20
3.4585129267
 10
-36.92041298260001
 20
3.4567163543
 10
-36.9179469511
 20
3.454932781499999
 10
-36.9154611308
 20
3.453162206
 10
-36.9129558952
 20
3.451404625299999
 10
-36.91043161790001
 20
3.449660037099999
 10
-36.9078886724
 20
3.4479284389
 10
-36.9053274324
 20
3.446209828299999
 10
-36.9027482715
 20
3.444504202799999
 10
-36.90015156320001
 20
3.4428115602
 10
-36.8975376811
 20
3.441131898
 10
-36.8949069988
 20
3.4394652137
 10
-36.89225989
 20
3.437811504899999
 10
-36.8895967281
 20
3.436170769299999
 10
-36.8869178867
 20
3.4345430045
 10
-36.8842237395
 20
3.4329282079
 10
-36.8815146601
 20
3.4313263773
 10
-36.8787910219
 20
3.429737510199999
 10
-36.8760531987
 20
3.4281616042
 10
-36.8733015639
 20
3.426598656899999
  0
LWPOLYLINE
  5
E4
330
78D
100
AcDbEntity
  8
SK3
100
AcDbPolyline
 90
       25
 70
     0
 43
0.0
 10
-37.9830934268
 20
4.0933682216
 10
-37.9816319094
 20
4.0922559487
 10
-37.980162575
 20
4.091148490899999
 10
-37.9786855063
 20
4.0900458513
 10
-37.977200786
 20
4.0889480326
 10
-37.9757084968
 20
4.087855037799999
 10
-37.9742087213
 20
4.086766869799999
 10
-37.9727015422
 20
4.085683531599999
 10
-37.9711870423
 20
4.0846050261
 10
-37.9696653042
 20
4.083531356199999
 10
-37.9681364105
 20
4.0824625248
 10
-37.9666004441
 20
4.081398534799999
 10
-37.9650574875
 20
4.0803393892
 10
-37.9635076235
 20
4.0792850909
 10
-37.9619509347
 20
4.078235642799999
 10
-37.9603875038
 20
4.077191047799999
 10
-37.9588174135
 20
4.0761513089
 10
-37.9572407466
 20
4.075116428999999
 10
-37.9556575856
 20
4.074086410899999
 10
-37.9540680132
 20
4.0730612577
 10
-37.9524721122
 20
4.072040972299999
 10
-37.9508699653
 20
4.071025557499999
 10
-37.94926165510001
 20
4.0700150163
 10
-37.9476472642
 20
4.0690093516
 10
-37.9460268755
 20
4.068008566299999
  0
LINE
  5
E5
330
78D
100
AcDbEntity
  8
SK3
100
AcDbLine
 10
-35.8051442841
 20
-4.7625
 30
0.0
 11
-35.8051442841
 21
-3.638539827099999
 31
0.0
  0
LINE
  5
E6
330
78D
100
AcDbEntity
  8
SK3
100
AcDbLine
 10
3.588637933199999
 20
-4.7625
 30
0.0
 11
3.588637933199999
 21
-3.638539827099999
 31
0.0
  0
LINE
  5
E7
330
78D
100
AcDbEntity
  8
1
  6
Continuous
100
AcDbLine
 10
4.0
 20
-6.998889706199999
 30
0.0
 11
4.0
 21
-5.223715971299999
 31
0.0
  0
LINE
  5
E8
330
78D
100
AcDbEntity
  8
1
  6
Continuous
100
AcDbLine
 10
3.9828427125
 20
-7.017157287499999
 30
0.0
 11
3.9828427125
 21
-5.236654194499999
 31
0.0
  0
LINE
  5
E9
330
78D
100
AcDbEntity
  8
1
  6
Continuous
100
AcDbLine
 10
2.8343145751
 20
-8.0
 30
0.0
 11
2.8343145751
 21
-5.932621469199999
 31
0.0
  0
LINE
  5
EA
330
78D
100
AcDbEntity
  8
1
  6
Continuous
100
AcDbLine
 10
0.8828427125000001
 20
-7.882842712499999
 30
0.0
 11
0.8828427125000001
 21
-5.849673463899999
 31
0.0
  0
LINE
  5
EB
330
78D
100
AcDbEntity
  8
1
  6
Continuous
100
AcDbLine
 10
0.0
 20
-6.834314575099999
 30
0.0
 11
0.0
 21
-5.107148657899999
 31
0.0
  0
LINE
  5
EC
330
78D
100
AcDbEntity
  8
SK1
  6
Continuous
100
AcDbLine
 10
-0.4
 20
-5.849999999999999
 30
0.0
 11
-0.4
 21
-4.409736217299999
 31
0.0
  0
LINE
  5
ED
330
78D
100
AcDbEntity
  8
SK1
  6
Continuous
100
AcDbLine
 10
-1.566987298099999
 20
-5.849999999999999
 30
0.0
 11
-1.566987298099999
 21
-4.409736217299999
 31
0.0
  0
LWPOLYLINE
  5
EE
330
78D
100
AcDbEntity
  8
SK3
100
AcDbPolyline
 90
       25
 70
     0
 43
0.0
 10
-37.9217108298
 20
-4.0539322646
 10
-37.9228075258
 20
-4.0545313589
 10
-37.9239020306
 20
-4.0551323991
 10
-37.9249943291
 20
-4.0557353863
 10
-37.9260844062
 20
-4.0563403218
 10
-37.9271722468
 20
-4.0569472066
 10
-37.9282578356
 20
-4.057556042199999
 10
-37.9293411576
 20
-4.0581668295
 10
-37.9304221977
 20
-4.0587795699
 10
-37.9315009408
 20
-4.059394264499999
 10
-37.9325773717
 20
-4.060010914599999
 10
-37.9336514753
 20
-4.0606295213
 10
-37.9347232365
 20
-4.0612500858
 10
-37.93579264010001
 20
-4.061872609399999
 10
-37.9368596711
 20
-4.0624970932
 10
-37.9379243143
 20
-4.0631235384
 10
-37.9389865546
 20
-4.0637519462
 10
-37.9400463769
 20
-4.064382317899999
 10
-37.941103766
 20
-4.065014654599999
 10
-37.9421587068
 20
-4.065648957499999
 10
-37.9432111842
 20
-4.066285227899999
 10
-37.9442611832
 20
-4.066923466899999
 10
-37.9453086885
 20
-4.067563675699999
 10
-37.946353685
 20
-4.0682058555
 10
-37.94739615760001
 20
-4.0688500076
  0
LINE
  5
EF
330
78D
100
AcDbEntity
  8
SK3
100
AcDbLine
 10
-36.0
 20
-3.8779783149
 30
0.0
 11
-36.0
 21
-5.099999999999999
 31
0.0
  0
LINE
  5
F0
330
78D
100
AcDbEntity
  8
SK3
100
AcDbLine
 10
-35.8051442841
 20
-3.072854402099999
 30
0.0
 11
-35.8051442841
 21
3.072854402099999
 31
0.0
  0
LINE
  5
F1
330
78D
100
AcDbEntity
  8
SK3
100
AcDbLine
 10
3.588637933199999
 20
-3.072854402099999
 30
0.0
 11
3.588637933199999
 21
3.072854402099999
 31
0.0
  0
LINE
  5
F2
330
78D
100
AcDbEntity
  8
1
  6
Continuous
100
AcDbLine
 10
4.0
 20
-4.6580305463
 30
0.0
 11
4.0
 21
4.6580305463
 31
0.0
  0
LINE
  5
F3
330
78D
100
AcDbEntity
  8
1
  6
Continuous
100
AcDbLine
 10
3.9828427125
 20
-4.670968769499999
 30
0.0
 11
3.9828427125
 21
4.670968769499999
 31
0.0
  0
LINE
  5
F4
330
78D
100
AcDbEntity
  8
1
  6
Continuous
100
AcDbLine
 10
3.117157287499999
 20
-5.849673463899999
 30
0.0
 11
3.117157287499999
 21
-7.882842712499999
 31
0.0
  0
LINE
  5
F5
330
78D
100
AcDbEntity
  8
1
  6
Continuous
100
AcDbLine
 10
2.8343145751
 20
-5.3669360443
 30
0.0
 11
2.8343145751
 21
5.3669360443
 31
0.0
  0
LINE
  5
F6
330
78D
100
AcDbEntity
  8
1
  6
Continuous
100
AcDbLine
 10
1.165685424899999
 20
-5.932621469199999
 30
0.0
 11
1.165685424899999
 21
-8.0
 31
0.0
  0
LINE
  5
F7
330
78D
100
AcDbEntity
  8
1
  6
Continuous
100
AcDbLine
 10
0.8828427125000001
 20
-5.283988038899999
 30
0.0
 11
0.8828427125000001
 21
5.283988038899999
 31
0.0
  0
LINE
  5
F8
330
78D
100
AcDbEntity
  8
1
  6
Continuous
100
AcDbLine
 10
0.1171572875
 20
-5.3074784135
 30
0.0
 11
0.1171572875
 21
-7.1171572875
 31
0.0
  0
LINE
  5
F9
330
78D
100
AcDbEntity
  8
1
  6
Continuous
100
AcDbLine
 10
0.0
 20
-4.541463232999999
 30
0.0
 11
0.0
 21
4.541463232999999
 31
0.0
  0
LINE
  5
FA
330
78D
100
AcDbEntity
  8
SK1
  6
Continuous
100
AcDbLine
 10
-0.4
 20
-3.8440507923
 30
0.0
 11
-0.4
 21
3.8440507923
 31
0.0
  0
LINE
  5
FB
330
78D
100
AcDbEntity
  8
SK1
  6
Continuous
100
AcDbLine
 10
-1.566987298099999
 20
-3.8440507923
 30
0.0
 11
-1.566987298099999
 21
3.8440507923
 31
0.0
  0
LINE
  5
FC
330
78D
100
AcDbEntity
  8
SK1
  6
Continuous
100
AcDbLine
 10
-2.126794919199999
 20
-4.516044810199999
 30
0.0
 11
-2.126794919199999
 21
-6.0
 31
0.0
  0
LINE
  5
FD
330
78D
100
AcDbEntity
  8
SK3
100
AcDbLine
 10
-36.3597090417
 20
-3.31229289
 30
0.0
 11
-36.0
 21
-3.31229289
 31
0.0
  0
LINE
  5
FE
330
78D
100
AcDbEntity
  8
SK3
100
AcDbLine
 10
-36.0
 20
-3.31229289
 30
0.0
 11
-35.8051442841
 21
-3.072854402099999
 31
0.0
  0
LINE
  5
FF
330
78D
100
AcDbEntity
  8
SK3
100
AcDbLine
 10
-35.8051442841
 20
-3.072854402099999
 30
0.0
 11
3.588637933199999
 21
-3.072854402099999
 31
0.0
  0
LINE
  5
100
330
78D
100
AcDbEntity
  8
SK3
100
AcDbLine
 10
4.0
 20
-3.241359324899999
 30
0.0
 11
3.588637933199999
 21
-3.072854402099999
 31
0.0
  0
LINE
  5
101
330
78D
100
AcDbEntity
  8
1
  6
Continuous
100
AcDbLine
 10
3.9828427125
 20
-4.670968769499999
 30
0.0
 11
4.0
 21
-4.6580305463
 31
0.0
  0
LWPOLYLINE
  5
102
330
78D
100
AcDbEntity
  8
1
  6
Continuous
100
AcDbPolyline
 90
       25
 70
     0
 43
0.0
 10
3.117157287499999
 20
-5.283988038899999
 10
3.153230283899999
 20
-5.258447526499999
 10
3.189303066499999
 20
-5.232906863
 10
3.225375631699999
 20
-5.207366045899999
 10
3.261447975699999
 20
-5.181825072599999
 10
3.297520094999999
 20
-5.156283940399999
 10
3.3335919856
 20
-5.130742646699999
 10
3.3696636441
 20
-5.105201188899999
 10
3.4057350666
 20
-5.079659564399999
 10
3.441806249399999
 20
-5.0541177705
 10
3.477877188799999
 20
-5.028575804799999
 10
3.5139478812
 20
-5.0030336645
 10
3.550018322799999
 20
-4.977491347099999
 10
3.5860885099
 20
-4.951948849899999
 10
3.622158438899999
 20
-4.926406170299999
 10
3.658228105899999
 20
-4.900863305799999
 10
3.6942975073
 20
-4.875320253599999
 10
3.730366639499999
 20
-4.849777011299999
 10
3.766435498599999
 20
-4.8242335761
 10
3.802504081
 20
-4.7986899455
 10
3.8385723829
 20
-4.7731461168
 10
3.874640400799999
 20
-4.747602087499999
 10
3.910708130799999
 20
-4.7220578549
 10
3.9467755693
 20
-4.6965134165
 10
3.9828427125
 20
-4.670968769499999
  0
ARC
  5
103
330
78D
100
AcDbEntity
  8
1
  6
Continuous
100
AcDbCircle
 10
2.8425927656
 20
-4.8714598749
 30
0.0
 40
0.4955453186829704
100
AcDbArc
 50
269.0428172296
 51
303.6463668954
  0
LINE
  5
104
330
78D
100
AcDbEntity
  8
1
  6
Continuous
100
AcDbLine
 10
1.165685424899999
 20
-5.3669360443
 30
0.0
 11
2.8343145751
 21
-5.3669360443
 31
0.0
  0
ARC
  5
105
330
78D
100
AcDbEntity
  8
1
  6
Continuous
100
AcDbCircle
 10
1.157412205299999
 20
-4.8714429249
 30
0.0
 40
0.4955621832731503
100
AcDbArc
 50
236.3542404796
 51
270.9565753961
  0
LINE
  5
106
330
78D
100
AcDbEntity
  8
1
  6
Continuous
100
AcDbLine
 10
0.1171572875
 20
-4.7417929885
 30
0.0
 11
0.8828427125000001
 21
-5.283988038899999
 31
0.0
  0
ARC
  5
107
330
78D
100
AcDbEntity
  8
1
  6
Continuous
100
AcDbCircle
 10
0.2497990033
 20
-4.5297982002
 30
0.0
 40
0.2500712199696218
100
AcDbArc
 50
182.6736374074
 51
237.9664497442
  0
LWPOLYLINE
  5
108
330
78D
100
AcDbEntity
  8
SK1
  6
Continuous
100
AcDbPolyline
 90
       41
 70
     0
 43
0.0
 10
-0.4
 20
-3.8440507923
 10
-0.3842414761
 20
-3.844282104999999
 10
-0.3685149393
 20
-3.8449711769
 10
-0.3528431115
 20
-3.846110709199999
 10
-0.3372487146
 20
-3.847693402799999
 10
-0.3217544703000001
 20
-3.8497119588
 10
-0.3063831004
 20
-3.8521590781
 10
-0.2911573269
 20
-3.8550274617
 10
-0.2760998714
 20
-3.858309810799999
 10
-0.2612334559
 20
-3.8619988262
 10
-0.2465808021
 20
-3.866087208999999
 10
-0.232164632
 20
-3.870567660299999
 10
-0.2180076672
 20
-3.875432880899999
 10
-0.2041326297
 20
-3.880675571999999
 10
-0.1905622412
 20
-3.886288434499999
 10
-0.1773192236
 20
-3.892264169499999
 10
-0.1644262988
 20
-3.8985954779
 10
-0.1519061884
 20
-3.905275060799999
 10
-0.1397816144
 20
-3.9122956192
 10
-0.1280752986
 20
-3.9196498541
 10
-0.1168099627
 20
-3.927330466499999
 10
-0.1060019526
 20
-3.935328157499999
 10
-0.0956589033
 20
-3.943628403099999
 10
-0.0857904707
 20
-3.9522160672
 10
-0.0764063106
 20
-3.961076013699999
 10
-0.0675160789
 20
-3.970193106299999
 10
-0.0591294315
 20
-3.979552208899999
 10
-0.0512560242
 20
-3.989138185099999
 10
-0.0439055128
 20
-3.998935898899999
 10
-0.0370875534
 20
-4.0089302141
 10
-0.0308118017
 20
-4.0191059943
 10
-0.0250879135
 20
-4.0294481035
 10
-0.0199255449
 20
-4.0399414055
 10
-0.0153343515
 20
-4.050570763999999
 10
-0.0113239894
 20
-4.061321042799999
 10
-0.0079041143
 20
-4.072177105799999
 10
-0.0050843821
 20
-4.0831238167
 10
-0.0028744487
 20
-4.094146039399999
 10
-0.00128397
 20
-4.105228637599999
 10
-0.0003226018
 20
-4.116356475199999
 10
0.0
 20
-4.127514415899999
  0
LINE
  5
109
330
78D
100
AcDbEntity
  8
SK1
  6
Continuous
100
AcDbLine
 10
-1.566987298099999
 20
-3.8440507923
 30
0.0
 11
-0.4
 21
-3.8440507923
 31
0.0
  0
LINE
  5
10A
330
78D
100
AcDbEntity
  8
SK1
  6
Continuous
100
AcDbLine
 10
-2.126794919199999
 20
-3.950359385199999
 30
0.0
 11
-1.566987298099999
 21
-3.8440507923
 31
0.0
  0
LINE
  5
10B
330
78D
100
AcDbEntity
  8
SK1
  6
Continuous
100
AcDbLine
 10
-37.4515216681
 20
-3.950359385199999
 30
0.0
 11
-2.126794919199999
 21
-3.950359385199999
 31
0.0
  0
LINE
  5
10C
330
78D
100
AcDbEntity
  8
SK1
  6
Continuous
100
AcDbLine
 10
-37.4515216681
 20
-4.516044810199999
 30
0.0
 11
-2.126794919199999
 21
-4.516044810199999
 31
0.0
  0
LINE
  5
10D
330
78D
100
AcDbEntity
  8
SK1
  6
Continuous
100
AcDbLine
 10
-2.126794919199999
 20
-4.516044810199999
 30
0.0
 11
-1.566987298099999
 21
-4.409736217299999
 31
0.0
  0
LINE
  5
10E
330
78D
100
AcDbEntity
  8
SK1
  6
Continuous
100
AcDbLine
 10
-1.566987298099999
 20
-4.409736217299999
 30
0.0
 11
-0.4
 21
-4.409736217299999
 31
0.0
  0
LWPOLYLINE
  5
10F
330
78D
100
AcDbEntity
  8
SK1
  6
Continuous
100
AcDbPolyline
 90
       41
 70
     0
 43
0.0
 10
-0.4
 20
-4.409736217299999
 10
-0.3842414761
 20
-4.4099675299
 10
-0.3685149393
 20
-4.4106566019
 10
-0.3528431115
 20
-4.4117961342
 10
-0.3372487146
 20
-4.413378827799999
 10
-0.3217544703000001
 20
-4.4153973837
 10
-0.3063831004
 20
-4.417844503
 10
-0.2911573269
 20
-4.4207128867
 10
-0.2760998714
 20
-4.423995235699999
 10
-0.2612334559
 20
-4.427684251199999
 10
-0.2465808021
 20
-4.431772633999999
 10
-0.232164632
 20
-4.436253085199999
 10
-0.2180076672
 20
-4.441118305899999
 10
-0.2041326297
 20
-4.4463609969
 10
-0.1905622412
 20
-4.451973859499999
 10
-0.1773192236
 20
-4.457949594399999
 10
-0.1644262988
 20
-4.4642809029
 10
-0.1519061884
 20
-4.4709604858
 10
-0.1397816144
 20
-4.477981044199999
 10
-0.1280752986
 20
-4.4853352791
 10
-0.1168099627
 20
-4.493015891499999
 10
-0.1060019526
 20
-4.501013582399999
 10
-0.0956589033
 20
-4.509313827999999
 10
-0.0857904707
 20
-4.5179014922
 10
-0.0764063106
 20
-4.5267614387
 10
-0.0675160789
 20
-4.535878531299999
 10
-0.0591294315
 20
-4.5452376338
 10
-0.0512560242
 20
-4.554823610099999
 10
-0.0439055128
 20
-4.564621323899999
 10
-0.0370875534
 20
-4.574615639
 10
-0.0308118017
 20
-4.5847914193
 10
-0.0250879135
 20
-4.595133528499999
 10
-0.0199255449
 20
-4.6056268304
 10
-0.0153343515
 20
-4.616256188899999
 10
-0.0113239894
 20
-4.627006467799999
 10
-0.0079041143
 20
-4.637862530699999
 10
-0.0050843821
 20
-4.6488092417
 10
-0.0028744487
 20
-4.659831464299999
 10
-0.00128397
 20
-4.670914062599999
 10
-0.0003226018
 20
-4.682041900099999
 10
0.0
 20
-4.693199840899999
  0
LINE
  5
110
330
78D
100
AcDbEntity
  8
1
  6
Continuous
100
AcDbLine
 10
0.0
 20
-4.693199840899999
 30
0.0
 11
0.0
 21
-5.107148657899999
 31
0.0
  0
ARC
  5
111
330
78D
100
AcDbEntity
  8
1
  6
Continuous
100
AcDbCircle
 10
0.2497990033
 20
-5.095483625099999
 30
0.0
 40
0.2500712199696211
100
AcDbArc
 50
182.6736374074
 51
237.9664497442
  0
LINE
  5
112
330
78D
100
AcDbEntity
  8
1
  6
Continuous
100
AcDbLine
 10
0.1171572875
 20
-5.3074784135
 30
0.0
 11
0.8828427125000001
 21
-5.849673463899999
 31
0.0
  0
ARC
  5
113
330
78D
100
AcDbEntity
  8
1
  6
Continuous
100
AcDbCircle
 10
1.157412205299999
 20
-5.4371283499
 30
0.0
 40
0.4955621832731433
100
AcDbArc
 50
236.3542404796
 51
270.9565753961
  0
LINE
  5
114
330
78D
100
AcDbEntity
  8
1
  6
Continuous
100
AcDbLine
 10
1.165685424899999
 20
-5.932621469199999
 30
0.0
 11
2.8343145751
 21
-5.932621469199999
 31
0.0
  0
ARC
  5
115
330
78D
100
AcDbEntity
  8
1
  6
Continuous
100
AcDbCircle
 10
2.8425927656
 20
-5.4371452998
 30
0.0
 40
0.4955453186829646
100
AcDbArc
 50
269.0428172296
 51
303.6463668954
  0
LWPOLYLINE
  5
116
330
78D
100
AcDbEntity
  8
1
  6
Continuous
100
AcDbPolyline
 90
       25
 70
     0
 43
0.0
 10
3.117157287499999
 20
-5.849673463899999
 10
3.153230283899999
 20
-5.824132951499999
 10
3.189303066499999
 20
-5.798592287999999
 10
3.225375631699999
 20
-5.7730514709
 10
3.261447975699999
 20
-5.7475104975
 10
3.297520094999999
 20
-5.721969365299999
 10
3.3335919856
 20
-5.696428071599999
 10
3.3696636441
 20
-5.670886613799999
 10
3.4057350666
 20
-5.645344989299999
 10
3.441806249399999
 20
-5.619803195499999
 10
3.477877188799999
 20
-5.594261229799999
 10
3.5139478812
 20
-5.5687190895
 10
3.550018322799999
 20
-5.5431767721
 10
3.5860885099
 20
-5.517634274899999
 10
3.622158438899999
 20
-5.492091595299999
 10
3.658228105899999
 20
-5.4665487307
 10
3.6942975073
 20
-5.441005678599999
 10
3.730366639499999
 20
-5.4154624362
 10
3.766435498599999
 20
-5.389919001099999
 10
3.802504081
 20
-5.3643753704
 10
3.8385723829
 20
-5.3388315418
 10
3.874640400799999
 20
-5.313287512499999
 10
3.910708130799999
 20
-5.287743279899999
 10
3.9467755693
 20
-5.2621988414
 10
3.9828427125
 20
-5.236654194499999
  0
LINE
  5
117
330
78D
100
AcDbEntity
  8
1
  6
Continuous
100
AcDbLine
 10
3.9828427125
 20
-5.236654194499999
 30
0.0
 11
4.0
 21
-5.223715971299999
 31
0.0
  0
LINE
  5
118
330
78D
100
AcDbEntity
  8
1
  6
Continuous
100
AcDbLine
 10
4.0
 20
-5.223715971299999
 30
0.0
 11
4.0
 21
-4.6580305463
 31
0.0
  0
LINE
  5
119
330
78D
100
AcDbEntity
  8
SK3
100
AcDbLine
 10
4.0
 20
-3.8070447498
 30
0.0
 11
3.588637933199999
 21
-3.638539827099999
 31
0.0
  0
LINE
  5
11A
330
78D
100
AcDbEntity
  8
SK3
100
AcDbLine
 10
-35.8051442841
 20
-3.638539827099999
 30
0.0
 11
3.588637933199999
 21
-3.638539827099999
 31
0.0
  0
LINE
  5
11B
330
78D
100
AcDbEntity
  8
SK3
100
AcDbLine
 10
-36.0
 20
-3.8779783149
 30
0.0
 11
-35.8051442841
 21
-3.638539827099999
 31
0.0
  0
LINE
  5
11C
330
78D
100
AcDbEntity
  8
SK3
100
AcDbLine
 10
-36.3597090417
 20
-3.8779783149
 30
0.0
 11
-36.0
 21
-3.8779783149
 31
0.0
  0
LWPOLYLINE
  5
11D
330
78D
100
AcDbEntity
  8
SK1
  6
Continuous
100
AcDbPolyline
 90
        3
 70
     0
 43
0.0
 10
-36.4882290452
 20
-3.950359385199999
 10
-36.9734946448
 20
-4.2301204967
 10
-37.4515216681
 20
-4.516044810199999
  0
LWPOLYLINE
  5
11E
330
78D
100
AcDbEntity
  8
SK3
100
AcDbPolyline
 90
      265
 70
     0
 43
0.0
 10
-36.3597090417
 20
-3.8779783149
 10
-36.3660652347
 20
-3.877965721299999
 10
-36.3724230273
 20
-3.877927921399999
 10
-36.37878204670001
 20
-3.8778648867
 10
-36.38514192040001
 20
-3.8777765887
 10
-36.3915022755
 20
-3.877662998899999
 10
-36.3978627395
 20
-3.877524088699999
 10
-36.4042229397
 20
-3.877359829599999
 10
-36.4105825034
 20
-3.877170193099999
 10
-36.4169410579
 20
-3.876955150699999
 10
-36.4232982305
 20
-3.8767146738
 10
-36.4296536487
 20
-3.876448733899999
 10
-36.4360069396
 20
-3.876157302499999
 10
-36.44235773070001
 20
-3.8758403511
 10
-36.4487056492
 20
-3.8754978511
 10
-36.4550503225
 20
-3.8751297741
 10
-36.4613913779
 20
-3.874736091399999
 10
-36.4677284428
 20
-3.874316774599999
 10
-36.47406114440001
 20
-3.873871795099999
 10
-36.4803891101
 20
-3.873401124399999
 10
-36.4867119672
 20
-3.8729047341
 10
-36.4930293431
 20
-3.872382595499999
 10
-36.499340865
 20
-3.8718346801
 10
-36.5056461603
 20
-3.871260959499999
 10
-36.5119448563
 20
-3.870661404999999
 10
-36.5182365804
 20
-3.870035988299999
 10
-36.5245209599
 20
-3.869384680599999
 10
-36.5307976221
 20
-3.8687074536
 10
-36.5370661942
 20
-3.868004278699999
 10
-36.5433263038
 20
-3.8672751274
 10
-36.549577578
 20
-3.8665199711
 10
-36.5558188511
 20
-3.8657388848
 10
-36.5620475755
 20
-3.8649323691
 10
-36.5682727338
 20
-3.864099224599999
 10
-36.5744936571
 20
-3.863239249599999
 10
-36.5807096765
 20
-3.8623522426
 10
-36.5869201232
 20
-3.861438002099999
 10
-36.5931243281
 20
-3.860496326499999
 10
-36.5993216226
 20
-3.859527014399999
 10
-36.6055113375
 20
-3.8585298641
 10
-36.61169280420001
 20
-3.8575046741
 10
-36.6178653536
 20
-3.856451243
 10
-36.624028317
 20
-3.8553693691
 10
-36.63018102530001
 20
-3.854258850899999
 10
-36.6363228098
 20
-3.853119486899999
 10
-36.6424530015
 20
-3.8519510756
 10
-36.6485709316
 20
-3.8507534155
 10
-36.6546759311
 20
-3.849526304899999
 10
-36.6607673312
 20
-3.8482695423
 10
-36.66684446300001
 20
-3.846982926299999
 10
-36.6729066576
 20
-3.845666255299999
 10
-36.678953246
 20
-3.844319327699999
 10
-36.6849835595
 20
-3.842941942099999
 10
-36.69099692920001
 20
-3.8415338968
 10
-36.6969926861
 20
-3.840094990299999
 10
-36.7029701613
 20
-3.8386250212
 10
-36.708928686
 20
-3.8371237879
 10
-36.7148675913
 20
-3.835591088799999
 10
-36.7207862083
 20
-3.8340267223
 10
-36.7266838681
 20
-3.832430487099999
 10
-36.73255990179999
 20
-3.830802181499999
 10
-36.7384136405
 20
-3.829141603999999
 10
-36.7442444154
 20
-3.827448553099999
 10
-36.7500515575
 20
-3.825722827099999
 10
-36.755834398
 20
-3.8239642247
 10
-36.761592268
 20
-3.822172544299999
 10
-36.76732449860001
 20
-3.8203475842
 10
-36.7730304209
 20
-3.818489143099999
 10
-36.778709366
 20
-3.816597019299999
 10
-36.784360665
 20
-3.814671011299999
 10
-36.7899836491
 20
-3.8127109176
 10
-36.7955776493
 20
-3.8107165367
 10
-36.8011719344
 20
-3.8086762048
 10
-36.8067430953
 20
-3.8065968343
 10
-36.8122884578
 20
-3.8044784105
 10
-36.8178061718
 20
-3.802320622099999
 10
-36.8232943871
 20
-3.800123157699999
 10
-36.82875125360001
 20
-3.7978857061
 10
-36.83417492090001
 20
-3.795607955699999
 10
-36.8395635391
 20
-3.793289595299999
 10
-36.8449152579
 20
-3.7909303135
 10
-36.8502282271
 20
-3.788529798899999
 10
-36.8555005966
 20
-3.786087740199999
 10
-36.8607305161
 20
-3.7836038261
 10
-36.8659161356
 20
-3.781077745
 10
-36.8710556049
 20
-3.778509185799999
 10
-36.8761470737
 20
-3.775897837099999
 10
-36.8811886919
 20
-3.773243387399999
 10
-36.8861786093
 20
-3.7705455254
 10
-36.8911149758
 20
-3.7678039398
 10
-36.8959959412
 20
-3.7650183192
 10
-36.90081965530001
 20
-3.7621883522
 10
-36.905584268
 20
-3.759313727499999
 10
-36.910287929
 20
-3.756394133799999
 10
-36.9149287882
 20
-3.753429259599999
 10
-36.9195054937
 20
-3.7504184041
 10
-36.9240222719
 20
-3.7473553941
 10
-36.9284770993
 20
-3.744238823699999
 10
-36.9328662019
 20
-3.741069193299999
 10
-36.93718580570001
 20
-3.7378470031
 10
-36.9414321367
 20
-3.734572753299999
 10
-36.945601421
 20
-3.7312469441
 10
-36.9496898844
 20
-3.727870075899999
 10
-36.953693753
 20
-3.7244426487
 10
-36.9576092527
 20
-3.720965162799999
 10
-36.9614326097
 20
-3.7174381186
 10
-36.9651600499
 20
-3.7138620161
 10
-36.9687877992
 20
-3.710237355699999
 10
-36.9723120838
 20
-3.7065646376
 10
-36.9757291295
 20
-3.702844361899999
 10
-36.9790351624
 20
-3.699077028999999
 10
-36.9822264084
 20
-3.6952631391
 10
-36.9852990937
 20
-3.6914031924
 10
-36.9882529552
 20
-3.687492029299999
 10
-36.9910874435
 20
-3.683522302099999
 10
-36.9937972017
 20
-3.679498268399999
 10
-36.9963782628
 20
-3.675422956899999
 10
-36.99882665980001
 20
-3.6712993962
 10
-37.0011384256
 20
-3.667130615
 10
-37.0033095932
 20
-3.662919641999999
 10
-37.0053361956
 20
-3.658669505899999
 10
-37.0072142659
 20
-3.654383235299999
 10
-37.0089398369
 20
-3.650063858899999
 10
-37.01050894170001
 20
-3.6457144055
 10
-37.0119176132
 20
-3.6413379036
 10
-37.0131618844
 20
-3.636937381999999
 10
-37.0142380407
 20
-3.632514745099999
 10
-37.01515485
 20
-3.6280194122
 10
-37.01590096949999
 20
-3.6234996099
 10
-37.0164751369
 20
-3.618960194599999
 10
-37.01687608949999
 20
-3.614406022599999
 10
-37.0171025649
 20
-3.609841950599999
 10
-37.0171532864
 20
-3.6052866569
 10
-37.0170267775
 20
-3.600785088799999
 10
-37.0167246654
 20
-3.596273576899999
 10
-37.0162497295
 20
-3.5917562911
 10
-37.0156047491
 20
-3.587237401399999
 10
-37.0147925037
 20
-3.5827210779
 10
-37.0138157725
 20
-3.5782114906
 10
-37.012677335
 20
-3.573712809399999
 10
-37.0113799705
 20
-3.5692292043
 10
-37.0099264583
 20
-3.5647648454
 10
-37.0083195778
 20
-3.560323902699999
 10
-37.0065621083
 20
-3.5559105462
 10
-37.0046568293
 20
-3.551528945799999
 10
-37.00260652
 20
-3.5471832717
 10
-37.0004139599
 20
-3.542877693699999
 10
-36.9980819282
 20
-3.538616381899999
 10
-36.9956002659
 20
-3.534377028
 10
-36.9929795402
 20
-3.5301677463
 10
-36.9902259399
 20
-3.525993338799999
 10
-36.9873437094
 20
-3.5218553081
 10
-36.9843370934
 20
-3.5177551567
 10
-36.9812103364
 20
-3.513694387099999
 10
-36.9779676829
 20
-3.5096745018
 10
-36.9746133775
 20
-3.505697003399999
 10
-36.9711516649
 20
-3.501763394499999
 10
-36.9675867895
 20
-3.4978751776
 10
-36.9639229959
 20
-3.494033855199999
 10
-36.9601645288
 20
-3.4902409299
 10
-36.9563156325
 20
-3.4864979042
 10
-36.9523805518
 20
-3.4828062806
 10
-36.9483635311
 20
-3.4791675617
 10
-36.9442797468
 20
-3.4755917574
 10
-36.9401195238
 20
-3.472065113299999
 10
-36.9358799926
 20
-3.468582839399999
 10
-36.93156350360001
 20
-3.4651449205
 10
-36.9271724069
 20
-3.461751341499999
 10
-36.922709053
 20
-3.458402087099999
 10
-36.9181757921
 20
-3.4550971422
 10
-36.9135749745
 20
-3.451836491699999
 10
-36.9089089506
 20
-3.4486201204
 10
-36.9041800707
 20
-3.4454480131
 10
-36.899390685
 20
-3.4423201547
 10
-36.8945431439
 20
-3.43923653
 10
-36.8896397977
 20
-3.436197123799999
 10
-36.8846829967
 20
-3.433201921
 10
-36.8796750912
 20
-3.430250906399999
 10
-36.8746184315
 20
-3.4273440648
 10
-36.8695153679
 20
-3.4244813811
 10
-36.8643682507
 20
-3.421662840099999
 10
-36.8591794302
 20
-3.4188884267
 10
-36.85395125679999
 20
-3.416158125699999
 10
-36.8486860807
 20
-3.413471921899999
 10
-36.8433862523
 20
-3.410829800099999
 10
-36.8380541218
 20
-3.408231745299999
 10
-36.8326920396
 20
-3.4056777422
 10
-36.827316179
 20
-3.4031737173
 10
-36.8219077966
 20
-3.4007091623
 10
-36.8164648516
 20
-3.398282547099999
 10
-36.8109881602
 20
-3.3958936986
 10
-36.8054785387
 20
-3.393542443999999
 10
-36.79993680320001
 20
-3.3912286104
 10
-36.79436377
 20
-3.3889520248
 10
-36.7887602555
 20
-3.3867125144
 10
-36.7831270757
 20
-3.3845099061
 10
-36.7774650469
 20
-3.3823440272
 10
-36.7717749854
 20
-3.3802147047
 10
-36.7660577074
 20
-3.378121765599999
 10
-36.7603140291
 20
-3.376065037099999
 10
-36.75454476690001
 20
-3.3740443462
 10
-36.7487507368
 20
-3.37205952
 10
-36.7429327552
 20
-3.370110385699999
 10
-36.7370916383
 20
-3.368196770199999
 10
-36.73122820230001
 20
-3.366318500799999
 10
-36.7253432634
 20
-3.364475404399999
 10
-36.719437638
 20
-3.362667308099999
 10
-36.7135121421
 20
-3.3608940391
 10
-36.7075675922
 20
-3.359155424399999
 10
-36.7016048044
 20
-3.357451291
 10
-36.6956245949
 20
-3.355781466199999
 10
-36.68962778
 20
-3.354145776999999
 10
-36.6836151759
 20
-3.3525440504
 10
-36.6775875988
 20
-3.3509761135
 10
-36.671545865
 20
-3.3494417935
 10
-36.6654907908
 20
-3.347940917399999
 10
-36.6594231923
 20
-3.3464733123
 10
-36.6533438859
 20
-3.345038805199999
 10
-36.6472536876
 20
-3.343637223399999
 10
-36.6411534139
 20
-3.342268393799999
 10
-36.6350438808
 20
-3.3409321435
 10
-36.6289259047
 20
-3.339628299599999
 10
-36.6228003018
 20
-3.3383566893
 10
-36.6166678883
 20
-3.337117139499999
 10
-36.6105294804
 20
-3.335909477399999
 10
-36.6043931056
 20
-3.3347349172
 10
-36.5982549373
 20
-3.3335925389
 10
-36.5921049174
 20
-3.3324803204
 10
-36.5859434274
 20
-3.3313982358
 10
-36.5797708487
 20
-3.330346258899999
 10
-36.5735875628
 20
-3.329324363899999
 10
-36.5673939513
 20
-3.3283325247
 10
-36.5611903956
 20
-3.327370715199999
 10
-36.5549772773
 20
-3.326438909499999
 10
-36.5487549779
 20
-3.3255370816
 10
-36.5425238789
 20
-3.3246652054
 10
-36.5362843617
 20
-3.323823255
 10
-36.530036808
 20
-3.3230112043
 10
-36.5237815991
 20
-3.3222290273
 10
-36.5175191166
 20
-3.321476698
 10
-36.5112497421
 20
-3.3207541904
 10
-36.504973857
 20
-3.3200614785
 10
-36.4986918427
 20
-3.3193985363
 10
-36.492404081
 20
-3.318765337799999
 10
-36.48611095310001
 20
-3.318161856899999
 10
-36.4798128407
 20
-3.3175880676
 10
-36.4735101252
 20
-3.317043943999999
 10
-36.4672031882
 20
-3.316529459999999
 10
-36.4608924112
 20
-3.316044589599999
 10
-36.4545781756
 20
-3.3155893068
 10
-36.448260863
 20
-3.3151635857
 10
-36.44194085480001
 20
-3.3147674
 10
-36.4356185327
 20
-3.314400723999999
 10
-36.429294278
 20
-3.314063531499999
 10
-36.4229684723
 20
-3.3137557966
 10
-36.4166414972
 20
-3.313477493199999
 10
-36.410313734
 20
-3.313228595299999
 10
-36.4039855644
 20
-3.313009076899999
 10
-36.3976573697
 20
-3.312818912099999
 10
-36.3913295316
 20
-3.3126580747
 10
-36.3850024315
 20
-3.312526538899999
 10
-36.378676451
 20
-3.3124242785
 10
-36.3723519715
 20
-3.312351267499999
 10
-36.36602937460001
 20
-3.312307479999999
 10
-36.3597090417
 20
-3.31229289
  0
LWPOLYLINE
  5
11F
330
78D
100
AcDbEntity
  8
SK1
  6
Continuous
100
AcDbPolyline
 90
      265
 70
     0
 43
0.0
 10
-37.4515216681
 20
-4.516044810199999
 10
-37.45767170510001
 20
-4.516031533799999
 10
-37.4638221676
 20
-4.5159917085
 10
-37.4699726599
 20
-4.515925340299999
 10
-37.4761227862
 20
-4.5158324351
 10
-37.4822721508
 20
-4.515712998699999
 10
-37.4884203577
 20
-4.515567037099999
 10
-37.4945670114
 20
-4.5153945562
 10
-37.5007117161
 20
-4.515195561899999
 10
-37.5068540758
 20
-4.514970060099999
 10
-37.512993695
 20
-4.5147180568
 10
-37.51913017790001
 20
-4.514439557699999
 10
-37.52526312860001
 20
-4.514134568899999
 10
-37.5313633358
 20
-4.5138047832
 10
-37.537439387
 20
-4.513450353799999
 10
-37.5435164399
 20
-4.513069882599999
 10
-37.5495939563
 20
-4.512663256399999
 10
-37.555671398
 20
-4.5122303622
 10
-37.5617482268
 20
-4.511771086899999
 10
-37.5678239047
 20
-4.5112853174
 10
-37.5738978935
 20
-4.510772940499999
 10
-37.579969655
 20
-4.510233843199999
 10
-37.5860386511
 20
-4.5096679125
 10
-37.5921043436
 20
-4.509075035099999
 10
-37.5981661945
 20
-4.508455098099999
 10
-37.6042236655
 20
-4.507807988299999
 10
-37.6102762186
 20
-4.507133592699999
 10
-37.6163233155
 20
-4.5064317981
 10
-37.6223644182
 20
-4.5057024914
 10
-37.6283989885
 20
-4.504945559599999
 10
-37.6344264882
 20
-4.504160889599999
 10
-37.6404463792
 20
-4.5033483683
 10
-37.6464581234
 20
-4.502507882499999
 10
-37.6524611826
 20
-4.5016393192
 10
-37.6584550186
 20
-4.5007425654
 10
-37.6644390935
 20
-4.499817507799999
 10
-37.6704128688
 20
-4.4988640335
 10
-37.6763758067
 20
-4.4978820292
 10
-37.6823273688
 20
-4.496871382
 10
-37.68826701710001
 20
-4.4958319788
 10
-37.6941942134
 20
-4.494763706399999
 10
-37.7001084196
 20
-4.4936664517
 10
-37.7060090975
 20
-4.4925401017
 10
-37.71189570900001
 20
-4.491384543299999
 10
-37.7177677159
 20
-4.490199663399999
 10
-37.7236245801
 20
-4.488985348799999
 10
-37.7294657634
 20
-4.4877414866
 10
-37.7352907278
 20
-4.486467963499999
 10
-37.741098935
 20
-4.485164666499999
 10
-37.746889847
 20
-4.4838314826
 10
-37.7526629255
 20
-4.482468298599999
 10
-37.7584176325
 20
-4.481075001399999
 10
-37.7641534297
 20
-4.479651478
 10
-37.7698697791
 20
-4.4781976152
 10
-37.7755661425
 20
-4.4767132999
 10
-37.7812419818
 20
-4.475198419199999
 10
-37.7868967587
 20
-4.4736528598
 10
-37.7925299353
 20
-4.472076508599999
 10
-37.7981409733
 20
-4.4704692527
 10
-37.8037293345
 20
-4.468830978899999
 10
-37.8092944809
 20
-4.467161573999999
 10
-37.8148358743
 20
-4.465460925099999
 10
-37.8203575527
 20
-4.463727463399999
 10
-37.8259071806
 20
-4.461944859599999
 10
-37.8314376354
 20
-4.460126804999999
 10
-37.8369475191
 20
-4.4582730758
 10
-37.84243543360001
 20
-4.456383447699999
 10
-37.8478999809
 20
-4.4544576968
 10
-37.8533397629
 20
-4.452495598899999
 10
-37.8587533818
 20
-4.450496929899999
 10
-37.8641394393
 20
-4.448461465899999
 10
-37.8694965376
 20
-4.4463889826
 10
-37.8748232785
 20
-4.444279256099999
 10
-37.8801182641
 20
-4.4421320622
 10
-37.88538009630001
 20
-4.439947176999999
 10
-37.8906073772
 20
-4.4377243762
 10
-37.89579870860001
 20
-4.4354634359
 10
-37.9009526925
 20
-4.433164131899999
 10
-37.906067931
 20
-4.4308262402
 10
-37.911143026
 20
-4.4284495367
 10
-37.9161765794
 20
-4.4260337973
 10
-37.9211671934
 20
-4.423578798
 10
-37.9261134697
 20
-4.421084314599999
 10
-37.9310140104
 20
-4.4185501232
 10
-37.9358674176
 20
-4.415975999599999
 10
-37.940672293
 20
-4.4133617197
 10
-37.9454272388
 20
-4.410707059499999
 10
-37.9501308569
 20
-4.4080117949
 10
-37.954781716
 20
-4.405275718899999
 10
-37.95938210300001
 20
-4.402495395599999
 10
-37.9639339571
 20
-4.399667561499999
 10
-37.9684344377
 20
-4.396792518899999
 10
-37.9728807046
 20
-4.393870570199999
 10
-37.9772699174
 20
-4.3909020179
 10
-37.9815992357
 20
-4.387887164499999
 10
-37.98586581929999
 20
-4.3848263124
 10
-37.9900668278
 20
-4.381719763999999
 10
-37.9941994207
 20
-4.378567821699999
 10
-37.9982607579
 20
-4.375370788099999
 10
-38.00224799889999
 20
-4.372128965499999
 10
-38.0061583034
 20
-4.3688426564
 10
-38.009988831
 20
-4.3655121632
 10
-38.01373674150001
 20
-4.3621377884
 10
-38.0173991944
 20
-4.358719834399999
 10
-38.0209733494
 20
-4.3552586036
 10
-38.0244563662
 20
-4.3517543985
 10
-38.0278454044
 20
-4.3482075216
 10
-38.03113762360001
 20
-4.3446182752
 10
-38.0343301836
 20
-4.340986961799999
 10
-38.0374276191
 20
-4.337303391699999
 10
-38.0404255536
 20
-4.3335677204
 10
-38.0433201438
 20
-4.329782699899999
 10
-38.04610807599999
 20
-4.3259504888
 10
-38.0487860362
 20
-4.3220732454
 10
-38.0513507104
 20
-4.318153128399999
 10
-38.0537987847
 20
-4.314192296299999
 10
-38.05612694510001
 20
-4.3101929076
 10
-38.0583318778
 20
-4.3061571209
 10
-38.0604102688
 20
-4.3020870947
 10
-38.0623588042
 20
-4.297984987599999
 10
-38.06417417
 20
-4.293852958
 10
-38.0658530522
 20
-4.2896931646
 10
-38.0673921371
 20
-4.2855077658
 10
-38.0687881105
 20
-4.281298920299999
 10
-38.0700454306
 20
-4.277042806799999
 10
-38.0711612878
 20
-4.2727434077
 10
-38.0721301544
 20
-4.2684184989
 10
-38.0729507612
 20
-4.264071870899999
 10
-38.07362183929999
 20
-4.259707313899999
 10
-38.0741421196
 20
-4.2553286185
 10
-38.0745103329
 20
-4.2509395749
 10
-38.07472521010001
 20
-4.2465439735
 10
-38.07478548360001
 20
-4.242150367799999
 10
-38.0746898897
 20
-4.2378049742
 10
-38.07443948679999
 20
-4.233450636199999
 10
-38.0740363955
 20
-4.229090753999999
 10
-38.0734827364
 20
-4.224728728
 10
-38.0727806303
 20
-4.220367958399999
 10
-38.0719321979
 20
-4.216011845599999
 10
-38.0709395597
 20
-4.21166379
 10
-38.0698048366
 20
-4.2073271917
 10
-38.0685301491
 20
-4.2030054512
 10
-38.0671176179
 20
-4.1987019687
 10
-38.0655693637
 20
-4.194420144499999
 10
-38.0638875073
 20
-4.190163378999999
 10
-38.0620741692
 20
-4.1859350725
 10
-38.0601314702
 20
-4.181738625299999
 10
-38.0580615308
 20
-4.1775774376
 10
-38.05586647190001
 20
-4.1734549099
 10
-38.0535390475
 20
-4.1693553958
 10
-38.0510847612
 20
-4.165280368
 10
-38.0485097628
 20
-4.161235836899999
 10
-38.0458174746
 20
-4.157223165
 10
-38.0430113186
 20
-4.1532437147
 10
-38.0400947172
 20
-4.149298848499999
 10
-38.0370710926
 20
-4.1453899289
 10
-38.0339438671
 20
-4.1415183183
 10
-38.0307164628
 20
-4.137685379299999
 10
-38.027392302
 20
-4.1338924742
 10
-38.0239748069
 20
-4.130140965499999
 10
-38.0204673999
 20
-4.126432215699999
 10
-38.016873503
 20
-4.1227675873
 10
-38.0131965385
 20
-4.1191484426
 10
-38.0094399287
 20
-4.1155761443
 10
-38.0056070958
 20
-4.1120520547
 10
-38.0017101267
 20
-4.108584624799999
 10
-37.9977438247
 20
-4.1051647623
 10
-37.9937028852
 20
-4.1017856638
 10
-37.9895893661
 20
-4.098447401799999
 10
-37.98540532550001
 20
-4.095150049199999
 10
-37.9811528213
 20
-4.091893678699999
 10
-37.9768339113
 20
-4.088678363099999
 10
-37.9724506536
 20
-4.085504174999999
 10
-37.968005106
 20
-4.0823711872
 10
-37.9634993265
 20
-4.079279472399999
 10
-37.9589353731
 20
-4.076229103399999
 10
-37.9543153036
 20
-4.073220153
 10
-37.9496411761
 20
-4.070252693699999
 10
-37.9449150484
 20
-4.067326798499999
 10
-37.9401389785
 20
-4.064442539899999
 10
-37.9353150243
 20
-4.061599990799999
 10
-37.9304452438
 20
-4.058799223899999
 10
-37.9255316948
 20
-4.0560403119
 10
-37.9205764354
 20
-4.0533233276
 10
-37.9155815235
 20
-4.050648343599999
 10
-37.9105490169
 20
-4.048015432799999
 10
-37.9054809738
 20
-4.045424667799999
 10
-37.9003794518
 20
-4.042876121399999
 10
-37.8952465091
 20
-4.040369866399999
 10
-37.8900842036
 20
-4.0379059754
 10
-37.8849072633
 20
-4.0354899245
 10
-37.8796969918
 20
-4.033111472299999
 10
-37.8744526571
 20
-4.0307697607
 10
-37.8691750645
 20
-4.0284646613
 10
-37.8638650193
 20
-4.026196045299999
 10
-37.8585233268
 20
-4.0239637842
 10
-37.8531507921
 20
-4.0217677494
 10
-37.84774822070001
 20
-4.019607812099999
 10
-37.8423164178
 20
-4.0174838438
 10
-37.8368561887
 20
-4.015395715899999
 10
-37.83136833869999
 20
-4.013343299799999
 10
-37.82585367300001
 20
-4.011326466799999
 10
-37.8203129969
 20
-4.009345088399999
 10
-37.8147471157
 20
-4.007399035799999
 10
-37.8091568347
 20
-4.0054881806
 10
-37.8035429592
 20
-4.003612394
 10
-37.7979062945
 20
-4.001771547499999
 10
-37.7922476458
 20
-3.9999655124
 10
-37.7865678184
 20
-3.998194160099999
 10
-37.7808676176
 20
-3.996457361999999
 10
-37.7751478487
 20
-3.9947549895
 10
-37.769409317
 20
-3.993086913999999
 10
-37.7636528277
 20
-3.9914530068
 10
-37.7578791861
 20
-3.9898531393
 10
-37.7520891976
 20
-3.988287183
 10
-37.7462836674
 20
-3.9867550091
 10
-37.7404634007
 20
-3.9852564891
 10
-37.7346292029
 20
-3.9837914944
 10
-37.7287818792
 20
-3.982359896299999
 10
-37.7229222349
 20
-3.980961566199999
 10
-37.7170510754
 20
-3.9795963755
 10
-37.7111692058
 20
-3.978264195599999
 10
-37.7052774315
 20
-3.9769648979
 10
-37.6993765578
 20
-3.975698353699999
 10
-37.6934673899
 20
-3.9744644344
 10
-37.6875507331
 20
-3.973263011499999
 10
-37.6816273927
 20
-3.9720939562
 10
-37.6756999057
 20
-3.9709574679
 10
-37.66977457
 20
-3.9698544612
 10
-37.66383696750001
 20
-3.968782055299999
 10
-37.6578875137
 20
-3.967740228799999
 10
-37.6519266242
 20
-3.966728960199999
 10
-37.6459547145
 20
-3.965748228
 10
-37.6399722002
 20
-3.9647980107
 10
-37.6339794968
 20
-3.963878286799999
 10
-37.62797702
 20
-3.962989034799999
 10
-37.6219651852
 20
-3.962130233199999
 10
-37.6159444081
 20
-3.9613018605
 10
-37.6099151041
 20
-3.9605038952
 10
-37.6038776889
 20
-3.959736315899999
 10
-37.597832578
 20
-3.958999101
 10
-37.591780187
 20
-3.958292228999999
 10
-37.5857209314
 20
-3.9576156785
 10
-37.5796552269
 20
-3.9569694279
 10
-37.5735834888
 20
-3.9563534558
 10
-37.5675061329
 20
-3.955767740599999
 10
-37.5614235747
 20
-3.955212260899999
 10
-37.5553362297
 20
-3.954686995199999
 10
-37.5492445135
 20
-3.9541919219
 10
-37.5431488416
 20
-3.953727019599999
 10
-37.5370496297
 20
-3.9532922668
 10
-37.5309472933
 20
-3.952887641899999
 10
-37.5248422479
 20
-3.9525131236
 10
-37.5187349091
 20
-3.952168690199999
 10
-37.5126256924
 20
-3.951854320299999
 10
-37.5065150135
 20
-3.951569992499999
 10
-37.50040328780001
 20
-3.951315685099999
 10
-37.494290931
 20
-3.951091376799999
 10
-37.48817835860001
 20
-3.950897046
 10
-37.4820659862
 20
-3.950732671199999
 10
-37.4759542293
 20
-3.950598230899999
 10
-37.4698435035
 20
-3.950493703699999
 10
-37.4637342243
 20
-3.950419068
 10
-37.4576268073
 20
-3.9503743023
 10
-37.4515216681
 20
-3.950359385199999
  0
LINE
  5
120
330
78D
100
AcDbEntity
  8
1
  6
Continuous
100
AcDbLine
 10
2.8343145751
 20
8.0
 30
0.0
 11
1.165685424899999
 21
8.0
 31
0.0
  0
ARC
  5
121
330
78D
100
AcDbEntity
  8
SK1
  6
Continuous
100
AcDbCircle
 10
-0.4
 20
6.25
 30
0.0
 40
0.4000000000000001
100
AcDbArc
 50
270.0
 51
0.0
  0
LINE
  5
122
330
78D
100
AcDbEntity
  8
SK1
  6
Continuous
100
AcDbLine
 10
-0.4
 20
5.849999999999999
 30
0.0
 11
-1.566987298099999
 21
5.849999999999999
 31
0.0
  0
LINE
  5
123
330
78D
100
AcDbEntity
  8
SK1
  6
Continuous
100
AcDbLine
 10
-1.566987298099999
 20
5.849999999999999
 30
0.0
 11
-2.126794919199999
 21
6.0
 31
0.0
  0
LINE
  5
124
330
78D
100
AcDbEntity
  8
SK3
100
AcDbLine
 10
3.588637933199999
 20
4.7625
 30
0.0
 11
-35.8051442841
 21
4.7625
 31
0.0
  0
LINE
  5
125
330
78D
100
AcDbEntity
  8
SK3
100
AcDbLine
 10
-36.0
 20
5.099999999999999
 30
0.0
 11
-39.5
 21
5.099999999999999
 31
0.0
  0
LINE
  5
126
330
78D
100
AcDbEntity
  8
SK3
100
AcDbLine
 10
-39.5
 20
-5.099999999999999
 30
0.0
 11
-36.0
 21
-5.099999999999999
 31
0.0
  0
LINE
  5
127
330
78D
100
AcDbEntity
  8
SK3
100
AcDbLine
 10
-40.0
 20
-5.3886751346
 30
0.0
 11
-39.5
 21
-5.099999999999999
 31
0.0
  0
LINE
  5
128
330
78D
100
AcDbEntity
  8
SK3
100
AcDbLine
 10
-39.5
 20
5.099999999999999
 30
0.0
 11
-40.0
 21
5.3886751346
 31
0.0
  0
LINE
  5
129
330
78D
100
AcDbEntity
  8
1
  6
Continuous
100
AcDbLine
 10
3.9828427125
 20
7.017157287499999
 30
0.0
 11
3.117157287499999
 21
7.882842712499999
 31
0.0
  0
LINE
  5
12A
330
78D
100
AcDbEntity
  8
1
  6
Continuous
100
AcDbLine
 10
0.8828427125000001
 20
7.882842712499999
 30
0.0
 11
0.1171572875
 21
7.1171572875
 31
0.0
  0
LINE
  5
12B
330
78D
100
AcDbEntity
  8
SK1
  6
Continuous
100
AcDbLine
 10
-39.4732050808
 20
6.0
 30
0.0
 11
-39.8
 21
5.811324865399999
 31
0.0
  0
LINE
  5
12C
330
78D
100
AcDbEntity
  8
SK1
  6
Continuous
100
AcDbLine
 10
-39.8
 20
-5.811324865399999
 30
0.0
 11
-39.4732050808
 21
-6.0
 31
0.0
  0
ARC
  5
12D
330
78D
100
AcDbEntity
  8
1
  6
Continuous
100
AcDbCircle
 10
3.7
 20
6.734314575099999
 30
0.0
 40
0.4
100
AcDbArc
 50
41.40962210929999
 51
45.0
  0
ARC
  5
12E
330
78D
100
AcDbEntity
  8
SK1
  6
Continuous
100
AcDbCircle
 10
-39.6
 20
-5.464914703899999
 30
0.0
 40
0.3999999999999976
100
AcDbArc
 50
180.0
 51
240.0
  0
ARC
  5
12F
330
78D
100
AcDbEntity
  8
SK1
  6
Continuous
100
AcDbCircle
 10
-39.6
 20
5.464914703899999
 30
0.0
 40
0.3999999999999988
100
AcDbArc
 50
120.0
 51
180.0
  0
LINE
  5
130
330
78D
100
AcDbEntity
  8
SK1
  6
Continuous
100
AcDbLine
 10
-39.4732050808
 20
-6.0
 30
0.0
 11
-2.126794919199999
 21
-6.0
 31
0.0
  0
LINE
  5
131
330
78D
100
AcDbEntity
  8
SK1
  6
Continuous
100
AcDbLine
 10
-2.126794919199999
 20
6.0
 30
0.0
 11
-39.4732050808
 21
6.0
 31
0.0
  0
LINE
  5
132
330
78D
100
AcDbEntity
  8
SK3
100
AcDbLine
 10
4.0
 20
5.0
 30
0.0
 11
3.588637933199999
 21
4.7625
 31
0.0
  0
ARC
  5
133
330
78D
100
AcDbEntity
  8
SK3
100
AcDbCircle
 10
-23.3275727942
 20
27.3557106463
 30
0.0
 40
27.49540035776514
100
AcDbArc
 50
237.8785420535
 51
240.4888650529
  0
LINE
  5
134
330
78D
100
AcDbEntity
  8
SK3
100
AcDbLine
 10
-35.8051442841
 20
4.7625
 30
0.0
 11
-36.0
 21
5.099999999999999
 31
0.0
  0
ARC
  5
135
330
78D
100
AcDbEntity
  8
1
  6
Continuous
100
AcDbCircle
 10
2.8343145751
 20
7.599999999999999
 30
0.0
 40
0.3999999999999996
100
AcDbArc
 50
45.0
 51
90.0
  0
ARC
  5
136
330
78D
100
AcDbEntity
  8
1
  6
Continuous
100
AcDbCircle
 10
1.165685424899999
 20
7.599999999999999
 30
0.0
 40
0.4
100
AcDbArc
 50
90.0
 51
135.0
  0
ARC
  5
137
330
78D
100
AcDbEntity
  8
1
  6
Continuous
100
AcDbCircle
 10
0.4
 20
6.834314575099999
 30
0.0
 40
0.4000000000000008
100
AcDbArc
 50
135.0
 51
180.0
  0
LINE
  5
138
330
78D
100
AcDbEntity
  8
SK3
100
AcDbLine
 10
-35.8051442841
 20
-4.7625
 30
0.0
 11
3.588637933199999
 21
-4.7625
 31
0.0
  0
LINE
  5
139
330
78D
100
AcDbEntity
  8
SK3
100
AcDbLine
 10
3.588637933199999
 20
-4.7625
 30
0.0
 11
4.0
 21
-5.0
 31
0.0
  0
ARC
  5
13A
330
78D
100
AcDbEntity
  8
1
  6
Continuous
100
AcDbCircle
 10
3.7
 20
-6.734314575099999
 30
0.0
 40
0.4000000000000006
100
AcDbArc
 50
315.0
 51
318.5903778907
  0
LINE
  5
13B
330
78D
100
AcDbEntity
  8
1
  6
Continuous
100
AcDbLine
 10
3.117157287499999
 20
-7.882842712499999
 30
0.0
 11
3.9828427125
 21
-7.017157287499999
 31
0.0
  0
LINE
  5
13C
330
78D
100
AcDbEntity
  8
1
  6
Continuous
100
AcDbLine
 10
1.165685424899999
 20
-8.0
 30
0.0
 11
2.8343145751
 21
-8.0
 31
0.0
  0
LINE
  5
13D
330
78D
100
AcDbEntity
  8
1
  6
Continuous
100
AcDbLine
 10
0.1171572875
 20
-7.1171572875
 30
0.0
 11
0.8828427125000001
 21
-7.882842712499999
 31
0.0
  0
ARC
  5
13E
330
78D
100
AcDbEntity
  8
SK1
  6
Continuous
100
AcDbCircle
 10
-0.4
 20
-6.25
 30
0.0
 40
0.4000000000000006
100
AcDbArc
 50
0.0
 51
90.0
  0
LINE
  5
13F
330
78D
100
AcDbEntity
  8
SK1
  6
Continuous
100
AcDbLine
 10
-1.566987298099999
 20
-5.849999999999999
 30
0.0
 11
-0.4
 21
-5.849999999999999
 31
0.0
  0
LINE
  5
140
330
78D
100
AcDbEntity
  8
SK1
  6
Continuous
100
AcDbLine
 10
-2.126794919199999
 20
-6.0
 30
0.0
 11
-1.566987298099999
 21
-5.849999999999999
 31
0.0
  0
ARC
  5
141
330
78D
100
AcDbEntity
  8
SK3
100
AcDbCircle
 10
-21.0469297876
 20
-31.0776028546
 30
0.0
 40
31.85973646130119
100
AcDbArc
 50
119.7853662003
 51
122.0294974105
  0
LINE
  5
142
330
78D
100
AcDbEntity
  8
SK3
100
AcDbLine
 10
-36.0
 20
-5.099999999999999
 30
0.0
 11
-35.8051442841
 21
-4.7625
 31
0.0
  0
ARC
  5
143
330
78D
100
AcDbEntity
  8
1
  6
Continuous
100
AcDbCircle
 10
2.8343145751
 20
-7.599999999999999
 30
0.0
 40
0.4
100
AcDbArc
 50
270.0
 51
315.0
  0
ARC
  5
144
330
78D
100
AcDbEntity
  8
1
  6
Continuous
100
AcDbCircle
 10
1.165685424899999
 20
-7.599999999999999
 30
0.0
 40
0.3999999999999997
100
AcDbArc
 50
225.0
 51
270.0
  0
ARC
  5
145
330
78D
100
AcDbEntity
  8
1
  6
Continuous
100
AcDbCircle
 10
0.4
 20
-6.834314575099999
 30
0.0
 40
0.4
100
AcDbArc
 50
180.0
 51
225.0
  0
LINE
  5
147
330
78D
100
AcDbEntity
  8
80
  6
Continuous
100
AcDbLine
 10
0.0
 20
0.0
 30
0.0
 11
-5.0
 21
0.0
 31
0.0
  0
POINT
  5
148
330
78D
100
AcDbEntity
  8
80
  6
Continuous
100
AcDbPoint
 10
0.0
 20
0.0
 30
0.0
  0
LINE
  5
14A
330
78D
100
AcDbEntity
  8
81
  6
Continuous
100
AcDbLine
 10
4.0
 20
0.0
 30
0.0
 11
9.0
 21
0.0
 31
0.0
  0
POINT
  5
14B
330
78D
100
AcDbEntity
  8
81
  6
Continuous
100
AcDbPoint
 10
4.0
 20
0.0
 30
0.0
  0
LINE
  5
14D
330
78D
100
AcDbEntity
  8
4
100
AcDbLine
 10
0.0
 20
0.0
 30
0.0
 11
4.0
 21
0.0
 31
0.0
  0
ENDSEC
  0
SECTION
  2
OBJECTS
  0
DICTIONARY
  5
729
330
0
100
AcDbDictionary
281
     1
  3
ACAD_CIP_PREVIOUS_PRODUCT_INFO
350
7B3
  3
ACAD_COLOR
350
77F
  3
ACAD_DETAILVIEWSTYLE
350
787
  3
ACAD_GROUP
350
72A
  3
ACAD_LAYOUT
350
77E
  3
ACAD_MATERIAL
350
72D
  3
ACAD_MLEADERSTYLE
350
782
  3
ACAD_MLINESTYLE
350
77B
  3
ACAD_PLOTSETTINGS
350
77D
  3
ACAD_PLOTSTYLENAME
350
72B
  3
ACAD_SCALELIST
350
75F
  3
ACAD_SECTIONVIEWSTYLE
350
784
  3
ACAD_TABLESTYLE
350
780
  3
ACAD_VISUALSTYLE
350
746
  3
ACDB_RECOMPOSE_DATA
350
7DD
  3
AcDbVariableDictionary
350
7D0
  3
ASE_INDEX_DICTIONARY
350
7CD
  3
DWGPROPS
350
7DE
  0
DICTIONARY
  5
7B6
330
771
100
AcDbDictionary
280
     1
281
     1
  3
ADSK_XREC_LAYER_RECONCILED
360
7B7
  0
DICTIONARY
  5
7B8
330
794
100
AcDbDictionary
280
     1
281
     1
  3
ADSK_XREC_LAYER_RECONCILED
360
7B9
  0
DICTIONARY
  5
7BA
330
795
100
AcDbDictionary
280
     1
281
     1
  3
ADSK_XREC_LAYER_RECONCILED
360
7BB
  0
DICTIONARY
  5
7BC
330
796
100
AcDbDictionary
280
     1
281
     1
  3
ADSK_XREC_LAYER_RECONCILED
360
7BD
  0
DICTIONARY
  5
7BE
330
797
100
AcDbDictionary
280
     1
281
     1
  3
ADSK_XREC_LAYER_RECONCILED
360
7BF
  0
DICTIONARY
  5
7C0
330
798
100
AcDbDictionary
280
     1
281
     1
  3
ADSK_XREC_LAYER_RECONCILED
360
7C1
  0
DICTIONARY
  5
7C2
330
799
100
AcDbDictionary
280
     1
281
     1
  3
ADSK_XREC_LAYER_RECONCILED
360
7C3
  0
DICTIONARY
  5
7C4
330
79A
100
AcDbDictionary
280
     1
281
     1
  3
ADSK_XREC_LAYER_RECONCILED
360
7C5
  0
DICTIONARY
  5
7C6
330
79B
100
AcDbDictionary
280
     1
281
     1
  3
ADSK_XREC_LAYER_RECONCILED
360
7C7
  0
DICTIONARY
  5
7C8
330
79C
100
AcDbDictionary
280
     1
281
     1
  3
ADSK_XREC_LAYER_RECONCILED
360
7C9
  0
DICTIONARY
  5
7CA
330
79D
100
AcDbDictionary
280
     1
281
     1
  3
ADSK_XREC_LAYER_RECONCILED
360
7CB
  0
XRECORD
  5
7B3
102
{ACAD_REACTORS
330
729
102
}
330
729
100
AcDbXrecord
280
     1
300
AMECH_PP
300
2013
300
PDSU_F_S
  0
DICTIONARY
  5
77F
102
{ACAD_REACTORS
330
729
102
}
330
729
100
AcDbDictionary
281
     1
  0
DICTIONARY
  5
787
102
{ACAD_REACTORS
330
729
102
}
330
729
100
AcDbDictionary
281
     1
  3
Imperial24
350
788
  0
DICTIONARY
  5
72A
102
{ACAD_REACTORS
330
729
102
}
330
729
100
AcDbDictionary
281
     1
  0
DICTIONARY
  5
77E
102
{ACAD_REACTORS
330
729
102
}
330
729
100
AcDbDictionary
281
     1
  3
Layout1
350
78C
  3
Model
350
790
  0
DICTIONARY
  5
72D
102
{ACAD_REACTORS
330
729
102
}
330
729
100
AcDbDictionary
281
     1
  3
ByBlock
350
736
  3
ByLayer
350
72E
  3
Global
350
73E
  0
DICTIONARY
  5
782
102
{ACAD_REACTORS
330
729
102
}
330
729
100
AcDbDictionary
281
     1
  3
Standard
350
783
  0
DICTIONARY
  5
77B
102
{ACAD_REACTORS
330
729
102
}
330
729
100
AcDbDictionary
281
     1
  3
Standard
350
77C
  0
DICTIONARY
  5
77D
102
{ACAD_REACTORS
330
729
102
}
330
729
100
AcDbDictionary
281
     1
  0
ACDBDICTIONARYWDFLT
  5
72B
102
{ACAD_REACTORS
330
729
102
}
330
729
100
AcDbDictionary
281
     1
  3
Normal
350
72C
100
AcDbDictionaryWithDefault
340
72C
  0
DICTIONARY
  5
75F
102
{ACAD_REACTORS
330
729
102
}
330
729
100
AcDbDictionary
281
     1
  3
A0
350
760
  3
A1
350
761
  3
A2
350
762
  3
A3
350
763
  3
A4
350
764
  3
A5
350
765
  3
A6
350
766
  3
A7
350
767
  3
A8
350
768
  3
A9
350
769
  3
B0
350
76A
  3
B1
350
76B
  3
B2
350
76C
  3
B3
350
76D
  3
B4
350
76E
  3
B5
350
76F
  3
B6
350
770
  0
DICTIONARY
  5
784
102
{ACAD_REACTORS
330
729
102
}
330
729
100
AcDbDictionary
281
     1
  3
Imperial24
350
786
  0
DICTIONARY
  5
780
102
{ACAD_REACTORS
330
729
102
}
330
729
100
AcDbDictionary
281
     1
  3
Standard
350
781
  0
DICTIONARY
  5
746
102
{ACAD_REACTORS
330
729
102
}
330
729
100
AcDbDictionary
281
     1
  3
2dWireframe
350
74C
  3
Basic
350
74B
  3
Brighten
350
752
  3
ColorChange
350
756
  3
Conceptual
350
74F
  3
Dim
350
751
  3
EdgeColorOff
350
75E
  3
Facepattern
350
755
  3
Flat
350
747
  3
FlatWithEdges
350
748
  3
Gouraud
350
749
  3
GouraudWithEdges
350
74A
  3
Hidden
350
74E
  3
JitterOff
350
75C
  3
Linepattern
350
754
  3
OverhangOff
350
75D
  3
Realistic
350
750
  3
Shaded
350
75B
  3
Shaded with edges
350
75A
  3
Shades of Gray
350
757
  3
Sketchy
350
758
  3
Thicken
350
753
  3
Wireframe
350
74D
  3
X-Ray
350
759
  0
XRECORD
  5
7DD
102
{ACAD_REACTORS
330
729
102
}
330
729
100
AcDbXrecord
280
     1
 90
        1
330
781
  0
DICTIONARY
  5
7D0
102
{ACAD_REACTORS
330
729
102
}
330
729
100
AcDbDictionary
281
     1
  3
CANNOSCALE
350
7D5
  3
CMLEADERSTYLE
350
7D2
  3
CTABLESTYLE
350
7D1
  3
CVIEWDETAILSTYLE
350
7D3
  3
CVIEWSECTIONSTYLE
350
7D4
  3
DIMASSOC
350
7D8
  3
INDEXCTL
350
7D7
  3
SORTENTS
350
7D6
  3
XCLIPFRAME
350
7D9
  0
DICTIONARY
  5
7CD
102
{ACAD_REACTORS
330
729
102
}
330
729
100
AcDbDictionary
281
     1
  3
ASEBlockHierarchyIndexRecord
350
7CF
1001
DCO15
1040
1815724992.841
  0
XRECORD
  5
7DE
102
{ACAD_REACTORS
330
729
102
}
330
729
100
AcDbXrecord
280
     1
  1
DWGPROPS COOKIE
  2

  3

  4

  6

  7

  8
Micke
  9

300
=
301
=
302
=
303
=
304
=
305
=
306
=
307
=
308
=
309
=
 40
0.000009224537037
 41
2455888.578854363
 42
2456818.547417141
  1

 90
        0
  0
XRECORD
  5
7B7
102
{ACAD_REACTORS
330
7B6
102
}
330
7B6
100
AcDbXrecord
280
     1
290
     1
  0
XRECORD
  5
7B9
102
{ACAD_REACTORS
330
7B8
102
}
330
7B8
100
AcDbXrecord
280
     1
290
     1
  0
XRECORD
  5
7BB
102
{ACAD_REACTORS
330
7BA
102
}
330
7BA
100
AcDbXrecord
280
     1
290
     1
  0
XRECORD
  5
7BD
102
{ACAD_REACTORS
330
7BC
102
}
330
7BC
100
AcDbXrecord
280
     1
290
     1
  0
XRECORD
  5
7BF
102
{ACAD_REACTORS
330
7BE
102
}
330
7BE
100
AcDbXrecord
280
     1
290
     1
  0
XRECORD
  5
7C1
102
{ACAD_REACTORS
330
7C0
102
}
330
7C0
100
AcDbXrecord
280
     1
290
     1
  0
XRECORD
  5
7C3
102
{ACAD_REACTORS
330
7C2
102
}
330
7C2
100
AcDbXrecord
280
     1
290
     1
  0
XRECORD
  5
7C5
102
{ACAD_REACTORS
330
7C4
102
}
330
7C4
100
AcDbXrecord
280
     1
290
     1
  0
XRECORD
  5
7C7
102
{ACAD_REACTORS
330
7C6
102
}
330
7C6
100
AcDbXrecord
280
     1
290
     1
  0
XRECORD
  5
7C9
102
{ACAD_REACTORS
330
7C8
102
}
330
7C8
100
AcDbXrecord
280
     1
290
     1
  0
XRECORD
  5
7CB
102
{ACAD_REACTORS
330
7CA
102
}
330
7CA
100
AcDbXrecord
280
     1
290
     1
  0
ACDBDETAILVIEWSTYLE
  5
788
102
{ACAD_REACTORS
330
787
102
}
330
787
100
AcDbModelDocViewStyle
 70
     0
  3
Imperial24
290
     0
100
AcDbDetailViewStyle
 70
     0
 71
     0
 90
        3
 71
     1
340
772
 40
0.24
340
0
 40
0.24
300

 40
0.36
280
     3
 71
     2
340
779
 90
       25
 71
     3
340
772
 40
0.24
 90
        1
 40
0.75
 90
        1
300
%<\AcVar ViewType \f "%tc1">% %<\AcVar ViewDetailId>%\PSCALE %<\AcVar ViewScale \f "%sn">%
 71
     4
340
779
 90
       25
340
779
 90
       25
280
     0
  0
LAYOUT
  5
78C
102
{ACAD_XDICTIONARY
360
814
102
}
102
{ACAD_REACTORS
330
77E
102
}
330
77E
100
AcDbPlotSettings
  1

  2
Brother DCP-9020CDW Printer
  4

  6

 40
0.0
 41
0.0
 42
0.0
 43
0.0
 44
0.0
 45
0.0
 46
0.0
 47
0.0
 48
0.0
 49
0.0
140
0.0
141
0.0
142
1.0
143
1.0
 70
   688
 72
     0
 73
     0
 74
     5
  7

 75
    16
147
1.0
148
0.0
149
0.0
100
AcDbLayout
  1
Layout1
 70
     1
 71
     1
 10
0.0
 20
0.0
 11
210.0
 21
297.0
 12
0.0
 22
0.0
 32
0.0
 14
0.0
 24
0.0
 34
0.0
 15
210.0
 25
297.0
 35
0.0
146
0.0
 13
0.0
 23
0.0
 33
0.0
 16
1.0
 26
0.0
 36
0.0
 17
0.0
 27
1.0
 37
0.0
 76
     0
330
789
  0
LAYOUT
  5
790
102
{ACAD_XDICTIONARY
360
816
102
}
102
{ACAD_REACTORS
330
77E
102
}
330
77E
100
AcDbPlotSettings
  1

  2
Brother DCP-9020CDW Printer
  4

  6

 40
0.0
 41
0.0
 42
0.0
 43
0.0
 44
0.0
 45
0.0
 46
0.0
 47
0.0
 48
0.0
 49
0.0
140
0.0
141
0.0
142
1.0
143
1.0
 70
  1712
 72
     0
 73
     0
 74
     0
  7

 75
     0
147
1.0
148
0.0
149
0.0
100
AcDbLayout
  1
Model
 70
     1
 71
     0
 10
0.0
 20
0.0
 11
12.0
 21
9.0
 12
0.0
 22
0.0
 32
0.0
 14
0.0
 24
0.0
 34
0.0
 15
0.0
 25
0.0
 35
0.0
146
0.0
 13
0.0
 23
0.0
 33
0.0
 16
1.0
 26
0.0
 36
0.0
 17
0.0
 27
1.0
 37
0.0
 76
     0
330
78D
331
791
  0
MATERIAL
  5
736
102
{ACAD_XDICTIONARY
360
737
102
}
102
{ACAD_REACTORS
330
72D
102
}
330
72D
100
AcDbMaterial
  1
ByBlock
 72
     0
 43
0.0208333333333333
 43
0.0
 43
0.0
 43
0.0
 43
0.0
 43
0.0208333333333333
 43
0.0
 43
0.0
 43
0.0
 43
0.0
 43
1.0
 43
0.0
 43
0.0
 43
0.0
 43
0.0
 43
1.0
 77
     0
 47
0.0208333333333333
 47
0.0
 47
0.0
 47
0.0
 47
0.0
 47
0.0208333333333333
 47
0.0
 47
0.0
 47
0.0
 47
0.0
 47
1.0
 47
0.0
 47
0.0
 47
0.0
 47
0.0
 47
1.0
171
     0
 49
0.0208333333333333
 49
0.0
 49
0.0
 49
0.0
 49
0.0
 49
0.0208333333333333
 49
0.0
 49
0.0
 49
0.0
 49
0.0
 49
1.0
 49
0.0
 49
0.0
 49
0.0
 49
0.0
 49
1.0
175
     0
142
0.0208333333333333
142
0.0
142
0.0
142
0.0
142
0.0
142
0.0208333333333333
142
0.0
142
0.0
142
0.0
142
0.0
142
1.0
142
0.0
142
0.0
142
0.0
142
0.0
142
1.0
179
     0
144
0.0208333333333333
144
0.0
144
0.0
144
0.0
144
0.0
144
0.0208333333333333
144
0.0
144
0.0
144
0.0
144
0.0
144
1.0
144
0.0
144
0.0
144
0.0
144
0.0
144
1.0
147
0.0208333333333333
147
0.0
147
0.0
147
0.0
147
0.0
147
0.0208333333333333
147
0.0
147
0.0
147
0.0
147
0.0
147
1.0
147
0.0
147
0.0
147
0.0
147
0.0
147
1.0
  0
MATERIAL
  5
72E
102
{ACAD_XDICTIONARY
360
72F
102
}
102
{ACAD_REACTORS
330
72D
102
}
330
72D
100
AcDbMaterial
  1
ByLayer
 72
     0
 43
0.0208333333333333
 43
0.0
 43
0.0
 43
0.0
 43
0.0
 43
0.0208333333333333
 43
0.0
 43
0.0
 43
0.0
 43
0.0
 43
1.0
 43
0.0
 43
0.0
 43
0.0
 43
0.0
 43
1.0
 77
     0
 47
0.0208333333333333
 47
0.0
 47
0.0
 47
0.0
 47
0.0
 47
0.0208333333333333
 47
0.0
 47
0.0
 47
0.0
 47
0.0
 47
1.0
 47
0.0
 47
0.0
 47
0.0
 47
0.0
 47
1.0
171
     0
 49
0.0208333333333333
 49
0.0
 49
0.0
 49
0.0
 49
0.0
 49
0.0208333333333333
 49
0.0
 49
0.0
 49
0.0
 49
0.0
 49
1.0
 49
0.0
 49
0.0
 49
0.0
 49
0.0
 49
1.0
175
     0
142
0.0208333333333333
142
0.0
142
0.0
142
0.0
142
0.0
142
0.0208333333333333
142
0.0
142
0.0
142
0.0
142
0.0
142
1.0
142
0.0
142
0.0
142
0.0
142
0.0
142
1.0
179
     0
144
0.0208333333333333
144
0.0
144
0.0
144
0.0
144
0.0
144
0.0208333333333333
144
0.0
144
0.0
144
0.0
144
0.0
144
1.0
144
0.0
144
0.0
144
0.0
144
0.0
144
1.0
147
0.0208333333333333
147
0.0
147
0.0
147
0.0
147
0.0
147
0.0208333333333333
147
0.0
147
0.0
147
0.0
147
0.0
147
1.0
147
0.0
147
0.0
147
0.0
147
0.0
147
1.0
  0
MATERIAL
  5
73E
102
{ACAD_XDICTIONARY
360
73F
102
}
102
{ACAD_REACTORS
330
72D
102
}
330
72D
100
AcDbMaterial
  1
Global
 72
     0
 43
0.0208333333333333
 43
0.0
 43
0.0
 43
0.0
 43
0.0
 43
0.0208333333333333
 43
0.0
 43
0.0
 43
0.0
 43
0.0
 43
1.0
 43
0.0
 43
0.0
 43
0.0
 43
0.0
 43
1.0
 77
     0
 47
0.0208333333333333
 47
0.0
 47
0.0
 47
0.0
 47
0.0
 47
0.0208333333333333
 47
0.0
 47
0.0
 47
0.0
 47
0.0
 47
1.0
 47
0.0
 47
0.0
 47
0.0
 47
0.0
 47
1.0
171
     0
 49
0.0208333333333333
 49
0.0
 49
0.0
 49
0.0
 49
0.0
 49
0.0208333333333333
 49
0.0
 49
0.0
 49
0.0
 49
0.0
 49
1.0
 49
0.0
 49
0.0
 49
0.0
 49
0.0
 49
1.0
175
     0
142
0.0208333333333333
142
0.0
142
0.0
142
0.0
142
0.0
142
0.0208333333333333
142
0.0
142
0.0
142
0.0
142
0.0
142
1.0
142
0.0
142
0.0
142
0.0
142
0.0
142
1.0
179
     0
144
0.0208333333333333
144
0.0
144
0.0
144
0.0
144
0.0
144
0.0208333333333333
144
0.0
144
0.0
144
0.0
144
0.0
144
1.0
144
0.0
144
0.0
144
0.0
144
0.0
144
1.0
147
0.0208333333333333
147
0.0
147
0.0
147
0.0
147
0.0
147
0.0208333333333333
147
0.0
147
0.0
147
0.0
147
0.0
147
1.0
147
0.0
147
0.0
147
0.0
147
0.0
147
1.0
  0
MLEADERSTYLE
  5
783
102
{ACAD_REACTORS
330
782
102
}
330
782
100
AcDbMLeaderStyle
170
     2
171
     1
172
     0
 90
        2
 40
0.0
 41
0.0
173
     1
 91
-1056964608
340
777
 92
       -2
290
     1
 42
0.09
291
     1
 43
0.36
  3
Standard
 44
0.18
300

342
772
174
     1
178
     6
175
     1
176
     0
 93
-1056964608
 45
0.18
292
     0
297
     0
 46
0.18
 94
-1056964608
 47
1.0
 49
1.0
140
1.0
293
     1
141
0.0
294
     1
177
     0
142
1.0
295
     0
296
     0
143
0.125
1001
ACAD_MLEADERVER
1070
     2
  0
MLINESTYLE
  5
77C
102
{ACAD_REACTORS
330
77B
102
}
330
77B
100
AcDbMlineStyle
  2
STANDARD
 70
     0
  3

 62
   256
 51
90.0
 52
90.0
 71
     2
 49
0.5
 62
   256
  6
BYLAYER
 49
-0.5
 62
   256
  6
BYLAYER
  0
ACDBPLACEHOLDER
  5
72C
102
{ACAD_REACTORS
330
72B
102
}
330
72B
  0
SCALE
  5
760
102
{ACAD_REACTORS
330
75F
102
}
330
75F
100
AcDbScale
 70
     0
300
1:1
140
1.0
141
1.0
290
     1
  0
SCALE
  5
761
102
{ACAD_REACTORS
330
75F
102
}
330
75F
100
AcDbScale
 70
     0
300
1/128" = 1'-0"
140
0.0078125
141
12.0
290
     0
  0
SCALE
  5
762
102
{ACAD_REACTORS
330
75F
102
}
330
75F
100
AcDbScale
 70
     0
300
1/64" = 1'-0"
140
0.015625
141
12.0
290
     0
  0
SCALE
  5
763
102
{ACAD_REACTORS
330
75F
102
}
330
75F
100
AcDbScale
 70
     0
300
1/32" = 1'-0"
140
0.03125
141
12.0
290
     0
  0
SCALE
  5
764
102
{ACAD_REACTORS
330
75F
102
}
330
75F
100
AcDbScale
 70
     0
300
1/16" = 1'-0"
140
0.0625
141
12.0
290
     0
  0
SCALE
  5
765
102
{ACAD_REACTORS
330
75F
102
}
330
75F
100
AcDbScale
 70
     0
300
3/32" = 1'-0"
140
0.09375
141
12.0
290
     0
  0
SCALE
  5
766
102
{ACAD_REACTORS
330
75F
102
}
330
75F
100
AcDbScale
 70
     0
300
1/8" = 1'-0"
140
0.125
141
12.0
290
     0
  0
SCALE
  5
767
102
{ACAD_REACTORS
330
75F
102
}
330
75F
100
AcDbScale
 70
     0
300
3/16" = 1'-0"
140
0.1875
141
12.0
290
     0
  0
SCALE
  5
768
102
{ACAD_REACTORS
330
75F
102
}
330
75F
100
AcDbScale
 70
     0
300
1/4" = 1'-0"
140
0.25
141
12.0
290
     0
  0
SCALE
  5
769
102
{ACAD_REACTORS
330
75F
102
}
330
75F
100
AcDbScale
 70
     0
300
3/8" = 1'-0"
140
0.375
141
12.0
290
     0
  0
SCALE
  5
76A
102
{ACAD_REACTORS
330
75F
102
}
330
75F
100
AcDbScale
 70
     0
300
1/2" = 1'-0"
140
0.5
141
12.0
290
     0
  0
SCALE
  5
76B
102
{ACAD_REACTORS
330
75F
102
}
330
75F
100
AcDbScale
 70
     0
300
3/4" = 1'-0"
140
0.75
141
12.0
290
     0
  0
SCALE
  5
76C
102
{ACAD_REACTORS
330
75F
102
}
330
75F
100
AcDbScale
 70
     0
300
1" = 1'-0"
140
1.0
141
12.0
290
     0
  0
SCALE
  5
76D
102
{ACAD_REACTORS
330
75F
102
}
330
75F
100
AcDbScale
 70
     0
300
1-1/2" = 1'-0"
140
1.5
141
12.0
290
     0
  0
SCALE
  5
76E
102
{ACAD_REACTORS
330
75F
102
}
330
75F
100
AcDbScale
 70
     0
300
3" = 1'-0"
140
3.0
141
12.0
290
     0
  0
SCALE
  5
76F
102
{ACAD_REACTORS
330
75F
102
}
330
75F
100
AcDbScale
 70
     0
300
6" = 1'-0"
140
6.0
141
12.0
290
     0
  0
SCALE
  5
770
102
{ACAD_REACTORS
330
75F
102
}
330
75F
100
AcDbScale
 70
     0
300
1'-0" = 1'-0"
140
12.0
141
12.0
290
     0
  0
ACDBSECTIONVIEWSTYLE
  5
786
102
{ACAD_REACTORS
330
784
102
}
330
784
100
AcDbModelDocViewStyle
 70
     0
  3
Imperial24
290
     0
100
AcDbSectionViewStyle
 70
     0
 71
     0
 90
       78
 71
     1
340
772
 40
0.24
340
0
340
0
 40
0.24
300
I, O, Q, S, X, Z
 40
0.48
 90
        3
 40
0.18
 90
        1
 71
     2
340
785
 90
       25
340
779
 90
       50
 40
0.24
 40
0.0
 40
0.24
 71
     3
340
772
 40
0.24
 90
        1
 40
0.75
 90
        1
300
%<\AcVar ViewType \f "%tc1">% %<\AcVar ViewSectionStartId>%-%<\AcVar ViewSectionEndId>%\PSCALE %<\AcVar ViewScale \f "%sn">%
 71
     4
300
ANSI31
 40
1.0
 90
        0
290
     0
290
     0
 90
        6
 40
0.0
 40
1.570796326794896
 40
0.2617993877991494
 40
1.308996938995747
 40
-0.2617993877991494
 40
1.832595714594046
  0
TABLESTYLE
  5
781
102
{ACAD_XDICTIONARY
360
7DB
102
}
102
{ACAD_REACTORS
330
780
102
}
330
780
100
AcDbTableStyle
  3
Standard
 70
     0
 71
     0
 40
0.06
 41
0.06
280
     0
281
     0
  7
STANDARD
140
0.18
170
     2
 62
     0
 63
     7
283
     0
274
    -2
284
     1
 64
     0
275
    -2
285
     1
 65
     0
276
    -2
286
     1
 66
     0
277
    -2
287
     1
 67
     0
278
    -2
288
     1
 68
     0
279
    -2
289
     1
 69
     0
  7
STANDARD
140
0.25
170
     5
 62
     0
 63
     7
283
     0
274
    -2
284
     1
 64
     0
275
    -2
285
     1
 65
     0
276
    -2
286
     1
 66
     0
277
    -2
287
     1
 67
     0
278
    -2
288
     1
 68
     0
279
    -2
289
     1
 69
     0
  7
STANDARD
140
0.18
170
     5
 62
     0
 63
     7
283
     0
274
    -2
284
     1
 64
     0
275
    -2
285
     1
 65
     0
276
    -2
286
     1
 66
     0
277
    -2
287
     1
 67
     0
278
    -2
288
     1
 68
     0
279
    -2
289
     1
 69
     0
  0
VISUALSTYLE
  5
74C
102
{ACAD_XDICTIONARY
360
7EC
102
}
102
{ACAD_REACTORS
330
746
102
}
330
746
100
AcDbVisualStyle
  2
2dWireframe
 70
     4
 71
     0
 72
     2
 73
     0
 90
        0
 40
-0.6
 41
-30.0
 62
     5
 63
     7
 74
     1
 91
        4
 64
     7
 65
   257
 75
     1
175
     1
 42
1.0
 92
        0
 66
   257
 43
1.0
 76
     1
 77
     6
 78
     2
 67
     7
 79
     5
170
     0
171
     0
290
     0
174
     0
 93
        1
 44
0.0
173
     0
291
     0
 45
0.0
1001
ACAD
1000
AcDbSavedByObjectVersion
1070
     0
  0
VISUALSTYLE
  5
74B
102
{ACAD_XDICTIONARY
360
7EA
102
}
102
{ACAD_REACTORS
330
746
102
}
330
746
100
AcDbVisualStyle
  2
Basic
 70
     7
 71
     1
 72
     0
 73
     1
 90
        0
 40
-0.6
 41
-30.0
 62
     5
 63
     7
 74
     0
 91
        4
 64
     7
 65
   257
 75
     1
175
     1
 42
1.0
 92
        8
 66
     7
 43
1.0
 76
     1
 77
     6
 78
     2
 67
     7
 79
     5
170
     0
171
     0
290
     0
174
     0
 93
        1
 44
0.0
173
     0
291
     1
 45
0.0
1001
ACAD
1000
AcDbSavedByObjectVersion
1070
     0
  0
VISUALSTYLE
  5
752
102
{ACAD_XDICTIONARY
360
7F8
102
}
102
{ACAD_REACTORS
330
746
102
}
330
746
100
AcDbVisualStyle
  2
Brighten
 70
    12
 71
     2
 72
     2
 73
     0
 90
        0
 40
-0.6
 41
-30.0
 62
     5
 63
     7
 74
     1
 91
        4
 64
     7
 65
   257
 75
     1
175
     1
 42
1.0
 92
        8
 66
     7
 43
1.0
 76
     1
 77
     6
 78
     2
 67
     7
 79
     5
170
     0
171
     0
290
     0
174
     0
 93
        1
 44
50.0
173
     0
291
     1
 45
0.0
1001
ACAD
1000
AcDbSavedByObjectVersion
1070
     0
  0
VISUALSTYLE
  5
756
102
{ACAD_XDICTIONARY
360
800
102
}
102
{ACAD_REACTORS
330
746
102
}
330
746
100
AcDbVisualStyle
  2
ColorChange
 70
    16
 71
     2
 72
     2
 73
     3
 90
        0
 40
-0.6
 41
-30.0
 62
     5
 63
     8
 74
     1
 91
        4
 64
     7
 65
   257
 75
     1
175
     1
 42
1.0
 92
        8
 66
     8
 43
1.0
 76
     1
 77
     6
 78
     2
 67
     7
 79
     5
170
     0
171
     0
290
     0
174
     0
 93
        1
 44
0.0
173
     0
291
     1
 45
0.0
1001
ACAD
1000
AcDbSavedByObjectVersion
1070
     0
  0
VISUALSTYLE
  5
74F
102
{ACAD_XDICTIONARY
360
7F2
102
}
102
{ACAD_REACTORS
330
746
102
}
330
746
100
AcDbVisualStyle
  2
Conceptual
 70
     9
 71
     3
 72
     2
 73
     0
 90
        0
 40
-0.6
 41
-30.0
 62
     5
 63
     7
 74
     2
 91
        2
 64
     7
 65
   257
 75
     1
175
     1
 42
179.0
 92
        8
 66
     7
 43
1.0
 76
     1
 77
     6
 78
     2
 67
     7
 79
     3
170
     0
171
     0
290
     0
174
     0
 93
        1
 44
0.0
173
     0
291
     0
 45
0.0
1001
ACAD
1000
AcDbSavedByObjectVersion
1070
     0
  0
VISUALSTYLE
  5
751
102
{ACAD_XDICTIONARY
360
7F6
102
}
102
{ACAD_REACTORS
330
746
102
}
330
746
100
AcDbVisualStyle
  2
Dim
 70
    11
 71
     2
 72
     2
 73
     0
 90
        0
 40
-0.6
 41
-30.0
 62
     5
 63
     7
 74
     1
 91
        4
 64
     7
 65
   257
 75
     1
175
     1
 42
1.0
 92
        8
 66
     7
 43
1.0
 76
     1
 77
     6
 78
     2
 67
     7
 79
     5
170
     0
171
     0
290
     0
174
     0
 93
        1
 44
-50.0
173
     0
291
     1
 45
0.0
1001
ACAD
1000
AcDbSavedByObjectVersion
1070
     0
  0
VISUALSTYLE
  5
75E
102
{ACAD_XDICTIONARY
360
810
102
}
102
{ACAD_REACTORS
330
746
102
}
330
746
100
AcDbVisualStyle
  2
EdgeColorOff
 70
    22
 71
     2
 72
     2
 73
     0
 90
        0
 40
-0.6
 41
-30.0
 62
     5
 63
     7
 74
     1
 91
        4
 64
     7
 65
   257
 75
     1
175
     1
 42
1.0
 92
        8
 66
     7
 43
1.0
 76
     1
 77
     6
 78
     2
 67
     7
 79
     5
170
     0
171
     0
290
     0
174
     0
 93
        1
 44
0.0
173
     0
291
     1
 45
0.0
1001
ACAD
1000
AcDbSavedByObjectVersion
1070
     0
  0
VISUALSTYLE
  5
755
102
{ACAD_XDICTIONARY
360
7FE
102
}
102
{ACAD_REACTORS
330
746
102
}
330
746
100
AcDbVisualStyle
  2
Facepattern
 70
    15
 71
     2
 72
     2
 73
     0
 90
        0
 40
-0.6
 41
-30.0
 62
     5
 63
     7
 74
     1
 91
        4
 64
     7
 65
   257
 75
     1
175
     1
 42
1.0
 92
        8
 66
     7
 43
1.0
 76
     1
 77
     6
 78
     2
 67
     7
 79
     5
170
     0
171
     0
290
     0
174
     0
 93
        1
 44
0.0
173
     0
291
     1
 45
0.0
1001
ACAD
1000
AcDbSavedByObjectVersion
1070
     0
  0
VISUALSTYLE
  5
747
102
{ACAD_XDICTIONARY
360
7E2
102
}
102
{ACAD_REACTORS
330
746
102
}
330
746
100
AcDbVisualStyle
  2
Flat
 70
     0
 71
     2
 72
     1
 73
     1
 90
        2
 40
-0.6
 41
30.0
 62
     5
 63
     7
 74
     0
 91
        0
 64
     7
 65
   257
 75
     1
175
     1
 42
1.0
 92
        8
 66
     7
 43
1.0
 76
     1
 77
     6
 78
     2
 67
     7
 79
     5
170
     0
171
     0
290
     0
174
     0
 93
       13
 44
0.0
173
     0
291
     1
 45
0.0
1001
ACAD
1000
AcDbSavedByObjectVersion
1070
     0
  0
VISUALSTYLE
  5
748
102
{ACAD_XDICTIONARY
360
7E4
102
}
102
{ACAD_REACTORS
330
746
102
}
330
746
100
AcDbVisualStyle
  2
FlatWithEdges
 70
     1
 71
     2
 72
     1
 73
     1
 90
        2
 40
-0.6
 41
30.0
 62
     5
 63
     7
 74
     1
 91
        0
 64
     7
 65
   257
 75
     1
175
     1
 42
1.0
 92
        0
 66
   257
 43
1.0
 76
     1
 77
     6
 78
     2
 67
     7
 79
     5
170
     0
171
     0
290
     0
174
     0
 93
       13
 44
0.0
173
     0
291
     1
 45
0.0
1001
ACAD
1000
AcDbSavedByObjectVersion
1070
     0
  0
VISUALSTYLE
  5
749
102
{ACAD_XDICTIONARY
360
7E6
102
}
102
{ACAD_REACTORS
330
746
102
}
330
746
100
AcDbVisualStyle
  2
Gouraud
 70
     2
 71
     2
 72
     2
 73
     1
 90
        2
 40
-0.6
 41
30.0
 62
     5
 63
     7
 74
     0
 91
        0
 64
     7
 65
   257
 75
     1
175
     1
 42
1.0
 92
        0
 66
     7
 43
1.0
 76
     1
 77
     6
 78
     2
 67
     7
 79
     5
170
     0
171
     0
290
     0
174
     0
 93
       13
 44
0.0
173
     0
291
     1
 45
0.0
1001
ACAD
1000
AcDbSavedByObjectVersion
1070
     0
  0
VISUALSTYLE
  5
74A
102
{ACAD_XDICTIONARY
360
7E8
102
}
102
{ACAD_REACTORS
330
746
102
}
330
746
100
AcDbVisualStyle
  2
GouraudWithEdges
 70
     3
 71
     2
 72
     2
 73
     1
 90
        2
 40
-0.6
 41
30.0
 62
     5
 63
     7
 74
     1
 91
        0
 64
     7
 65
   257
 75
     1
175
     1
 42
1.0
 92
        0
 66
   257
 43
1.0
 76
     1
 77
     6
 78
     2
 67
     7
 79
     5
170
     0
171
     0
290
     0
174
     0
 93
       13
 44
0.0
173
     0
291
     1
 45
0.0
1001
ACAD
1000
AcDbSavedByObjectVersion
1070
     0
  0
VISUALSTYLE
  5
74E
102
{ACAD_XDICTIONARY
360
7F0
102
}
102
{ACAD_REACTORS
330
746
102
}
330
746
100
AcDbVisualStyle
  2
Hidden
 70
     6
 71
     1
 72
     2
 73
     2
 90
        0
 40
-0.6
 41
-30.0
 62
     5
 63
     7
 74
     2
 91
        2
 64
     7
 65
   257
 75
     2
175
     1
 42
40.0
 92
        0
 66
   257
 43
1.0
 76
     1
 77
     6
 78
     2
 67
     7
 79
     3
170
     0
171
     0
290
     0
174
     0
 93
        1
 44
0.0
173
     0
291
     0
 45
0.0
1001
ACAD
1000
AcDbSavedByObjectVersion
1070
     0
  0
VISUALSTYLE
  5
75C
102
{ACAD_XDICTIONARY
360
80C
102
}
102
{ACAD_REACTORS
330
746
102
}
330
746
100
AcDbVisualStyle
  2
JitterOff
 70
    20
 71
     2
 72
     2
 73
     0
 90
        0
 40
-0.6
 41
-30.0
 62
     5
 63
     7
 74
     1
 91
        4
 64
     7
 65
   257
 75
     1
175
     1
 42
1.0
 92
       10
 66
     7
 43
1.0
 76
     1
 77
     6
 78
     2
 67
     7
 79
     5
170
     0
171
     0
290
     0
174
     0
 93
        1
 44
0.0
173
     0
291
     1
 45
0.0
1001
ACAD
1000
AcDbSavedByObjectVersion
1070
     0
  0
VISUALSTYLE
  5
754
102
{ACAD_XDICTIONARY
360
7FC
102
}
102
{ACAD_REACTORS
330
746
102
}
330
746
100
AcDbVisualStyle
  2
Linepattern
 70
    14
 71
     2
 72
     2
 73
     0
 90
        0
 40
-0.6
 41
-30.0
 62
     5
 63
     7
 74
     1
 91
        4
 64
     7
 65
   257
 75
     7
175
     7
 42
1.0
 92
        8
 66
     7
 43
1.0
 76
     1
 77
     6
 78
     2
 67
     7
 79
     5
170
     0
171
     0
290
     0
174
     0
 93
        1
 44
0.0
173
     0
291
     1
 45
0.0
1001
ACAD
1000
AcDbSavedByObjectVersion
1070
     0
  0
VISUALSTYLE
  5
75D
102
{ACAD_XDICTIONARY
360
80E
102
}
102
{ACAD_REACTORS
330
746
102
}
330
746
100
AcDbVisualStyle
  2
OverhangOff
 70
    21
 71
     2
 72
     2
 73
     0
 90
        0
 40
-0.6
 41
-30.0
 62
     5
 63
     7
 74
     1
 91
        4
 64
     7
 65
   257
 75
     1
175
     1
 42
1.0
 92
        9
 66
     7
 43
1.0
 76
     1
 77
     6
 78
     2
 67
     7
 79
     5
170
     0
171
     0
290
     0
174
     0
 93
        1
 44
0.0
173
     0
291
     1
 45
0.0
1001
ACAD
1000
AcDbSavedByObjectVersion
1070
     0
  0
VISUALSTYLE
  5
750
102
{ACAD_XDICTIONARY
360
7F4
102
}
102
{ACAD_REACTORS
330
746
102
}
330
746
100
AcDbVisualStyle
  2
Realistic
 70
     8
 71
     2
 72
     3
 73
     0
 90
        2
 40
-0.6
 41
30.0
 62
     5
 63
     7
 74
     0
 91
        0
 64
     7
 65
   257
 75
     1
175
     1
 42
1.0
 92
        8
 66
   257
 43
1.0
 76
     1
 77
     6
 78
     2
 67
     7
 79
     3
170
     0
171
     0
290
     0
174
     0
 93
       13
 44
0.0
173
     0
291
     0
 45
0.0
1001
ACAD
1000
AcDbSavedByObjectVersion
1070
     0
  0
VISUALSTYLE
  5
75B
102
{ACAD_XDICTIONARY
360
80A
102
}
102
{ACAD_REACTORS
330
746
102
}
330
746
100
AcDbVisualStyle
  2
Shaded
 70
    27
 71
     2
 72
     2
 73
     1
 90
        2
 40
-0.6
 41
30.0
 62
     5
 63
     7
 74
     0
 91
        4
 64
     7
 65
   257
 75
     1
175
     1
 42
1.0
 92
        8
 66
   257
 43
1.0
 76
     1
 77
     6
 78
     2
 67
     8
 79
     3
170
     0
171
     0
290
     0
174
     0
 93
        5
 44
0.0
173
     0
291
     0
 45
0.0
1001
ACAD
1000
AcDbSavedByObjectVersion
1070
     0
  0
VISUALSTYLE
  5
75A
102
{ACAD_XDICTIONARY
360
808
102
}
102
{ACAD_REACTORS
330
746
102
}
330
746
100
AcDbVisualStyle
  2
Shaded with edges
 70
    26
 71
     2
 72
     2
 73
     1
 90
        2
 40
-0.6
 41
30.0
 62
     5
 63
     7
 74
     1
 91
       10
 64
     7
 65
   257
 75
     2
175
     1
 42
1.0
 92
        8
 66
   257
 43
1.0
 76
     1
 77
     6
 78
     2
 67
     7
 79
     3
170
     0
171
     0
290
     0
174
     0
 93
        5
 44
0.0
173
     0
291
     0
 45
0.0
1001
ACAD
1000
AcDbSavedByObjectVersion
1070
     0
  0
VISUALSTYLE
  5
757
102
{ACAD_XDICTIONARY
360
802
102
}
102
{ACAD_REACTORS
330
746
102
}
330
746
100
AcDbVisualStyle
  2
Shades of Gray
 70
    23
 71
     2
 72
     2
 73
     3
 90
        0
 40
-0.6
 41
-30.0
 62
     5
 63
     7
 74
     2
 91
        2
 64
     7
 65
     7
 75
     1
175
     1
 42
40.0
 92
        8
 66
     7
 43
1.0
 76
     1
 77
     6
 78
     2
 67
     7
 79
     3
170
     0
171
     0
290
     0
174
     0
 93
        1
 44
0.0
173
     0
291
     0
 45
0.0
1001
ACAD
1000
AcDbSavedByObjectVersion
1070
     0
  0
VISUALSTYLE
  5
758
102
{ACAD_XDICTIONARY
360
804
102
}
102
{ACAD_REACTORS
330
746
102
}
330
746
100
AcDbVisualStyle
  2
Sketchy
 70
    24
 71
     1
 72
     2
 73
     2
 90
        0
 40
-0.6
 41
-30.0
 62
     5
 63
     7
 74
     2
 91
        2
 64
     7
 65
     7
 75
     1
175
     1
 42
40.0
 92
       11
 66
     7
 43
1.0
 76
     1
 77
     6
 78
     2
 67
     7
 79
     6
170
     0
171
     0
290
     0
174
     0
 93
        1
 44
0.0
173
     0
291
     0
 45
0.0
1001
ACAD
1000
AcDbSavedByObjectVersion
1070
     0
  0
VISUALSTYLE
  5
753
102
{ACAD_XDICTIONARY
360
7FA
102
}
102
{ACAD_REACTORS
330
746
102
}
330
746
100
AcDbVisualStyle
  2
Thicken
 70
    13
 71
     2
 72
     2
 73
     0
 90
        0
 40
-0.6
 41
-30.0
 62
     5
 63
     7
 74
     1
 91
        4
 64
     7
 65
   257
 75
     1
175
     1
 42
1.0
 92
       12
 66
     7
 43
1.0
 76
     1
 77
     6
 78
     2
 67
     7
 79
     5
170
     0
171
     0
290
     0
174
     0
 93
        1
 44
0.0
173
     0
291
     1
 45
0.0
1001
ACAD
1000
AcDbSavedByObjectVersion
1070
     0
  0
VISUALSTYLE
  5
74D
102
{ACAD_XDICTIONARY
360
7EE
102
}
102
{ACAD_REACTORS
330
746
102
}
330
746
100
AcDbVisualStyle
  2
Wireframe
 70
     5
 71
     0
 72
     2
 73
     0
 90
        0
 40
-0.6
 41
-30.0
 62
     5
 63
     7
 74
     1
 91
        4
 64
     7
 65
   257
 75
     1
175
     1
 42
1.0
 92
        0
 66
   257
 43
1.0
 76
     1
 77
     6
 78
     2
 67
     7
 79
     3
170
     0
171
     0
290
     0
174
     0
 93
        1
 44
0.0
173
     0
291
     0
 45
0.0
1001
ACAD
1000
AcDbSavedByObjectVersion
1070
     0
  0
VISUALSTYLE
  5
759
102
{ACAD_XDICTIONARY
360
806
102
}
102
{ACAD_REACTORS
330
746
102
}
330
746
100
AcDbVisualStyle
  2
X-Ray
 70
    25
 71
     2
 72
     2
 73
     1
 90
        1
 40
0.5
 41
-30.0
 62
     5
 63
     7
 74
     1
 91
        0
 64
     7
 65
   257
 75
     1
175
     1
 42
1.0
 92
        8
 66
     7
 43
1.0
 76
     1
 77
     6
 78
     2
 67
     7
 79
     3
170
     0
171
     0
290
     0
174
     0
 93
       13
 44
0.0
173
     0
291
     0
 45
0.0
1001
ACAD
1000
AcDbSavedByObjectVersion
1070
     0
  0
DICTIONARYVAR
  5
7D5
102
{ACAD_REACTORS
330
7D0
102
}
330
7D0
100
DictionaryVariables
280
     0
  1
1:1
  0
DICTIONARYVAR
  5
7D2
102
{ACAD_REACTORS
330
7D0
102
}
330
7D0
100
DictionaryVariables
280
     0
  1
STANDARD
  0
DICTIONARYVAR
  5
7D1
102
{ACAD_REACTORS
330
7D0
102
}
330
7D0
100
DictionaryVariables
280
     0
  1
STANDARD
  0
DICTIONARYVAR
  5
7D3
102
{ACAD_REACTORS
330
7D0
102
}
330
7D0
100
DictionaryVariables
280
     0
  1
Imperial24
  0
DICTIONARYVAR
  5
7D4
102
{ACAD_REACTORS
330
7D0
102
}
330
7D0
100
DictionaryVariables
280
     0
  1
Imperial24
  0
DICTIONARYVAR
  5
7D8
102
{ACAD_REACTORS
330
7D0
102
}
330
7D0
100
DictionaryVariables
280
     0
  1
1
  0
DICTIONARYVAR
  5
7D7
102
{ACAD_REACTORS
330
7D0
102
}
330
7D0
100
DictionaryVariables
280
     0
  1
0
  0
DICTIONARYVAR
  5
7D6
102
{ACAD_REACTORS
330
7D0
102
}
330
7D0
100
DictionaryVariables
280
     0
  1
127
  0
DICTIONARYVAR
  5
7D9
102
{ACAD_REACTORS
330
7D0
102
}
330
7D0
100
DictionaryVariables
280
     0
  1
2
  0
XRECORD
  5
7CF
102
{ACAD_REACTORS
330
7CD
102
}
330
7CD
100
AcDbXrecord
280
     1
330
99
330
62
330
6E
330
79
330
84
330
8E
  0
DICTIONARY
  5
814
330
78C
100
AcDbDictionary
280
     1
281
     1
  3
ACAD_XREC_ROUNDTRIP
360
815
  0
DICTIONARY
  5
816
330
790
100
AcDbDictionary
280
     1
281
     1
  3
ACAD_XREC_ROUNDTRIP
360
817
  0
DICTIONARY
  5
737
330
736
100
AcDbDictionary
280
     1
281
     1
  3
ACAD_XREC_ROUNDTRIP
360
7E0
  3
BUMPTILE
360
739
  3
DIFFUSETILE
360
738
  3
OPACITYTILE
360
73C
  3
REFLECTIONTILE
360
73B
  3
REFRACTIONTILE
360
73D
  3
SPECULARTILE
360
73A
  0
DICTIONARY
  5
72F
330
72E
100
AcDbDictionary
280
     1
281
     1
  3
ACAD_XREC_ROUNDTRIP
360
7DF
  3
BUMPTILE
360
731
  3
DIFFUSETILE
360
730
  3
OPACITYTILE
360
734
  3
REFLECTIONTILE
360
733
  3
REFRACTIONTILE
360
735
  3
SPECULARTILE
360
732
  0
DICTIONARY
  5
73F
330
73E
100
AcDbDictionary
280
     1
281
     1
  3
ACAD_XREC_ROUNDTRIP
360
7E1
  3
BUMPTILE
360
741
  3
DIFFUSETILE
360
740
  3
OPACITYTILE
360
744
  3
REFLECTIONTILE
360
743
  3
REFRACTIONTILE
360
745
  3
SPECULARTILE
360
742
  0
DICTIONARY
  5
7DB
330
781
100
AcDbDictionary
280
     1
281
     1
  3
ACAD_ROUNDTRIP_2008_TABLESTYLE_CELLSTYLEMAP
360
7DC
  3
ACAD_XREC_ROUNDTRIP
360
812
  0
DICTIONARY
  5
7EC
330
74C
100
AcDbDictionary
280
     1
281
     1
  3
ACAD_XREC_ROUNDTRIP
360
7ED
  0
DICTIONARY
  5
7EA
330
74B
100
AcDbDictionary
280
     1
281
     1
  3
ACAD_XREC_ROUNDTRIP
360
7EB
  0
DICTIONARY
  5
7F8
330
752
100
AcDbDictionary
280
     1
281
     1
  3
ACAD_XREC_ROUNDTRIP
360
7F9
  0
DICTIONARY
  5
800
330
756
100
AcDbDictionary
280
     1
281
     1
  3
ACAD_XREC_ROUNDTRIP
360
801
  0
DICTIONARY
  5
7F2
330
74F
100
AcDbDictionary
280
     1
281
     1
  3
ACAD_XREC_ROUNDTRIP
360
7F3
  0
DICTIONARY
  5
7F6
330
751
100
AcDbDictionary
280
     1
281
     1
  3
ACAD_XREC_ROUNDTRIP
360
7F7
  0
DICTIONARY
  5
810
330
75E
100
AcDbDictionary
280
     1
281
     1
  3
ACAD_XREC_ROUNDTRIP
360
811
  0
DICTIONARY
  5
7FE
330
755
100
AcDbDictionary
280
     1
281
     1
  3
ACAD_XREC_ROUNDTRIP
360
7FF
  0
DICTIONARY
  5
7E2
330
747
100
AcDbDictionary
280
     1
281
     1
  3
ACAD_XREC_ROUNDTRIP
360
7E3
  0
DICTIONARY
  5
7E4
330
748
100
AcDbDictionary
280
     1
281
     1
  3
ACAD_XREC_ROUNDTRIP
360
7E5
  0
DICTIONARY
  5
7E6
330
749
100
AcDbDictionary
280
     1
281
     1
  3
ACAD_XREC_ROUNDTRIP
360
7E7
  0
DICTIONARY
  5
7E8
330
74A
100
AcDbDictionary
280
     1
281
     1
  3
ACAD_XREC_ROUNDTRIP
360
7E9
  0
DICTIONARY
  5
7F0
330
74E
100
AcDbDictionary
280
     1
281
     1
  3
ACAD_XREC_ROUNDTRIP
360
7F1
  0
DICTIONARY
  5
80C
330
75C
100
AcDbDictionary
280
     1
281
     1
  3
ACAD_XREC_ROUNDTRIP
360
80D
  0
DICTIONARY
  5
7FC
330
754
100
AcDbDictionary
280
     1
281
     1
  3
ACAD_XREC_ROUNDTRIP
360
7FD
  0
DICTIONARY
  5
80E
330
75D
100
AcDbDictionary
280
     1
281
     1
  3
ACAD_XREC_ROUNDTRIP
360
80F
  0
DICTIONARY
  5
7F4
330
750
100
AcDbDictionary
280
     1
281
     1
  3
ACAD_XREC_ROUNDTRIP
360
7F5
  0
DICTIONARY
  5
80A
330
75B
100
AcDbDictionary
280
     1
281
     1
  3
ACAD_XREC_ROUNDTRIP
360
80B
  0
DICTIONARY
  5
808
330
75A
100
AcDbDictionary
280
     1
281
     1
  3
ACAD_XREC_ROUNDTRIP
360
809
  0
DICTIONARY
  5
802
330
757
100
AcDbDictionary
280
     1
281
     1
  3
ACAD_XREC_ROUNDTRIP
360
803
  0
DICTIONARY
  5
804
330
758
100
AcDbDictionary
280
     1
281
     1
  3
ACAD_XREC_ROUNDTRIP
360
805
  0
DICTIONARY
  5
7FA
330
753
100
AcDbDictionary
280
     1
281
     1
  3
ACAD_XREC_ROUNDTRIP
360
7FB
  0
DICTIONARY
  5
7EE
330
74D
100
AcDbDictionary
280
     1
281
     1
  3
ACAD_XREC_ROUNDTRIP
360
7EF
  0
DICTIONARY
  5
806
330
759
100
AcDbDictionary
280
     1
281
     1
  3
ACAD_XREC_ROUNDTRIP
360
807
  0
XRECORD
  5
815
102
{ACAD_REACTORS
330
814
102
}
330
814
100
AcDbXrecord
280
     1
102
SHADEPLOT
 70
     0
102
SHADEPLOTRESLEVEL
 70
     2
102
SHADEPLOTCUSTOMDPI
 70
   300
  0
XRECORD
  5
817
102
{ACAD_REACTORS
330
816
102
}
330
816
100
AcDbXrecord
280
     1
102
SHADEPLOT
 70
     0
102
SHADEPLOTRESLEVEL
 70
     2
102
SHADEPLOTCUSTOMDPI
 70
   300
  0
XRECORD
  5
7E0
102
{ACAD_REACTORS
330
737
102
}
330
737
100
AcDbXrecord
280
     1
102
MATERIAL
148
0.0
149
0.0
149
0.0
 93
        0
 94
      127
282
     0
 72
     0
 77
     0
171
     0
175
     0
179
     0
273
     0
  0
XRECORD
  5
739
102
{ACAD_REACTORS
330
737
102
}
330
737
100
AcDbXrecord
280
     1
270
     1
271
     1
  0
XRECORD
  5
738
102
{ACAD_REACTORS
330
737
102
}
330
737
100
AcDbXrecord
280
     1
270
     1
271
     1
  0
XRECORD
  5
73C
102
{ACAD_REACTORS
330
737
102
}
330
737
100
AcDbXrecord
280
     1
270
     1
271
     1
  0
XRECORD
  5
73B
102
{ACAD_REACTORS
330
737
102
}
330
737
100
AcDbXrecord
280
     1
270
     1
271
     1
  0
XRECORD
  5
73D
102
{ACAD_REACTORS
330
737
102
}
330
737
100
AcDbXrecord
280
     1
270
     1
271
     1
  0
XRECORD
  5
73A
102
{ACAD_REACTORS
330
737
102
}
330
737
100
AcDbXrecord
280
     1
270
     1
271
     1
  0
XRECORD
  5
7DF
102
{ACAD_REACTORS
330
72F
102
}
330
72F
100
AcDbXrecord
280
     1
102
MATERIAL
148
0.0
149
0.0
149
0.0
 93
        0
 94
      127
282
     0
 72
     0
 77
     0
171
     0
175
     0
179
     0
273
     0
  0
XRECORD
  5
731
102
{ACAD_REACTORS
330
72F
102
}
330
72F
100
AcDbXrecord
280
     1
270
     1
271
     1
  0
XRECORD
  5
730
102
{ACAD_REACTORS
330
72F
102
}
330
72F
100
AcDbXrecord
280
     1
270
     1
271
     1
  0
XRECORD
  5
734
102
{ACAD_REACTORS
330
72F
102
}
330
72F
100
AcDbXrecord
280
     1
270
     1
271
     1
  0
XRECORD
  5
733
102
{ACAD_REACTORS
330
72F
102
}
330
72F
100
AcDbXrecord
280
     1
270
     1
271
     1
  0
XRECORD
  5
735
102
{ACAD_REACTORS
330
72F
102
}
330
72F
100
AcDbXrecord
280
     1
270
     1
271
     1
  0
XRECORD
  5
732
102
{ACAD_REACTORS
330
72F
102
}
330
72F
100
AcDbXrecord
280
     1
270
     1
271
     1
  0
XRECORD
  5
7E1
102
{ACAD_REACTORS
330
73F
102
}
330
73F
100
AcDbXrecord
280
     1
102
MATERIAL
148
0.0
149
0.0
149
0.0
 93
        0
 94
      127
282
     0
 72
     0
 77
     0
171
     0
175
     0
179
     0
273
     0
  0
XRECORD
  5
741
102
{ACAD_REACTORS
330
73F
102
}
330
73F
100
AcDbXrecord
280
     1
270
     1
271
     1
  0
XRECORD
  5
740
102
{ACAD_REACTORS
330
73F
102
}
330
73F
100
AcDbXrecord
280
     1
270
     1
271
     1
  0
XRECORD
  5
744
102
{ACAD_REACTORS
330
73F
102
}
330
73F
100
AcDbXrecord
280
     1
270
     1
271
     1
  0
XRECORD
  5
743
102
{ACAD_REACTORS
330
73F
102
}
330
73F
100
AcDbXrecord
280
     1
270
     1
271
     1
  0
XRECORD
  5
745
102
{ACAD_REACTORS
330
73F
102
}
330
73F
100
AcDbXrecord
280
     1
270
     1
271
     1
  0
XRECORD
  5
742
102
{ACAD_REACTORS
330
73F
102
}
330
73F
100
AcDbXrecord
280
     1
270
     1
271
     1
  0
CELLSTYLEMAP
  5
7DC
102
{ACAD_REACTORS
330
7DB
102
}
330
7DB
100
AcDbCellStyleMap
 90
        3
300
CELLSTYLE
  1
TABLEFORMAT_BEGIN
 90
        5
170
     1
 91
        0
 92
    32768
 62
   257
 93
        1
300
CONTENTFORMAT
  1
CONTENTFORMAT_BEGIN
 90
        0
 91
        0
 92
      512
 93
        0
300

 40
0.0
140
1.0
 94
        5
 62
     0
340
772
144
0.25
309
CONTENTFORMAT_END
171
     0
 94
        0
309
TABLEFORMAT_END
  1
CELLSTYLE_BEGIN
 90
        1
 91
        1
300
_TITLE
309
CELLSTYLE_END
300
CELLSTYLE
  1
TABLEFORMAT_BEGIN
 90
        5
170
     1
 91
        0
 92
        0
 62
   257
 93
        1
300
CONTENTFORMAT
  1
CONTENTFORMAT_BEGIN
 90
        0
 91
        0
 92
      512
 93
        0
300

 40
0.0
140
1.0
 94
        5
 62
     0
340
772
144
0.18
309
CONTENTFORMAT_END
171
     0
 94
        0
309
TABLEFORMAT_END
  1
CELLSTYLE_BEGIN
 90
        2
 91
        1
300
_HEADER
309
CELLSTYLE_END
300
CELLSTYLE
  1
TABLEFORMAT_BEGIN
 90
        5
170
     1
 91
        0
 92
        0
 62
   257
 93
        1
300
CONTENTFORMAT
  1
CONTENTFORMAT_BEGIN
 90
        0
 91
        0
 92
      512
 93
        0
300

 40
0.0
140
1.0
 94
        2
 62
     0
340
772
144
0.18
309
CONTENTFORMAT_END
171
     0
 94
        0
309
TABLEFORMAT_END
  1
CELLSTYLE_BEGIN
 90
        3
 91
        2
300
_DATA
309
CELLSTYLE_END
  0
XRECORD
  5
812
102
{ACAD_REACTORS
330
7DB
102
}
330
7DB
100
AcDbXrecord
280
     1
102
ACAD_ROUNDTRIP_PRE2007_TABLESTYLE
 90
      512
 91
        0
  1

 92
      512
 93
        0
  2

 94
      512
 95
        0
  3

  0
XRECORD
  5
7ED
102
{ACAD_REACTORS
330
7EC
102
}
330
7EC
100
AcDbXrecord
280
     1
102
RTVSPost2010Prop28
280
     1
102
RTVSPost2010PropOp28
 70
     1
102
RTVSPost2010Prop29
280
     1
102
RTVSPost2010PropOp29
 70
     1
102
RTVSPost2010Prop30
280
     0
102
RTVSPost2010PropOp30
 70
     1
102
RTVSPost2010Prop31
280
     0
102
RTVSPost2010PropOp31
 70
     1
102
RTVSPost2010Prop32
280
     0
102
RTVSPost2010PropOp32
 70
     1
102
RTVSPost2010Prop33
280
     0
102
RTVSPost2010PropOp33
 70
     1
102
RTVSPost2010Prop34
280
     0
102
RTVSPost2010PropOp34
 70
     1
102
RTVSPost2010Prop35
280
     0
102
RTVSPost2010PropOp35
 70
     1
102
RTVSPost2010Prop36
280
     0
102
RTVSPost2010PropOp36
 70
     1
102
RTVSPost2010Prop37
 90
       50
102
RTVSPost2010PropOp37
 70
     1
102
RTVSPost2010Prop38
140
0.0
102
RTVSPost2010PropOp38
 70
     1
102
RTVSPost2010Prop39
140
1.0
102
RTVSPost2010PropOp39
 70
     1
102
RTVSPost2010Prop40
 90
        0
102
RTVSPost2010PropOp40
 70
     1
102
RTVSPost2010Prop41ColorIndex
 90
       18
102
RTVSPost2010Prop41ColorRGB
 90
        0
102
RTVSPost2010PropOp41
 70
     1
102
RTVSPost2010Prop42
 90
       50
102
RTVSPost2010PropOp42
 70
     1
102
RTVSPost2010Prop43
 90
        3
102
RTVSPost2010PropOp43
 70
     1
102
RTVSPost2010Prop44ColorIndex
 90
        5
102
RTVSPost2010Prop44ColorRGB
 90
      255
102
RTVSPost2010PropOp44
 70
     1
102
RTVSPost2010Prop45
280
     0
102
RTVSPost2010PropOp45
 70
     1
102
RTVSPost2010Prop46
 90
       50
102
RTVSPost2010PropOp46
 70
     1
102
RTVSPost2010Prop47
 90
       50
102
RTVSPost2010PropOp47
 70
     1
102
RTVSPost2010Prop48
 90
       50
102
RTVSPost2010PropOp48
 70
     1
102
RTVSPost2010Prop49
280
     0
102
RTVSPost2010PropOp49
 70
     1
102
RTVSPost2010Prop50
 90
       50
102
RTVSPost2010PropOp50
 70
     1
102
RTVSPost2010Prop51ColorIndex
 90
      256
102
RTVSPost2010Prop51ColorRGB
 90
-16777216
102
RTVSPost2010PropOp51
 70
     0
102
RTVSPost2010Prop52
140
1.0
102
RTVSPost2010PropOp52
 70
     0
102
RTVSPost2010Prop53
 90
        2
102
RTVSPost2010PropOp53
 70
     1
102
RTVSPost2010Prop54
  1
strokes_ogs.tif
102
RTVSPost2010PropOp54
 70
     1
102
RTVSPost2010Prop55
280
     0
102
RTVSPost2010PropOp55
 70
     1
102
RTVSPost2010Prop56
140
1.0
102
RTVSPost2010PropOp56
 70
     1
102
RTVSPost2010Prop57
140
1.0
102
RTVSPost2010PropOp57
 70
     1
102
RTVSPropertyOp0
 70
     1
102
RTVSPropertyOp1
 70
     1
102
RTVSPropertyOp2
 70
     1
102
RTVSPropertyOp3
 70
     1
102
RTVSPropertyOp4
 70
     1
102
RTVSPropertyOp5
 70
     1
102
RTVSPropertyOp6
 70
     1
102
RTVSPropertyOp7
 70
     1
102
RTVSPropertyOp8
 70
     1
102
RTVSPropertyOp9
 70
     1
102
RTVSPropertyOp10
 70
     1
102
RTVSPropertyOp11
 70
     1
102
RTVSPropertyOp12
 70
     1
102
RTVSPropertyOp13
 70
     1
102
RTVSPropertyOp14
 70
     1
102
RTVSPropertyOp15
 70
     1
102
RTVSPropertyOp16
 70
     1
102
RTVSPropertyOp17
 70
     1
102
RTVSPropertyOp18
 70
     1
102
RTVSPropertyOp19
 70
     1
102
RTVSPropertyOp20
 70
     1
102
RTVSPropertyOp21
 70
     1
102
RTVSPropertyOp22
 70
     1
102
RTVSPropertyOp23
 70
     1
102
RTVSPropertyOp24
 70
     1
102
RTVSPropertyOp25
 70
     1
102
RTVSPropertyOp26
 70
     1
102
RTVSPropertyOp27
 70
     1
102
RTVSPropertyOp28
 70
     1
102
RTVSPropertyOp29
 70
     1
102
RTVSPropertyOp30
 70
     1
102
RTVSPropertyOp31
 70
     1
102
RTVSPropertyOp32
 70
     1
102
RTVSPropertyOp33
 70
     1
102
RTVSPropertyOp34
 70
     1
102
RTVSPropertyOp35
 70
     1
102
RTVSPropertyOp36
 70
     1
102
RTVSPropertyOp37
 70
     1
102
RTVSPropertyOp38
 70
     1
102
RTVSPropertyOp39
 70
     1
102
RTVSPropertyOp40
 70
     1
102
RTVSPropertyOp41
 70
     1
102
RTVSPropertyOp42
 70
     1
102
RTVSPropertyOp43
 70
     1
102
RTVSPropertyOp44
 70
     1
102
RTVSPropertyOp45
 70
     1
102
RTVSPropertyOp46
 70
     1
102
RTVSPropertyOp47
 70
     1
102
RTVSPropertyOp48
 70
     1
102
RTVSPropertyOp49
 70
     1
102
RTVSPropertyOp50
 70
     1
102
RTVSPropertyOp51
 70
     0
102
RTVSPropertyOp52
 70
     0
102
RTVSPropertyOp53
 70
     1
102
RTVSPropertyOp54
 70
     1
102
RTVSPropertyOp55
 70
     1
102
RTVSPropertyOp56
 70
     1
102
RTVSPropertyOp57
 70
     1
102
RTVSPropertyOp58
 70
     1
102
RTVSPropertyOp59
 70
     1
102
RTVSPropertyOp60
 70
     1
102
RTVSPropertyOp61
 70
     1
102
RTVSPropertyOp62
 70
     1
  0
XRECORD
  5
7EB
102
{ACAD_REACTORS
330
7EA
102
}
330
7EA
100
AcDbXrecord
280
     1
102
RTVSPost2010Prop28
280
     0
102
RTVSPost2010PropOp28
 70
     1
102
RTVSPost2010Prop29
280
     1
102
RTVSPost2010PropOp29
 70
     1
102
RTVSPost2010Prop30
280
     1
102
RTVSPost2010PropOp30
 70
     1
102
RTVSPost2010Prop31
280
     0
102
RTVSPost2010PropOp31
 70
     1
102
RTVSPost2010Prop32
280
     0
102
RTVSPost2010PropOp32
 70
     1
102
RTVSPost2010Prop33
280
     0
102
RTVSPost2010PropOp33
 70
     1
102
RTVSPost2010Prop34
280
     0
102
RTVSPost2010PropOp34
 70
     1
102
RTVSPost2010Prop35
280
     0
102
RTVSPost2010PropOp35
 70
     1
102
RTVSPost2010Prop36
280
     0
102
RTVSPost2010PropOp36
 70
     1
102
RTVSPost2010Prop37
 90
       50
102
RTVSPost2010PropOp37
 70
     1
102
RTVSPost2010Prop38
140
0.0
102
RTVSPost2010PropOp38
 70
     1
102
RTVSPost2010Prop39
140
1.0
102
RTVSPost2010PropOp39
 70
     1
102
RTVSPost2010Prop40
 90
        0
102
RTVSPost2010PropOp40
 70
     1
102
RTVSPost2010Prop41ColorIndex
 90
       18
102
RTVSPost2010Prop41ColorRGB
 90
        0
102
RTVSPost2010PropOp41
 70
     1
102
RTVSPost2010Prop42
 90
       50
102
RTVSPost2010PropOp42
 70
     1
102
RTVSPost2010Prop43
 90
        3
102
RTVSPost2010PropOp43
 70
     1
102
RTVSPost2010Prop44ColorIndex
 90
        5
102
RTVSPost2010Prop44ColorRGB
 90
      255
102
RTVSPost2010PropOp44
 70
     1
102
RTVSPost2010Prop45
280
     0
102
RTVSPost2010PropOp45
 70
     1
102
RTVSPost2010Prop46
 90
       50
102
RTVSPost2010PropOp46
 70
     1
102
RTVSPost2010Prop47
 90
       50
102
RTVSPost2010PropOp47
 70
     1
102
RTVSPost2010Prop48
 90
       50
102
RTVSPost2010PropOp48
 70
     1
102
RTVSPost2010Prop49
280
     0
102
RTVSPost2010PropOp49
 70
     1
102
RTVSPost2010Prop50
 90
       50
102
RTVSPost2010PropOp50
 70
     1
102
RTVSPost2010Prop51ColorIndex
 90
      256
102
RTVSPost2010Prop51ColorRGB
 90
-16777216
102
RTVSPost2010PropOp51
 70
     0
102
RTVSPost2010Prop52
140
1.0
102
RTVSPost2010PropOp52
 70
     0
102
RTVSPost2010Prop53
 90
        2
102
RTVSPost2010PropOp53
 70
     1
102
RTVSPost2010Prop54
  1
strokes_ogs.tif
102
RTVSPost2010PropOp54
 70
     1
102
RTVSPost2010Prop55
280
     0
102
RTVSPost2010PropOp55
 70
     1
102
RTVSPost2010Prop56
140
1.0
102
RTVSPost2010PropOp56
 70
     1
102
RTVSPost2010Prop57
140
1.0
102
RTVSPost2010PropOp57
 70
     1
102
RTVSPropertyOp0
 70
     1
102
RTVSPropertyOp1
 70
     1
102
RTVSPropertyOp2
 70
     1
102
RTVSPropertyOp3
 70
     1
102
RTVSPropertyOp4
 70
     1
102
RTVSPropertyOp5
 70
     1
102
RTVSPropertyOp6
 70
     1
102
RTVSPropertyOp7
 70
     1
102
RTVSPropertyOp8
 70
     1
102
RTVSPropertyOp9
 70
     1
102
RTVSPropertyOp10
 70
     1
102
RTVSPropertyOp11
 70
     1
102
RTVSPropertyOp12
 70
     1
102
RTVSPropertyOp13
 70
     1
102
RTVSPropertyOp14
 70
     1
102
RTVSPropertyOp15
 70
     1
102
RTVSPropertyOp16
 70
     1
102
RTVSPropertyOp17
 70
     1
102
RTVSPropertyOp18
 70
     1
102
RTVSPropertyOp19
 70
     1
102
RTVSPropertyOp20
 70
     1
102
RTVSPropertyOp21
 70
     1
102
RTVSPropertyOp22
 70
     1
102
RTVSPropertyOp23
 70
     1
102
RTVSPropertyOp24
 70
     1
102
RTVSPropertyOp25
 70
     1
102
RTVSPropertyOp26
 70
     1
102
RTVSPropertyOp27
 70
     1
102
RTVSPropertyOp28
 70
     1
102
RTVSPropertyOp29
 70
     1
102
RTVSPropertyOp30
 70
     1
102
RTVSPropertyOp31
 70
     1
102
RTVSPropertyOp32
 70
     1
102
RTVSPropertyOp33
 70
     1
102
RTVSPropertyOp34
 70
     1
102
RTVSPropertyOp35
 70
     1
102
RTVSPropertyOp36
 70
     1
102
RTVSPropertyOp37
 70
     1
102
RTVSPropertyOp38
 70
     1
102
RTVSPropertyOp39
 70
     1
102
RTVSPropertyOp40
 70
     1
102
RTVSPropertyOp41
 70
     1
102
RTVSPropertyOp42
 70
     1
102
RTVSPropertyOp43
 70
     1
102
RTVSPropertyOp44
 70
     1
102
RTVSPropertyOp45
 70
     1
102
RTVSPropertyOp46
 70
     1
102
RTVSPropertyOp47
 70
     1
102
RTVSPropertyOp48
 70
     1
102
RTVSPropertyOp49
 70
     1
102
RTVSPropertyOp50
 70
     1
102
RTVSPropertyOp51
 70
     0
102
RTVSPropertyOp52
 70
     0
102
RTVSPropertyOp53
 70
     1
102
RTVSPropertyOp54
 70
     1
102
RTVSPropertyOp55
 70
     1
102
RTVSPropertyOp56
 70
     1
102
RTVSPropertyOp57
 70
     1
102
RTVSPropertyOp58
 70
     1
102
RTVSPropertyOp59
 70
     1
102
RTVSPropertyOp60
 70
     1
102
RTVSPropertyOp61
 70
     1
102
RTVSPropertyOp62
 70
     1
  0
XRECORD
  5
7F9
102
{ACAD_REACTORS
330
7F8
102
}
330
7F8
100
AcDbXrecord
280
     1
102
RTVSPost2010Prop28
280
     0
102
RTVSPost2010PropOp28
 70
     1
102
RTVSPost2010Prop29
280
     1
102
RTVSPost2010PropOp29
 70
     1
102
RTVSPost2010Prop30
280
     1
102
RTVSPost2010PropOp30
 70
     1
102
RTVSPost2010Prop31
280
     0
102
RTVSPost2010PropOp31
 70
     1
102
RTVSPost2010Prop32
280
     0
102
RTVSPost2010PropOp32
 70
     1
102
RTVSPost2010Prop33
280
     0
102
RTVSPost2010PropOp33
 70
     1
102
RTVSPost2010Prop34
280
     0
102
RTVSPost2010PropOp34
 70
     1
102
RTVSPost2010Prop35
280
     0
102
RTVSPost2010PropOp35
 70
     1
102
RTVSPost2010Prop36
280
     0
102
RTVSPost2010PropOp36
 70
     1
102
RTVSPost2010Prop37
 90
       50
102
RTVSPost2010PropOp37
 70
     1
102
RTVSPost2010Prop38
140
0.0
102
RTVSPost2010PropOp38
 70
     1
102
RTVSPost2010Prop39
140
1.0
102
RTVSPost2010PropOp39
 70
     1
102
RTVSPost2010Prop40
 90
        0
102
RTVSPost2010PropOp40
 70
     1
102
RTVSPost2010Prop41ColorIndex
 90
       18
102
RTVSPost2010Prop41ColorRGB
 90
        0
102
RTVSPost2010PropOp41
 70
     1
102
RTVSPost2010Prop42
 90
       50
102
RTVSPost2010PropOp42
 70
     1
102
RTVSPost2010Prop43
 90
        3
102
RTVSPost2010PropOp43
 70
     1
102
RTVSPost2010Prop44ColorIndex
 90
        5
102
RTVSPost2010Prop44ColorRGB
 90
      255
102
RTVSPost2010PropOp44
 70
     1
102
RTVSPost2010Prop45
280
     0
102
RTVSPost2010PropOp45
 70
     1
102
RTVSPost2010Prop46
 90
       50
102
RTVSPost2010PropOp46
 70
     1
102
RTVSPost2010Prop47
 90
       50
102
RTVSPost2010PropOp47
 70
     1
102
RTVSPost2010Prop48
 90
       50
102
RTVSPost2010PropOp48
 70
     1
102
RTVSPost2010Prop49
280
     0
102
RTVSPost2010PropOp49
 70
     1
102
RTVSPost2010Prop50
 90
       50
102
RTVSPost2010PropOp50
 70
     1
102
RTVSPost2010Prop51ColorIndex
 90
      256
102
RTVSPost2010Prop51ColorRGB
 90
-16777216
102
RTVSPost2010PropOp51
 70
     0
102
RTVSPost2010Prop52
140
1.0
102
RTVSPost2010PropOp52
 70
     0
102
RTVSPost2010Prop53
 90
        2
102
RTVSPost2010PropOp53
 70
     1
102
RTVSPost2010Prop54
  1
strokes_ogs.tif
102
RTVSPost2010PropOp54
 70
     1
102
RTVSPost2010Prop55
280
     0
102
RTVSPost2010PropOp55
 70
     1
102
RTVSPost2010Prop56
140
1.0
102
RTVSPost2010PropOp56
 70
     1
102
RTVSPost2010Prop57
140
1.0
102
RTVSPost2010PropOp57
 70
     1
102
RTVSPropertyOp0
 70
     1
102
RTVSPropertyOp1
 70
     1
102
RTVSPropertyOp2
 70
     1
102
RTVSPropertyOp3
 70
     1
102
RTVSPropertyOp4
 70
     1
102
RTVSPropertyOp5
 70
     1
102
RTVSPropertyOp6
 70
     1
102
RTVSPropertyOp7
 70
     1
102
RTVSPropertyOp8
 70
     1
102
RTVSPropertyOp9
 70
     1
102
RTVSPropertyOp10
 70
     1
102
RTVSPropertyOp11
 70
     1
102
RTVSPropertyOp12
 70
     1
102
RTVSPropertyOp13
 70
     1
102
RTVSPropertyOp14
 70
     1
102
RTVSPropertyOp15
 70
     1
102
RTVSPropertyOp16
 70
     1
102
RTVSPropertyOp17
 70
     1
102
RTVSPropertyOp18
 70
     1
102
RTVSPropertyOp19
 70
     1
102
RTVSPropertyOp20
 70
     1
102
RTVSPropertyOp21
 70
     1
102
RTVSPropertyOp22
 70
     1
102
RTVSPropertyOp23
 70
     1
102
RTVSPropertyOp24
 70
     1
102
RTVSPropertyOp25
 70
     1
102
RTVSPropertyOp26
 70
     1
102
RTVSPropertyOp27
 70
     1
102
RTVSPropertyOp28
 70
     1
102
RTVSPropertyOp29
 70
     1
102
RTVSPropertyOp30
 70
     1
102
RTVSPropertyOp31
 70
     1
102
RTVSPropertyOp32
 70
     1
102
RTVSPropertyOp33
 70
     1
102
RTVSPropertyOp34
 70
     1
102
RTVSPropertyOp35
 70
     1
102
RTVSPropertyOp36
 70
     1
102
RTVSPropertyOp37
 70
     1
102
RTVSPropertyOp38
 70
     1
102
RTVSPropertyOp39
 70
     1
102
RTVSPropertyOp40
 70
     1
102
RTVSPropertyOp41
 70
     1
102
RTVSPropertyOp42
 70
     1
102
RTVSPropertyOp43
 70
     1
102
RTVSPropertyOp44
 70
     1
102
RTVSPropertyOp45
 70
     1
102
RTVSPropertyOp46
 70
     1
102
RTVSPropertyOp47
 70
     1
102
RTVSPropertyOp48
 70
     1
102
RTVSPropertyOp49
 70
     1
102
RTVSPropertyOp50
 70
     1
102
RTVSPropertyOp51
 70
     0
102
RTVSPropertyOp52
 70
     0
102
RTVSPropertyOp53
 70
     1
102
RTVSPropertyOp54
 70
     1
102
RTVSPropertyOp55
 70
     1
102
RTVSPropertyOp56
 70
     1
102
RTVSPropertyOp57
 70
     1
102
RTVSPropertyOp58
 70
     1
102
RTVSPropertyOp59
 70
     1
102
RTVSPropertyOp60
 70
     1
102
RTVSPropertyOp61
 70
     1
102
RTVSPropertyOp62
 70
     1
  0
XRECORD
  5
801
102
{ACAD_REACTORS
330
800
102
}
330
800
100
AcDbXrecord
280
     1
102
RTVSPost2010Prop28
280
     0
102
RTVSPost2010PropOp28
 70
     1
102
RTVSPost2010Prop29
280
     1
102
RTVSPost2010PropOp29
 70
     1
102
RTVSPost2010Prop30
280
     1
102
RTVSPost2010PropOp30
 70
     1
102
RTVSPost2010Prop31
280
     0
102
RTVSPost2010PropOp31
 70
     1
102
RTVSPost2010Prop32
280
     0
102
RTVSPost2010PropOp32
 70
     1
102
RTVSPost2010Prop33
280
     0
102
RTVSPost2010PropOp33
 70
     1
102
RTVSPost2010Prop34
280
     0
102
RTVSPost2010PropOp34
 70
     1
102
RTVSPost2010Prop35
280
     0
102
RTVSPost2010PropOp35
 70
     1
102
RTVSPost2010Prop36
280
     0
102
RTVSPost2010PropOp36
 70
     1
102
RTVSPost2010Prop37
 90
       50
102
RTVSPost2010PropOp37
 70
     1
102
RTVSPost2010Prop38
140
0.0
102
RTVSPost2010PropOp38
 70
     1
102
RTVSPost2010Prop39
140
1.0
102
RTVSPost2010PropOp39
 70
     1
102
RTVSPost2010Prop40
 90
        0
102
RTVSPost2010PropOp40
 70
     1
102
RTVSPost2010Prop41ColorIndex
 90
       18
102
RTVSPost2010Prop41ColorRGB
 90
        0
102
RTVSPost2010PropOp41
 70
     1
102
RTVSPost2010Prop42
 90
       50
102
RTVSPost2010PropOp42
 70
     1
102
RTVSPost2010Prop43
 90
        3
102
RTVSPost2010PropOp43
 70
     1
102
RTVSPost2010Prop44ColorIndex
 90
        5
102
RTVSPost2010Prop44ColorRGB
 90
      255
102
RTVSPost2010PropOp44
 70
     1
102
RTVSPost2010Prop45
280
     0
102
RTVSPost2010PropOp45
 70
     1
102
RTVSPost2010Prop46
 90
       50
102
RTVSPost2010PropOp46
 70
     1
102
RTVSPost2010Prop47
 90
       50
102
RTVSPost2010PropOp47
 70
     1
102
RTVSPost2010Prop48
 90
       50
102
RTVSPost2010PropOp48
 70
     1
102
RTVSPost2010Prop49
280
     0
102
RTVSPost2010PropOp49
 70
     1
102
RTVSPost2010Prop50
 90
       50
102
RTVSPost2010PropOp50
 70
     1
102
RTVSPost2010Prop51ColorIndex
 90
      256
102
RTVSPost2010Prop51ColorRGB
 90
-16777216
102
RTVSPost2010PropOp51
 70
     0
102
RTVSPost2010Prop52
140
1.0
102
RTVSPost2010PropOp52
 70
     0
102
RTVSPost2010Prop53
 90
        2
102
RTVSPost2010PropOp53
 70
     1
102
RTVSPost2010Prop54
  1
strokes_ogs.tif
102
RTVSPost2010PropOp54
 70
     1
102
RTVSPost2010Prop55
280
     0
102
RTVSPost2010PropOp55
 70
     1
102
RTVSPost2010Prop56
140
1.0
102
RTVSPost2010PropOp56
 70
     1
102
RTVSPost2010Prop57
140
1.0
102
RTVSPost2010PropOp57
 70
     1
102
RTVSPropertyOp0
 70
     1
102
RTVSPropertyOp1
 70
     1
102
RTVSPropertyOp2
 70
     1
102
RTVSPropertyOp3
 70
     1
102
RTVSPropertyOp4
 70
     1
102
RTVSPropertyOp5
 70
     1
102
RTVSPropertyOp6
 70
     1
102
RTVSPropertyOp7
 70
     1
102
RTVSPropertyOp8
 70
     1
102
RTVSPropertyOp9
 70
     1
102
RTVSPropertyOp10
 70
     1
102
RTVSPropertyOp11
 70
     1
102
RTVSPropertyOp12
 70
     1
102
RTVSPropertyOp13
 70
     1
102
RTVSPropertyOp14
 70
     1
102
RTVSPropertyOp15
 70
     1
102
RTVSPropertyOp16
 70
     1
102
RTVSPropertyOp17
 70
     1
102
RTVSPropertyOp18
 70
     1
102
RTVSPropertyOp19
 70
     1
102
RTVSPropertyOp20
 70
     1
102
RTVSPropertyOp21
 70
     1
102
RTVSPropertyOp22
 70
     1
102
RTVSPropertyOp23
 70
     1
102
RTVSPropertyOp24
 70
     1
102
RTVSPropertyOp25
 70
     1
102
RTVSPropertyOp26
 70
     1
102
RTVSPropertyOp27
 70
     1
102
RTVSPropertyOp28
 70
     1
102
RTVSPropertyOp29
 70
     1
102
RTVSPropertyOp30
 70
     1
102
RTVSPropertyOp31
 70
     1
102
RTVSPropertyOp32
 70
     1
102
RTVSPropertyOp33
 70
     1
102
RTVSPropertyOp34
 70
     1
102
RTVSPropertyOp35
 70
     1
102
RTVSPropertyOp36
 70
     1
102
RTVSPropertyOp37
 70
     1
102
RTVSPropertyOp38
 70
     1
102
RTVSPropertyOp39
 70
     1
102
RTVSPropertyOp40
 70
     1
102
RTVSPropertyOp41
 70
     1
102
RTVSPropertyOp42
 70
     1
102
RTVSPropertyOp43
 70
     1
102
RTVSPropertyOp44
 70
     1
102
RTVSPropertyOp45
 70
     1
102
RTVSPropertyOp46
 70
     1
102
RTVSPropertyOp47
 70
     1
102
RTVSPropertyOp48
 70
     1
102
RTVSPropertyOp49
 70
     1
102
RTVSPropertyOp50
 70
     1
102
RTVSPropertyOp51
 70
     0
102
RTVSPropertyOp52
 70
     0
102
RTVSPropertyOp53
 70
     1
102
RTVSPropertyOp54
 70
     1
102
RTVSPropertyOp55
 70
     1
102
RTVSPropertyOp56
 70
     1
102
RTVSPropertyOp57
 70
     1
102
RTVSPropertyOp58
 70
     1
102
RTVSPropertyOp59
 70
     1
102
RTVSPropertyOp60
 70
     1
102
RTVSPropertyOp61
 70
     1
102
RTVSPropertyOp62
 70
     1
  0
XRECORD
  5
7F3
102
{ACAD_REACTORS
330
7F2
102
}
330
7F2
100
AcDbXrecord
280
     1
102
RTVSPost2010Prop28
280
     0
102
RTVSPost2010PropOp28
 70
     1
102
RTVSPost2010Prop29
280
     1
102
RTVSPost2010PropOp29
 70
     1
102
RTVSPost2010Prop30
280
     1
102
RTVSPost2010PropOp30
 70
     1
102
RTVSPost2010Prop31
280
     0
102
RTVSPost2010PropOp31
 70
     1
102
RTVSPost2010Prop32
280
     0
102
RTVSPost2010PropOp32
 70
     1
102
RTVSPost2010Prop33
280
     0
102
RTVSPost2010PropOp33
 70
     1
102
RTVSPost2010Prop34
280
     0
102
RTVSPost2010PropOp34
 70
     1
102
RTVSPost2010Prop35
280
     0
102
RTVSPost2010PropOp35
 70
     1
102
RTVSPost2010Prop36
280
     0
102
RTVSPost2010PropOp36
 70
     1
102
RTVSPost2010Prop37
 90
       50
102
RTVSPost2010PropOp37
 70
     1
102
RTVSPost2010Prop38
140
0.0
102
RTVSPost2010PropOp38
 70
     1
102
RTVSPost2010Prop39
140
1.0
102
RTVSPost2010PropOp39
 70
     1
102
RTVSPost2010Prop40
 90
        0
102
RTVSPost2010PropOp40
 70
     1
102
RTVSPost2010Prop41ColorIndex
 90
       18
102
RTVSPost2010Prop41ColorRGB
 90
        0
102
RTVSPost2010PropOp41
 70
     1
102
RTVSPost2010Prop42
 90
       50
102
RTVSPost2010PropOp42
 70
     1
102
RTVSPost2010Prop43
 90
        3
102
RTVSPost2010PropOp43
 70
     1
102
RTVSPost2010Prop44ColorIndex
 90
        5
102
RTVSPost2010Prop44ColorRGB
 90
      255
102
RTVSPost2010PropOp44
 70
     1
102
RTVSPost2010Prop45
280
     0
102
RTVSPost2010PropOp45
 70
     1
102
RTVSPost2010Prop46
 90
       50
102
RTVSPost2010PropOp46
 70
     1
102
RTVSPost2010Prop47
 90
       50
102
RTVSPost2010PropOp47
 70
     1
102
RTVSPost2010Prop48
 90
       50
102
RTVSPost2010PropOp48
 70
     1
102
RTVSPost2010Prop49
280
     0
102
RTVSPost2010PropOp49
 70
     1
102
RTVSPost2010Prop50
 90
       50
102
RTVSPost2010PropOp50
 70
     1
102
RTVSPost2010Prop51ColorIndex
 90
      256
102
RTVSPost2010Prop51ColorRGB
 90
-16777216
102
RTVSPost2010PropOp51
 70
     0
102
RTVSPost2010Prop52
140
1.0
102
RTVSPost2010PropOp52
 70
     0
102
RTVSPost2010Prop53
 90
        2
102
RTVSPost2010PropOp53
 70
     1
102
RTVSPost2010Prop54
  1
strokes_ogs.tif
102
RTVSPost2010PropOp54
 70
     1
102
RTVSPost2010Prop55
280
     0
102
RTVSPost2010PropOp55
 70
     1
102
RTVSPost2010Prop56
140
1.0
102
RTVSPost2010PropOp56
 70
     1
102
RTVSPost2010Prop57
140
1.0
102
RTVSPost2010PropOp57
 70
     1
102
RTVSPropertyOp0
 70
     1
102
RTVSPropertyOp1
 70
     1
102
RTVSPropertyOp2
 70
     1
102
RTVSPropertyOp3
 70
     1
102
RTVSPropertyOp4
 70
     1
102
RTVSPropertyOp5
 70
     1
102
RTVSPropertyOp6
 70
     1
102
RTVSPropertyOp7
 70
     1
102
RTVSPropertyOp8
 70
     1
102
RTVSPropertyOp9
 70
     1
102
RTVSPropertyOp10
 70
     1
102
RTVSPropertyOp11
 70
     1
102
RTVSPropertyOp12
 70
     1
102
RTVSPropertyOp13
 70
     1
102
RTVSPropertyOp14
 70
     1
102
RTVSPropertyOp15
 70
     1
102
RTVSPropertyOp16
 70
     1
102
RTVSPropertyOp17
 70
     1
102
RTVSPropertyOp18
 70
     1
102
RTVSPropertyOp19
 70
     1
102
RTVSPropertyOp20
 70
     1
102
RTVSPropertyOp21
 70
     1
102
RTVSPropertyOp22
 70
     1
102
RTVSPropertyOp23
 70
     1
102
RTVSPropertyOp24
 70
     1
102
RTVSPropertyOp25
 70
     1
102
RTVSPropertyOp26
 70
     1
102
RTVSPropertyOp27
 70
     1
102
RTVSPropertyOp28
 70
     1
102
RTVSPropertyOp29
 70
     1
102
RTVSPropertyOp30
 70
     1
102
RTVSPropertyOp31
 70
     1
102
RTVSPropertyOp32
 70
     1
102
RTVSPropertyOp33
 70
     1
102
RTVSPropertyOp34
 70
     1
102
RTVSPropertyOp35
 70
     1
102
RTVSPropertyOp36
 70
     1
102
RTVSPropertyOp37
 70
     1
102
RTVSPropertyOp38
 70
     1
102
RTVSPropertyOp39
 70
     1
102
RTVSPropertyOp40
 70
     1
102
RTVSPropertyOp41
 70
     1
102
RTVSPropertyOp42
 70
     1
102
RTVSPropertyOp43
 70
     1
102
RTVSPropertyOp44
 70
     1
102
RTVSPropertyOp45
 70
     1
102
RTVSPropertyOp46
 70
     1
102
RTVSPropertyOp47
 70
     1
102
RTVSPropertyOp48
 70
     1
102
RTVSPropertyOp49
 70
     1
102
RTVSPropertyOp50
 70
     1
102
RTVSPropertyOp51
 70
     0
102
RTVSPropertyOp52
 70
     0
102
RTVSPropertyOp53
 70
     1
102
RTVSPropertyOp54
 70
     1
102
RTVSPropertyOp55
 70
     1
102
RTVSPropertyOp56
 70
     1
102
RTVSPropertyOp57
 70
     1
102
RTVSPropertyOp58
 70
     1
102
RTVSPropertyOp59
 70
     1
102
RTVSPropertyOp60
 70
     1
102
RTVSPropertyOp61
 70
     1
102
RTVSPropertyOp62
 70
     1
  0
XRECORD
  5
7F7
102
{ACAD_REACTORS
330
7F6
102
}
330
7F6
100
AcDbXrecord
280
     1
102
RTVSPost2010Prop28
280
     0
102
RTVSPost2010PropOp28
 70
     1
102
RTVSPost2010Prop29
280
     1
102
RTVSPost2010PropOp29
 70
     1
102
RTVSPost2010Prop30
280
     1
102
RTVSPost2010PropOp30
 70
     1
102
RTVSPost2010Prop31
280
     0
102
RTVSPost2010PropOp31
 70
     1
102
RTVSPost2010Prop32
280
     0
102
RTVSPost2010PropOp32
 70
     1
102
RTVSPost2010Prop33
280
     0
102
RTVSPost2010PropOp33
 70
     1
102
RTVSPost2010Prop34
280
     0
102
RTVSPost2010PropOp34
 70
     1
102
RTVSPost2010Prop35
280
     0
102
RTVSPost2010PropOp35
 70
     1
102
RTVSPost2010Prop36
280
     0
102
RTVSPost2010PropOp36
 70
     1
102
RTVSPost2010Prop37
 90
       50
102
RTVSPost2010PropOp37
 70
     1
102
RTVSPost2010Prop38
140
0.0
102
RTVSPost2010PropOp38
 70
     1
102
RTVSPost2010Prop39
140
1.0
102
RTVSPost2010PropOp39
 70
     1
102
RTVSPost2010Prop40
 90
        0
102
RTVSPost2010PropOp40
 70
     1
102
RTVSPost2010Prop41ColorIndex
 90
       18
102
RTVSPost2010Prop41ColorRGB
 90
        0
102
RTVSPost2010PropOp41
 70
     1
102
RTVSPost2010Prop42
 90
       50
102
RTVSPost2010PropOp42
 70
     1
102
RTVSPost2010Prop43
 90
        3
102
RTVSPost2010PropOp43
 70
     1
102
RTVSPost2010Prop44ColorIndex
 90
        5
102
RTVSPost2010Prop44ColorRGB
 90
      255
102
RTVSPost2010PropOp44
 70
     1
102
RTVSPost2010Prop45
280
     0
102
RTVSPost2010PropOp45
 70
     1
102
RTVSPost2010Prop46
 90
       50
102
RTVSPost2010PropOp46
 70
     1
102
RTVSPost2010Prop47
 90
       50
102
RTVSPost2010PropOp47
 70
     1
102
RTVSPost2010Prop48
 90
       50
102
RTVSPost2010PropOp48
 70
     1
102
RTVSPost2010Prop49
280
     0
102
RTVSPost2010PropOp49
 70
     1
102
RTVSPost2010Prop50
 90
       50
102
RTVSPost2010PropOp50
 70
     1
102
RTVSPost2010Prop51ColorIndex
 90
      256
102
RTVSPost2010Prop51ColorRGB
 90
-16777216
102
RTVSPost2010PropOp51
 70
     0
102
RTVSPost2010Prop52
140
1.0
102
RTVSPost2010PropOp52
 70
     0
102
RTVSPost2010Prop53
 90
        2
102
RTVSPost2010PropOp53
 70
     1
102
RTVSPost2010Prop54
  1
strokes_ogs.tif
102
RTVSPost2010PropOp54
 70
     1
102
RTVSPost2010Prop55
280
     0
102
RTVSPost2010PropOp55
 70
     1
102
RTVSPost2010Prop56
140
1.0
102
RTVSPost2010PropOp56
 70
     1
102
RTVSPost2010Prop57
140
1.0
102
RTVSPost2010PropOp57
 70
     1
102
RTVSPropertyOp0
 70
     1
102
RTVSPropertyOp1
 70
     1
102
RTVSPropertyOp2
 70
     1
102
RTVSPropertyOp3
 70
     1
102
RTVSPropertyOp4
 70
     1
102
RTVSPropertyOp5
 70
     1
102
RTVSPropertyOp6
 70
     1
102
RTVSPropertyOp7
 70
     1
102
RTVSPropertyOp8
 70
     1
102
RTVSPropertyOp9
 70
     1
102
RTVSPropertyOp10
 70
     1
102
RTVSPropertyOp11
 70
     1
102
RTVSPropertyOp12
 70
     1
102
RTVSPropertyOp13
 70
     1
102
RTVSPropertyOp14
 70
     1
102
RTVSPropertyOp15
 70
     1
102
RTVSPropertyOp16
 70
     1
102
RTVSPropertyOp17
 70
     1
102
RTVSPropertyOp18
 70
     1
102
RTVSPropertyOp19
 70
     1
102
RTVSPropertyOp20
 70
     1
102
RTVSPropertyOp21
 70
     1
102
RTVSPropertyOp22
 70
     1
102
RTVSPropertyOp23
 70
     1
102
RTVSPropertyOp24
 70
     1
102
RTVSPropertyOp25
 70
     1
102
RTVSPropertyOp26
 70
     1
102
RTVSPropertyOp27
 70
     1
102
RTVSPropertyOp28
 70
     1
102
RTVSPropertyOp29
 70
     1
102
RTVSPropertyOp30
 70
     1
102
RTVSPropertyOp31
 70
     1
102
RTVSPropertyOp32
 70
     1
102
RTVSPropertyOp33
 70
     1
102
RTVSPropertyOp34
 70
     1
102
RTVSPropertyOp35
 70
     1
102
RTVSPropertyOp36
 70
     1
102
RTVSPropertyOp37
 70
     1
102
RTVSPropertyOp38
 70
     1
102
RTVSPropertyOp39
 70
     1
102
RTVSPropertyOp40
 70
     1
102
RTVSPropertyOp41
 70
     1
102
RTVSPropertyOp42
 70
     1
102
RTVSPropertyOp43
 70
     1
102
RTVSPropertyOp44
 70
     1
102
RTVSPropertyOp45
 70
     1
102
RTVSPropertyOp46
 70
     1
102
RTVSPropertyOp47
 70
     1
102
RTVSPropertyOp48
 70
     1
102
RTVSPropertyOp49
 70
     1
102
RTVSPropertyOp50
 70
     1
102
RTVSPropertyOp51
 70
     0
102
RTVSPropertyOp52
 70
     0
102
RTVSPropertyOp53
 70
     1
102
RTVSPropertyOp54
 70
     1
102
RTVSPropertyOp55
 70
     1
102
RTVSPropertyOp56
 70
     1
102
RTVSPropertyOp57
 70
     1
102
RTVSPropertyOp58
 70
     1
102
RTVSPropertyOp59
 70
     1
102
RTVSPropertyOp60
 70
     1
102
RTVSPropertyOp61
 70
     1
102
RTVSPropertyOp62
 70
     1
  0
XRECORD
  5
811
102
{ACAD_REACTORS
330
810
102
}
330
810
100
AcDbXrecord
280
     1
102
RTVSPost2010Prop28
280
     0
102
RTVSPost2010PropOp28
 70
     1
102
RTVSPost2010Prop29
280
     1
102
RTVSPost2010PropOp29
 70
     1
102
RTVSPost2010Prop30
280
     1
102
RTVSPost2010PropOp30
 70
     1
102
RTVSPost2010Prop31
280
     0
102
RTVSPost2010PropOp31
 70
     1
102
RTVSPost2010Prop32
280
     0
102
RTVSPost2010PropOp32
 70
     1
102
RTVSPost2010Prop33
280
     0
102
RTVSPost2010PropOp33
 70
     1
102
RTVSPost2010Prop34
280
     0
102
RTVSPost2010PropOp34
 70
     1
102
RTVSPost2010Prop35
280
     0
102
RTVSPost2010PropOp35
 70
     1
102
RTVSPost2010Prop36
280
     0
102
RTVSPost2010PropOp36
 70
     1
102
RTVSPost2010Prop37
 90
       50
102
RTVSPost2010PropOp37
 70
     0
102
RTVSPost2010Prop38
140
0.0
102
RTVSPost2010PropOp38
 70
     0
102
RTVSPost2010Prop39
140
1.0
102
RTVSPost2010PropOp39
 70
     0
102
RTVSPost2010Prop40
 90
        0
102
RTVSPost2010PropOp40
 70
     0
102
RTVSPost2010Prop41ColorIndex
 90
       18
102
RTVSPost2010Prop41ColorRGB
 90
        0
102
RTVSPost2010PropOp41
 70
     0
102
RTVSPost2010Prop42
 90
       50
102
RTVSPost2010PropOp42
 70
     0
102
RTVSPost2010Prop43
 90
        3
102
RTVSPost2010PropOp43
 70
     0
102
RTVSPost2010Prop44ColorIndex
 90
        5
102
RTVSPost2010Prop44ColorRGB
 90
      255
102
RTVSPost2010PropOp44
 70
     0
102
RTVSPost2010Prop45
280
     0
102
RTVSPost2010PropOp45
 70
     1
102
RTVSPost2010Prop46
 90
       50
102
RTVSPost2010PropOp46
 70
     0
102
RTVSPost2010Prop47
 90
       50
102
RTVSPost2010PropOp47
 70
     0
102
RTVSPost2010Prop48
 90
       50
102
RTVSPost2010PropOp48
 70
     0
102
RTVSPost2010Prop49
280
     0
102
RTVSPost2010PropOp49
 70
     1
102
RTVSPost2010Prop50
 90
       50
102
RTVSPost2010PropOp50
 70
     0
102
RTVSPost2010Prop51ColorIndex
 90
      256
102
RTVSPost2010Prop51ColorRGB
 90
-16777216
102
RTVSPost2010PropOp51
 70
     0
102
RTVSPost2010Prop52
140
1.0
102
RTVSPost2010PropOp52
 70
     0
102
RTVSPost2010Prop53
 90
        2
102
RTVSPost2010PropOp53
 70
     0
102
RTVSPost2010Prop54
  1
strokes_ogs.tif
102
RTVSPost2010PropOp54
 70
     0
102
RTVSPost2010Prop55
280
     0
102
RTVSPost2010PropOp55
 70
     1
102
RTVSPost2010Prop56
140
1.0
102
RTVSPost2010PropOp56
 70
     0
102
RTVSPost2010Prop57
140
1.0
102
RTVSPost2010PropOp57
 70
     0
102
RTVSPropertyOp0
 70
     0
102
RTVSPropertyOp1
 70
     0
102
RTVSPropertyOp2
 70
     0
102
RTVSPropertyOp3
 70
     0
102
RTVSPropertyOp4
 70
     0
102
RTVSPropertyOp5
 70
     0
102
RTVSPropertyOp6
 70
     0
102
RTVSPropertyOp7
 70
     0
102
RTVSPropertyOp8
 70
     0
102
RTVSPropertyOp9
 70
     0
102
RTVSPropertyOp10
 70
     0
102
RTVSPropertyOp11
 70
     0
102
RTVSPropertyOp12
 70
     0
102
RTVSPropertyOp13
 70
     0
102
RTVSPropertyOp14
 70
     2
102
RTVSPropertyOp15
 70
     0
102
RTVSPropertyOp16
 70
     0
102
RTVSPropertyOp17
 70
     0
102
RTVSPropertyOp18
 70
     0
102
RTVSPropertyOp19
 70
     0
102
RTVSPropertyOp20
 70
     0
102
RTVSPropertyOp21
 70
     0
102
RTVSPropertyOp22
 70
     0
102
RTVSPropertyOp23
 70
     0
102
RTVSPropertyOp24
 70
     0
102
RTVSPropertyOp25
 70
     0
102
RTVSPropertyOp26
 70
     0
102
RTVSPropertyOp27
 70
     0
102
RTVSPropertyOp28
 70
     1
102
RTVSPropertyOp29
 70
     1
102
RTVSPropertyOp30
 70
     1
102
RTVSPropertyOp31
 70
     1
102
RTVSPropertyOp32
 70
     1
102
RTVSPropertyOp33
 70
     1
102
RTVSPropertyOp34
 70
     1
102
RTVSPropertyOp35
 70
     1
102
RTVSPropertyOp36
 70
     1
102
RTVSPropertyOp37
 70
     0
102
RTVSPropertyOp38
 70
     0
102
RTVSPropertyOp39
 70
     0
102
RTVSPropertyOp40
 70
     0
102
RTVSPropertyOp41
 70
     0
102
RTVSPropertyOp42
 70
     0
102
RTVSPropertyOp43
 70
     0
102
RTVSPropertyOp44
 70
     0
102
RTVSPropertyOp45
 70
     1
102
RTVSPropertyOp46
 70
     0
102
RTVSPropertyOp47
 70
     0
102
RTVSPropertyOp48
 70
     0
102
RTVSPropertyOp49
 70
     1
102
RTVSPropertyOp50
 70
     0
102
RTVSPropertyOp51
 70
     0
102
RTVSPropertyOp52
 70
     0
102
RTVSPropertyOp53
 70
     0
102
RTVSPropertyOp54
 70
     0
102
RTVSPropertyOp55
 70
     1
102
RTVSPropertyOp56
 70
     0
102
RTVSPropertyOp57
 70
     0
102
RTVSPropertyOp58
 70
     0
102
RTVSPropertyOp59
 70
     0
102
RTVSPropertyOp60
 70
     0
102
RTVSPropertyOp61
 70
     0
102
RTVSPropertyOp62
 70
     0
  0
XRECORD
  5
7FF
102
{ACAD_REACTORS
330
7FE
102
}
330
7FE
100
AcDbXrecord
280
     1
102
RTVSPost2010Prop28
280
     0
102
RTVSPost2010PropOp28
 70
     1
102
RTVSPost2010Prop29
280
     1
102
RTVSPost2010PropOp29
 70
     1
102
RTVSPost2010Prop30
280
     1
102
RTVSPost2010PropOp30
 70
     1
102
RTVSPost2010Prop31
280
     0
102
RTVSPost2010PropOp31
 70
     1
102
RTVSPost2010Prop32
280
     0
102
RTVSPost2010PropOp32
 70
     1
102
RTVSPost2010Prop33
280
     0
102
RTVSPost2010PropOp33
 70
     1
102
RTVSPost2010Prop34
280
     0
102
RTVSPost2010PropOp34
 70
     1
102
RTVSPost2010Prop35
280
     0
102
RTVSPost2010PropOp35
 70
     1
102
RTVSPost2010Prop36
280
     0
102
RTVSPost2010PropOp36
 70
     1
102
RTVSPost2010Prop37
 90
       50
102
RTVSPost2010PropOp37
 70
     1
102
RTVSPost2010Prop38
140
0.0
102
RTVSPost2010PropOp38
 70
     1
102
RTVSPost2010Prop39
140
1.0
102
RTVSPost2010PropOp39
 70
     1
102
RTVSPost2010Prop40
 90
        0
102
RTVSPost2010PropOp40
 70
     1
102
RTVSPost2010Prop41ColorIndex
 90
       18
102
RTVSPost2010Prop41ColorRGB
 90
        0
102
RTVSPost2010PropOp41
 70
     1
102
RTVSPost2010Prop42
 90
       50
102
RTVSPost2010PropOp42
 70
     1
102
RTVSPost2010Prop43
 90
        3
102
RTVSPost2010PropOp43
 70
     1
102
RTVSPost2010Prop44ColorIndex
 90
        5
102
RTVSPost2010Prop44ColorRGB
 90
      255
102
RTVSPost2010PropOp44
 70
     1
102
RTVSPost2010Prop45
280
     0
102
RTVSPost2010PropOp45
 70
     1
102
RTVSPost2010Prop46
 90
       50
102
RTVSPost2010PropOp46
 70
     1
102
RTVSPost2010Prop47
 90
       50
102
RTVSPost2010PropOp47
 70
     1
102
RTVSPost2010Prop48
 90
       50
102
RTVSPost2010PropOp48
 70
     1
102
RTVSPost2010Prop49
280
     0
102
RTVSPost2010PropOp49
 70
     1
102
RTVSPost2010Prop50
 90
       50
102
RTVSPost2010PropOp50
 70
     1
102
RTVSPost2010Prop51ColorIndex
 90
      256
102
RTVSPost2010Prop51ColorRGB
 90
-16777216
102
RTVSPost2010PropOp51
 70
     0
102
RTVSPost2010Prop52
140
1.0
102
RTVSPost2010PropOp52
 70
     0
102
RTVSPost2010Prop53
 90
        2
102
RTVSPost2010PropOp53
 70
     1
102
RTVSPost2010Prop54
  1
strokes_ogs.tif
102
RTVSPost2010PropOp54
 70
     1
102
RTVSPost2010Prop55
280
     0
102
RTVSPost2010PropOp55
 70
     1
102
RTVSPost2010Prop56
140
1.0
102
RTVSPost2010PropOp56
 70
     1
102
RTVSPost2010Prop57
140
1.0
102
RTVSPost2010PropOp57
 70
     1
102
RTVSPropertyOp0
 70
     1
102
RTVSPropertyOp1
 70
     1
102
RTVSPropertyOp2
 70
     1
102
RTVSPropertyOp3
 70
     1
102
RTVSPropertyOp4
 70
     1
102
RTVSPropertyOp5
 70
     1
102
RTVSPropertyOp6
 70
     1
102
RTVSPropertyOp7
 70
     1
102
RTVSPropertyOp8
 70
     1
102
RTVSPropertyOp9
 70
     1
102
RTVSPropertyOp10
 70
     1
102
RTVSPropertyOp11
 70
     1
102
RTVSPropertyOp12
 70
     1
102
RTVSPropertyOp13
 70
     1
102
RTVSPropertyOp14
 70
     1
102
RTVSPropertyOp15
 70
     1
102
RTVSPropertyOp16
 70
     1
102
RTVSPropertyOp17
 70
     1
102
RTVSPropertyOp18
 70
     1
102
RTVSPropertyOp19
 70
     1
102
RTVSPropertyOp20
 70
     1
102
RTVSPropertyOp21
 70
     1
102
RTVSPropertyOp22
 70
     1
102
RTVSPropertyOp23
 70
     1
102
RTVSPropertyOp24
 70
     1
102
RTVSPropertyOp25
 70
     1
102
RTVSPropertyOp26
 70
     1
102
RTVSPropertyOp27
 70
     1
102
RTVSPropertyOp28
 70
     1
102
RTVSPropertyOp29
 70
     1
102
RTVSPropertyOp30
 70
     1
102
RTVSPropertyOp31
 70
     1
102
RTVSPropertyOp32
 70
     1
102
RTVSPropertyOp33
 70
     1
102
RTVSPropertyOp34
 70
     1
102
RTVSPropertyOp35
 70
     1
102
RTVSPropertyOp36
 70
     1
102
RTVSPropertyOp37
 70
     1
102
RTVSPropertyOp38
 70
     1
102
RTVSPropertyOp39
 70
     1
102
RTVSPropertyOp40
 70
     1
102
RTVSPropertyOp41
 70
     1
102
RTVSPropertyOp42
 70
     1
102
RTVSPropertyOp43
 70
     1
102
RTVSPropertyOp44
 70
     1
102
RTVSPropertyOp45
 70
     1
102
RTVSPropertyOp46
 70
     1
102
RTVSPropertyOp47
 70
     1
102
RTVSPropertyOp48
 70
     1
102
RTVSPropertyOp49
 70
     1
102
RTVSPropertyOp50
 70
     1
102
RTVSPropertyOp51
 70
     0
102
RTVSPropertyOp52
 70
     0
102
RTVSPropertyOp53
 70
     1
102
RTVSPropertyOp54
 70
     1
102
RTVSPropertyOp55
 70
     1
102
RTVSPropertyOp56
 70
     1
102
RTVSPropertyOp57
 70
     1
102
RTVSPropertyOp58
 70
     1
102
RTVSPropertyOp59
 70
     1
102
RTVSPropertyOp60
 70
     1
102
RTVSPropertyOp61
 70
     1
102
RTVSPropertyOp62
 70
     1
  0
XRECORD
  5
7E3
102
{ACAD_REACTORS
330
7E2
102
}
330
7E2
100
AcDbXrecord
280
     1
102
RTVSPost2010Prop28
280
     0
102
RTVSPost2010PropOp28
 70
     1
102
RTVSPost2010Prop29
280
     1
102
RTVSPost2010PropOp29
 70
     1
102
RTVSPost2010Prop30
280
     1
102
RTVSPost2010PropOp30
 70
     1
102
RTVSPost2010Prop31
280
     0
102
RTVSPost2010PropOp31
 70
     1
102
RTVSPost2010Prop32
280
     0
102
RTVSPost2010PropOp32
 70
     1
102
RTVSPost2010Prop33
280
     0
102
RTVSPost2010PropOp33
 70
     1
102
RTVSPost2010Prop34
280
     0
102
RTVSPost2010PropOp34
 70
     1
102
RTVSPost2010Prop35
280
     0
102
RTVSPost2010PropOp35
 70
     1
102
RTVSPost2010Prop36
280
     0
102
RTVSPost2010PropOp36
 70
     1
102
RTVSPost2010Prop37
 90
       50
102
RTVSPost2010PropOp37
 70
     1
102
RTVSPost2010Prop38
140
0.0
102
RTVSPost2010PropOp38
 70
     1
102
RTVSPost2010Prop39
140
1.0
102
RTVSPost2010PropOp39
 70
     1
102
RTVSPost2010Prop40
 90
        0
102
RTVSPost2010PropOp40
 70
     1
102
RTVSPost2010Prop41ColorIndex
 90
       18
102
RTVSPost2010Prop41ColorRGB
 90
        0
102
RTVSPost2010PropOp41
 70
     1
102
RTVSPost2010Prop42
 90
       50
102
RTVSPost2010PropOp42
 70
     1
102
RTVSPost2010Prop43
 90
        3
102
RTVSPost2010PropOp43
 70
     1
102
RTVSPost2010Prop44ColorIndex
 90
        5
102
RTVSPost2010Prop44ColorRGB
 90
      255
102
RTVSPost2010PropOp44
 70
     1
102
RTVSPost2010Prop45
280
     0
102
RTVSPost2010PropOp45
 70
     1
102
RTVSPost2010Prop46
 90
       50
102
RTVSPost2010PropOp46
 70
     1
102
RTVSPost2010Prop47
 90
       50
102
RTVSPost2010PropOp47
 70
     1
102
RTVSPost2010Prop48
 90
       50
102
RTVSPost2010PropOp48
 70
     1
102
RTVSPost2010Prop49
280
     0
102
RTVSPost2010PropOp49
 70
     1
102
RTVSPost2010Prop50
 90
       50
102
RTVSPost2010PropOp50
 70
     1
102
RTVSPost2010Prop51ColorIndex
 90
      256
102
RTVSPost2010Prop51ColorRGB
 90
-16777216
102
RTVSPost2010PropOp51
 70
     0
102
RTVSPost2010Prop52
140
1.0
102
RTVSPost2010PropOp52
 70
     0
102
RTVSPost2010Prop53
 90
        2
102
RTVSPost2010PropOp53
 70
     1
102
RTVSPost2010Prop54
  1
strokes_ogs.tif
102
RTVSPost2010PropOp54
 70
     1
102
RTVSPost2010Prop55
280
     0
102
RTVSPost2010PropOp55
 70
     1
102
RTVSPost2010Prop56
140
1.0
102
RTVSPost2010PropOp56
 70
     1
102
RTVSPost2010Prop57
140
1.0
102
RTVSPost2010PropOp57
 70
     1
102
RTVSPropertyOp0
 70
     1
102
RTVSPropertyOp1
 70
     1
102
RTVSPropertyOp2
 70
     1
102
RTVSPropertyOp3
 70
     1
102
RTVSPropertyOp4
 70
     1
102
RTVSPropertyOp5
 70
     1
102
RTVSPropertyOp6
 70
     1
102
RTVSPropertyOp7
 70
     1
102
RTVSPropertyOp8
 70
     1
102
RTVSPropertyOp9
 70
     1
102
RTVSPropertyOp10
 70
     1
102
RTVSPropertyOp11
 70
     1
102
RTVSPropertyOp12
 70
     1
102
RTVSPropertyOp13
 70
     1
102
RTVSPropertyOp14
 70
     1
102
RTVSPropertyOp15
 70
     1
102
RTVSPropertyOp16
 70
     1
102
RTVSPropertyOp17
 70
     1
102
RTVSPropertyOp18
 70
     1
102
RTVSPropertyOp19
 70
     1
102
RTVSPropertyOp20
 70
     1
102
RTVSPropertyOp21
 70
     1
102
RTVSPropertyOp22
 70
     1
102
RTVSPropertyOp23
 70
     1
102
RTVSPropertyOp24
 70
     1
102
RTVSPropertyOp25
 70
     1
102
RTVSPropertyOp26
 70
     1
102
RTVSPropertyOp27
 70
     1
102
RTVSPropertyOp28
 70
     1
102
RTVSPropertyOp29
 70
     1
102
RTVSPropertyOp30
 70
     1
102
RTVSPropertyOp31
 70
     1
102
RTVSPropertyOp32
 70
     1
102
RTVSPropertyOp33
 70
     1
102
RTVSPropertyOp34
 70
     1
102
RTVSPropertyOp35
 70
     1
102
RTVSPropertyOp36
 70
     1
102
RTVSPropertyOp37
 70
     1
102
RTVSPropertyOp38
 70
     1
102
RTVSPropertyOp39
 70
     1
102
RTVSPropertyOp40
 70
     1
102
RTVSPropertyOp41
 70
     1
102
RTVSPropertyOp42
 70
     1
102
RTVSPropertyOp43
 70
     1
102
RTVSPropertyOp44
 70
     1
102
RTVSPropertyOp45
 70
     1
102
RTVSPropertyOp46
 70
     1
102
RTVSPropertyOp47
 70
     1
102
RTVSPropertyOp48
 70
     1
102
RTVSPropertyOp49
 70
     1
102
RTVSPropertyOp50
 70
     1
102
RTVSPropertyOp51
 70
     0
102
RTVSPropertyOp52
 70
     0
102
RTVSPropertyOp53
 70
     1
102
RTVSPropertyOp54
 70
     1
102
RTVSPropertyOp55
 70
     1
102
RTVSPropertyOp56
 70
     1
102
RTVSPropertyOp57
 70
     1
102
RTVSPropertyOp58
 70
     1
102
RTVSPropertyOp59
 70
     1
102
RTVSPropertyOp60
 70
     1
102
RTVSPropertyOp61
 70
     1
102
RTVSPropertyOp62
 70
     1
  0
XRECORD
  5
7E5
102
{ACAD_REACTORS
330
7E4
102
}
330
7E4
100
AcDbXrecord
280
     1
102
RTVSPost2010Prop28
280
     0
102
RTVSPost2010PropOp28
 70
     1
102
RTVSPost2010Prop29
280
     1
102
RTVSPost2010PropOp29
 70
     1
102
RTVSPost2010Prop30
280
     1
102
RTVSPost2010PropOp30
 70
     1
102
RTVSPost2010Prop31
280
     0
102
RTVSPost2010PropOp31
 70
     1
102
RTVSPost2010Prop32
280
     0
102
RTVSPost2010PropOp32
 70
     1
102
RTVSPost2010Prop33
280
     0
102
RTVSPost2010PropOp33
 70
     1
102
RTVSPost2010Prop34
280
     0
102
RTVSPost2010PropOp34
 70
     1
102
RTVSPost2010Prop35
280
     0
102
RTVSPost2010PropOp35
 70
     1
102
RTVSPost2010Prop36
280
     0
102
RTVSPost2010PropOp36
 70
     1
102
RTVSPost2010Prop37
 90
       50
102
RTVSPost2010PropOp37
 70
     1
102
RTVSPost2010Prop38
140
0.0
102
RTVSPost2010PropOp38
 70
     1
102
RTVSPost2010Prop39
140
1.0
102
RTVSPost2010PropOp39
 70
     1
102
RTVSPost2010Prop40
 90
        0
102
RTVSPost2010PropOp40
 70
     1
102
RTVSPost2010Prop41ColorIndex
 90
       18
102
RTVSPost2010Prop41ColorRGB
 90
        0
102
RTVSPost2010PropOp41
 70
     1
102
RTVSPost2010Prop42
 90
       50
102
RTVSPost2010PropOp42
 70
     1
102
RTVSPost2010Prop43
 90
        3
102
RTVSPost2010PropOp43
 70
     1
102
RTVSPost2010Prop44ColorIndex
 90
        5
102
RTVSPost2010Prop44ColorRGB
 90
      255
102
RTVSPost2010PropOp44
 70
     1
102
RTVSPost2010Prop45
280
     0
102
RTVSPost2010PropOp45
 70
     1
102
RTVSPost2010Prop46
 90
       50
102
RTVSPost2010PropOp46
 70
     1
102
RTVSPost2010Prop47
 90
       50
102
RTVSPost2010PropOp47
 70
     1
102
RTVSPost2010Prop48
 90
       50
102
RTVSPost2010PropOp48
 70
     1
102
RTVSPost2010Prop49
280
     0
102
RTVSPost2010PropOp49
 70
     1
102
RTVSPost2010Prop50
 90
       50
102
RTVSPost2010PropOp50
 70
     1
102
RTVSPost2010Prop51ColorIndex
 90
      256
102
RTVSPost2010Prop51ColorRGB
 90
-16777216
102
RTVSPost2010PropOp51
 70
     0
102
RTVSPost2010Prop52
140
1.0
102
RTVSPost2010PropOp52
 70
     0
102
RTVSPost2010Prop53
 90
        2
102
RTVSPost2010PropOp53
 70
     1
102
RTVSPost2010Prop54
  1
strokes_ogs.tif
102
RTVSPost2010PropOp54
 70
     1
102
RTVSPost2010Prop55
280
     0
102
RTVSPost2010PropOp55
 70
     1
102
RTVSPost2010Prop56
140
1.0
102
RTVSPost2010PropOp56
 70
     1
102
RTVSPost2010Prop57
140
1.0
102
RTVSPost2010PropOp57
 70
     1
102
RTVSPropertyOp0
 70
     1
102
RTVSPropertyOp1
 70
     1
102
RTVSPropertyOp2
 70
     1
102
RTVSPropertyOp3
 70
     1
102
RTVSPropertyOp4
 70
     1
102
RTVSPropertyOp5
 70
     1
102
RTVSPropertyOp6
 70
     1
102
RTVSPropertyOp7
 70
     1
102
RTVSPropertyOp8
 70
     1
102
RTVSPropertyOp9
 70
     1
102
RTVSPropertyOp10
 70
     1
102
RTVSPropertyOp11
 70
     1
102
RTVSPropertyOp12
 70
     1
102
RTVSPropertyOp13
 70
     1
102
RTVSPropertyOp14
 70
     1
102
RTVSPropertyOp15
 70
     1
102
RTVSPropertyOp16
 70
     1
102
RTVSPropertyOp17
 70
     1
102
RTVSPropertyOp18
 70
     1
102
RTVSPropertyOp19
 70
     1
102
RTVSPropertyOp20
 70
     1
102
RTVSPropertyOp21
 70
     1
102
RTVSPropertyOp22
 70
     1
102
RTVSPropertyOp23
 70
     1
102
RTVSPropertyOp24
 70
     1
102
RTVSPropertyOp25
 70
     1
102
RTVSPropertyOp26
 70
     1
102
RTVSPropertyOp27
 70
     1
102
RTVSPropertyOp28
 70
     1
102
RTVSPropertyOp29
 70
     1
102
RTVSPropertyOp30
 70
     1
102
RTVSPropertyOp31
 70
     1
102
RTVSPropertyOp32
 70
     1
102
RTVSPropertyOp33
 70
     1
102
RTVSPropertyOp34
 70
     1
102
RTVSPropertyOp35
 70
     1
102
RTVSPropertyOp36
 70
     1
102
RTVSPropertyOp37
 70
     1
102
RTVSPropertyOp38
 70
     1
102
RTVSPropertyOp39
 70
     1
102
RTVSPropertyOp40
 70
     1
102
RTVSPropertyOp41
 70
     1
102
RTVSPropertyOp42
 70
     1
102
RTVSPropertyOp43
 70
     1
102
RTVSPropertyOp44
 70
     1
102
RTVSPropertyOp45
 70
     1
102
RTVSPropertyOp46
 70
     1
102
RTVSPropertyOp47
 70
     1
102
RTVSPropertyOp48
 70
     1
102
RTVSPropertyOp49
 70
     1
102
RTVSPropertyOp50
 70
     1
102
RTVSPropertyOp51
 70
     0
102
RTVSPropertyOp52
 70
     0
102
RTVSPropertyOp53
 70
     1
102
RTVSPropertyOp54
 70
     1
102
RTVSPropertyOp55
 70
     1
102
RTVSPropertyOp56
 70
     1
102
RTVSPropertyOp57
 70
     1
102
RTVSPropertyOp58
 70
     1
102
RTVSPropertyOp59
 70
     1
102
RTVSPropertyOp60
 70
     1
102
RTVSPropertyOp61
 70
     1
102
RTVSPropertyOp62
 70
     1
  0
XRECORD
  5
7E7
102
{ACAD_REACTORS
330
7E6
102
}
330
7E6
100
AcDbXrecord
280
     1
102
RTVSPost2010Prop28
280
     0
102
RTVSPost2010PropOp28
 70
     1
102
RTVSPost2010Prop29
280
     1
102
RTVSPost2010PropOp29
 70
     1
102
RTVSPost2010Prop30
280
     1
102
RTVSPost2010PropOp30
 70
     1
102
RTVSPost2010Prop31
280
     0
102
RTVSPost2010PropOp31
 70
     1
102
RTVSPost2010Prop32
280
     0
102
RTVSPost2010PropOp32
 70
     1
102
RTVSPost2010Prop33
280
     0
102
RTVSPost2010PropOp33
 70
     1
102
RTVSPost2010Prop34
280
     0
102
RTVSPost2010PropOp34
 70
     1
102
RTVSPost2010Prop35
280
     0
102
RTVSPost2010PropOp35
 70
     1
102
RTVSPost2010Prop36
280
     0
102
RTVSPost2010PropOp36
 70
     1
102
RTVSPost2010Prop37
 90
       50
102
RTVSPost2010PropOp37
 70
     1
102
RTVSPost2010Prop38
140
0.0
102
RTVSPost2010PropOp38
 70
     1
102
RTVSPost2010Prop39
140
1.0
102
RTVSPost2010PropOp39
 70
     1
102
RTVSPost2010Prop40
 90
        0
102
RTVSPost2010PropOp40
 70
     1
102
RTVSPost2010Prop41ColorIndex
 90
       18
102
RTVSPost2010Prop41ColorRGB
 90
        0
102
RTVSPost2010PropOp41
 70
     1
102
RTVSPost2010Prop42
 90
       50
102
RTVSPost2010PropOp42
 70
     1
102
RTVSPost2010Prop43
 90
        3
102
RTVSPost2010PropOp43
 70
     1
102
RTVSPost2010Prop44ColorIndex
 90
        5
102
RTVSPost2010Prop44ColorRGB
 90
      255
102
RTVSPost2010PropOp44
 70
     1
102
RTVSPost2010Prop45
280
     0
102
RTVSPost2010PropOp45
 70
     1
102
RTVSPost2010Prop46
 90
       50
102
RTVSPost2010PropOp46
 70
     1
102
RTVSPost2010Prop47
 90
       50
102
RTVSPost2010PropOp47
 70
     1
102
RTVSPost2010Prop48
 90
       50
102
RTVSPost2010PropOp48
 70
     1
102
RTVSPost2010Prop49
280
     0
102
RTVSPost2010PropOp49
 70
     1
102
RTVSPost2010Prop50
 90
       50
102
RTVSPost2010PropOp50
 70
     1
102
RTVSPost2010Prop51ColorIndex
 90
      256
102
RTVSPost2010Prop51ColorRGB
 90
-16777216
102
RTVSPost2010PropOp51
 70
     0
102
RTVSPost2010Prop52
140
1.0
102
RTVSPost2010PropOp52
 70
     0
102
RTVSPost2010Prop53
 90
        2
102
RTVSPost2010PropOp53
 70
     1
102
RTVSPost2010Prop54
  1
strokes_ogs.tif
102
RTVSPost2010PropOp54
 70
     1
102
RTVSPost2010Prop55
280
     0
102
RTVSPost2010PropOp55
 70
     1
102
RTVSPost2010Prop56
140
1.0
102
RTVSPost2010PropOp56
 70
     1
102
RTVSPost2010Prop57
140
1.0
102
RTVSPost2010PropOp57
 70
     1
102
RTVSPropertyOp0
 70
     1
102
RTVSPropertyOp1
 70
     1
102
RTVSPropertyOp2
 70
     1
102
RTVSPropertyOp3
 70
     1
102
RTVSPropertyOp4
 70
     1
102
RTVSPropertyOp5
 70
     1
102
RTVSPropertyOp6
 70
     1
102
RTVSPropertyOp7
 70
     1
102
RTVSPropertyOp8
 70
     1
102
RTVSPropertyOp9
 70
     1
102
RTVSPropertyOp10
 70
     1
102
RTVSPropertyOp11
 70
     1
102
RTVSPropertyOp12
 70
     1
102
RTVSPropertyOp13
 70
     1
102
RTVSPropertyOp14
 70
     1
102
RTVSPropertyOp15
 70
     1
102
RTVSPropertyOp16
 70
     1
102
RTVSPropertyOp17
 70
     1
102
RTVSPropertyOp18
 70
     1
102
RTVSPropertyOp19
 70
     1
102
RTVSPropertyOp20
 70
     1
102
RTVSPropertyOp21
 70
     1
102
RTVSPropertyOp22
 70
     1
102
RTVSPropertyOp23
 70
     1
102
RTVSPropertyOp24
 70
     1
102
RTVSPropertyOp25
 70
     1
102
RTVSPropertyOp26
 70
     1
102
RTVSPropertyOp27
 70
     1
102
RTVSPropertyOp28
 70
     1
102
RTVSPropertyOp29
 70
     1
102
RTVSPropertyOp30
 70
     1
102
RTVSPropertyOp31
 70
     1
102
RTVSPropertyOp32
 70
     1
102
RTVSPropertyOp33
 70
     1
102
RTVSPropertyOp34
 70
     1
102
RTVSPropertyOp35
 70
     1
102
RTVSPropertyOp36
 70
     1
102
RTVSPropertyOp37
 70
     1
102
RTVSPropertyOp38
 70
     1
102
RTVSPropertyOp39
 70
     1
102
RTVSPropertyOp40
 70
     1
102
RTVSPropertyOp41
 70
     1
102
RTVSPropertyOp42
 70
     1
102
RTVSPropertyOp43
 70
     1
102
RTVSPropertyOp44
 70
     1
102
RTVSPropertyOp45
 70
     1
102
RTVSPropertyOp46
 70
     1
102
RTVSPropertyOp47
 70
     1
102
RTVSPropertyOp48
 70
     1
102
RTVSPropertyOp49
 70
     1
102
RTVSPropertyOp50
 70
     1
102
RTVSPropertyOp51
 70
     0
102
RTVSPropertyOp52
 70
     0
102
RTVSPropertyOp53
 70
     1
102
RTVSPropertyOp54
 70
     1
102
RTVSPropertyOp55
 70
     1
102
RTVSPropertyOp56
 70
     1
102
RTVSPropertyOp57
 70
     1
102
RTVSPropertyOp58
 70
     1
102
RTVSPropertyOp59
 70
     1
102
RTVSPropertyOp60
 70
     1
102
RTVSPropertyOp61
 70
     1
102
RTVSPropertyOp62
 70
     1
  0
XRECORD
  5
7E9
102
{ACAD_REACTORS
330
7E8
102
}
330
7E8
100
AcDbXrecord
280
     1
102
RTVSPost2010Prop28
280
     0
102
RTVSPost2010PropOp28
 70
     1
102
RTVSPost2010Prop29
280
     1
102
RTVSPost2010PropOp29
 70
     1
102
RTVSPost2010Prop30
280
     1
102
RTVSPost2010PropOp30
 70
     1
102
RTVSPost2010Prop31
280
     0
102
RTVSPost2010PropOp31
 70
     1
102
RTVSPost2010Prop32
280
     0
102
RTVSPost2010PropOp32
 70
     1
102
RTVSPost2010Prop33
280
     0
102
RTVSPost2010PropOp33
 70
     1
102
RTVSPost2010Prop34
280
     0
102
RTVSPost2010PropOp34
 70
     1
102
RTVSPost2010Prop35
280
     0
102
RTVSPost2010PropOp35
 70
     1
102
RTVSPost2010Prop36
280
     0
102
RTVSPost2010PropOp36
 70
     1
102
RTVSPost2010Prop37
 90
       50
102
RTVSPost2010PropOp37
 70
     1
102
RTVSPost2010Prop38
140
0.0
102
RTVSPost2010PropOp38
 70
     1
102
RTVSPost2010Prop39
140
1.0
102
RTVSPost2010PropOp39
 70
     1
102
RTVSPost2010Prop40
 90
        0
102
RTVSPost2010PropOp40
 70
     1
102
RTVSPost2010Prop41ColorIndex
 90
       18
102
RTVSPost2010Prop41ColorRGB
 90
        0
102
RTVSPost2010PropOp41
 70
     1
102
RTVSPost2010Prop42
 90
       50
102
RTVSPost2010PropOp42
 70
     1
102
RTVSPost2010Prop43
 90
        3
102
RTVSPost2010PropOp43
 70
     1
102
RTVSPost2010Prop44ColorIndex
 90
        5
102
RTVSPost2010Prop44ColorRGB
 90
      255
102
RTVSPost2010PropOp44
 70
     1
102
RTVSPost2010Prop45
280
     0
102
RTVSPost2010PropOp45
 70
     1
102
RTVSPost2010Prop46
 90
       50
102
RTVSPost2010PropOp46
 70
     1
102
RTVSPost2010Prop47
 90
       50
102
RTVSPost2010PropOp47
 70
     1
102
RTVSPost2010Prop48
 90
       50
102
RTVSPost2010PropOp48
 70
     1
102
RTVSPost2010Prop49
280
     0
102
RTVSPost2010PropOp49
 70
     1
102
RTVSPost2010Prop50
 90
       50
102
RTVSPost2010PropOp50
 70
     1
102
RTVSPost2010Prop51ColorIndex
 90
      256
102
RTVSPost2010Prop51ColorRGB
 90
-16777216
102
RTVSPost2010PropOp51
 70
     0
102
RTVSPost2010Prop52
140
1.0
102
RTVSPost2010PropOp52
 70
     0
102
RTVSPost2010Prop53
 90
        2
102
RTVSPost2010PropOp53
 70
     1
102
RTVSPost2010Prop54
  1
strokes_ogs.tif
102
RTVSPost2010PropOp54
 70
     1
102
RTVSPost2010Prop55
280
     0
102
RTVSPost2010PropOp55
 70
     1
102
RTVSPost2010Prop56
140
1.0
102
RTVSPost2010PropOp56
 70
     1
102
RTVSPost2010Prop57
140
1.0
102
RTVSPost2010PropOp57
 70
     1
102
RTVSPropertyOp0
 70
     1
102
RTVSPropertyOp1
 70
     1
102
RTVSPropertyOp2
 70
     1
102
RTVSPropertyOp3
 70
     1
102
RTVSPropertyOp4
 70
     1
102
RTVSPropertyOp5
 70
     1
102
RTVSPropertyOp6
 70
     1
102
RTVSPropertyOp7
 70
     1
102
RTVSPropertyOp8
 70
     1
102
RTVSPropertyOp9
 70
     1
102
RTVSPropertyOp10
 70
     1
102
RTVSPropertyOp11
 70
     1
102
RTVSPropertyOp12
 70
     1
102
RTVSPropertyOp13
 70
     1
102
RTVSPropertyOp14
 70
     1
102
RTVSPropertyOp15
 70
     1
102
RTVSPropertyOp16
 70
     1
102
RTVSPropertyOp17
 70
     1
102
RTVSPropertyOp18
 70
     1
102
RTVSPropertyOp19
 70
     1
102
RTVSPropertyOp20
 70
     1
102
RTVSPropertyOp21
 70
     1
102
RTVSPropertyOp22
 70
     1
102
RTVSPropertyOp23
 70
     1
102
RTVSPropertyOp24
 70
     1
102
RTVSPropertyOp25
 70
     1
102
RTVSPropertyOp26
 70
     1
102
RTVSPropertyOp27
 70
     1
102
RTVSPropertyOp28
 70
     1
102
RTVSPropertyOp29
 70
     1
102
RTVSPropertyOp30
 70
     1
102
RTVSPropertyOp31
 70
     1
102
RTVSPropertyOp32
 70
     1
102
RTVSPropertyOp33
 70
     1
102
RTVSPropertyOp34
 70
     1
102
RTVSPropertyOp35
 70
     1
102
RTVSPropertyOp36
 70
     1
102
RTVSPropertyOp37
 70
     1
102
RTVSPropertyOp38
 70
     1
102
RTVSPropertyOp39
 70
     1
102
RTVSPropertyOp40
 70
     1
102
RTVSPropertyOp41
 70
     1
102
RTVSPropertyOp42
 70
     1
102
RTVSPropertyOp43
 70
     1
102
RTVSPropertyOp44
 70
     1
102
RTVSPropertyOp45
 70
     1
102
RTVSPropertyOp46
 70
     1
102
RTVSPropertyOp47
 70
     1
102
RTVSPropertyOp48
 70
     1
102
RTVSPropertyOp49
 70
     1
102
RTVSPropertyOp50
 70
     1
102
RTVSPropertyOp51
 70
     0
102
RTVSPropertyOp52
 70
     0
102
RTVSPropertyOp53
 70
     1
102
RTVSPropertyOp54
 70
     1
102
RTVSPropertyOp55
 70
     1
102
RTVSPropertyOp56
 70
     1
102
RTVSPropertyOp57
 70
     1
102
RTVSPropertyOp58
 70
     1
102
RTVSPropertyOp59
 70
     1
102
RTVSPropertyOp60
 70
     1
102
RTVSPropertyOp61
 70
     1
102
RTVSPropertyOp62
 70
     1
  0
XRECORD
  5
7F1
102
{ACAD_REACTORS
330
7F0
102
}
330
7F0
100
AcDbXrecord
280
     1
102
RTVSPost2010Prop28
280
     0
102
RTVSPost2010PropOp28
 70
     1
102
RTVSPost2010Prop29
280
     1
102
RTVSPost2010PropOp29
 70
     1
102
RTVSPost2010Prop30
280
     1
102
RTVSPost2010PropOp30
 70
     1
102
RTVSPost2010Prop31
280
     0
102
RTVSPost2010PropOp31
 70
     1
102
RTVSPost2010Prop32
280
     0
102
RTVSPost2010PropOp32
 70
     1
102
RTVSPost2010Prop33
280
     0
102
RTVSPost2010PropOp33
 70
     1
102
RTVSPost2010Prop34
280
     0
102
RTVSPost2010PropOp34
 70
     1
102
RTVSPost2010Prop35
280
     0
102
RTVSPost2010PropOp35
 70
     1
102
RTVSPost2010Prop36
280
     0
102
RTVSPost2010PropOp36
 70
     1
102
RTVSPost2010Prop37
 90
       50
102
RTVSPost2010PropOp37
 70
     1
102
RTVSPost2010Prop38
140
0.0
102
RTVSPost2010PropOp38
 70
     1
102
RTVSPost2010Prop39
140
1.0
102
RTVSPost2010PropOp39
 70
     1
102
RTVSPost2010Prop40
 90
        0
102
RTVSPost2010PropOp40
 70
     1
102
RTVSPost2010Prop41ColorIndex
 90
       18
102
RTVSPost2010Prop41ColorRGB
 90
        0
102
RTVSPost2010PropOp41
 70
     1
102
RTVSPost2010Prop42
 90
       50
102
RTVSPost2010PropOp42
 70
     1
102
RTVSPost2010Prop43
 90
        3
102
RTVSPost2010PropOp43
 70
     1
102
RTVSPost2010Prop44ColorIndex
 90
        5
102
RTVSPost2010Prop44ColorRGB
 90
      255
102
RTVSPost2010PropOp44
 70
     1
102
RTVSPost2010Prop45
280
     0
102
RTVSPost2010PropOp45
 70
     1
102
RTVSPost2010Prop46
 90
       50
102
RTVSPost2010PropOp46
 70
     1
102
RTVSPost2010Prop47
 90
       50
102
RTVSPost2010PropOp47
 70
     1
102
RTVSPost2010Prop48
 90
       50
102
RTVSPost2010PropOp48
 70
     1
102
RTVSPost2010Prop49
280
     0
102
RTVSPost2010PropOp49
 70
     1
102
RTVSPost2010Prop50
 90
       50
102
RTVSPost2010PropOp50
 70
     1
102
RTVSPost2010Prop51ColorIndex
 90
      256
102
RTVSPost2010Prop51ColorRGB
 90
-16777216
102
RTVSPost2010PropOp51
 70
     0
102
RTVSPost2010Prop52
140
1.0
102
RTVSPost2010PropOp52
 70
     0
102
RTVSPost2010Prop53
 90
        2
102
RTVSPost2010PropOp53
 70
     1
102
RTVSPost2010Prop54
  1
strokes_ogs.tif
102
RTVSPost2010PropOp54
 70
     1
102
RTVSPost2010Prop55
280
     0
102
RTVSPost2010PropOp55
 70
     1
102
RTVSPost2010Prop56
140
1.0
102
RTVSPost2010PropOp56
 70
     1
102
RTVSPost2010Prop57
140
1.0
102
RTVSPost2010PropOp57
 70
     1
102
RTVSPropertyOp0
 70
     1
102
RTVSPropertyOp1
 70
     1
102
RTVSPropertyOp2
 70
     1
102
RTVSPropertyOp3
 70
     1
102
RTVSPropertyOp4
 70
     1
102
RTVSPropertyOp5
 70
     1
102
RTVSPropertyOp6
 70
     1
102
RTVSPropertyOp7
 70
     1
102
RTVSPropertyOp8
 70
     1
102
RTVSPropertyOp9
 70
     1
102
RTVSPropertyOp10
 70
     1
102
RTVSPropertyOp11
 70
     1
102
RTVSPropertyOp12
 70
     1
102
RTVSPropertyOp13
 70
     1
102
RTVSPropertyOp14
 70
     1
102
RTVSPropertyOp15
 70
     1
102
RTVSPropertyOp16
 70
     1
102
RTVSPropertyOp17
 70
     1
102
RTVSPropertyOp18
 70
     1
102
RTVSPropertyOp19
 70
     1
102
RTVSPropertyOp20
 70
     1
102
RTVSPropertyOp21
 70
     1
102
RTVSPropertyOp22
 70
     1
102
RTVSPropertyOp23
 70
     1
102
RTVSPropertyOp24
 70
     1
102
RTVSPropertyOp25
 70
     1
102
RTVSPropertyOp26
 70
     1
102
RTVSPropertyOp27
 70
     1
102
RTVSPropertyOp28
 70
     1
102
RTVSPropertyOp29
 70
     1
102
RTVSPropertyOp30
 70
     1
102
RTVSPropertyOp31
 70
     1
102
RTVSPropertyOp32
 70
     1
102
RTVSPropertyOp33
 70
     1
102
RTVSPropertyOp34
 70
     1
102
RTVSPropertyOp35
 70
     1
102
RTVSPropertyOp36
 70
     1
102
RTVSPropertyOp37
 70
     1
102
RTVSPropertyOp38
 70
     1
102
RTVSPropertyOp39
 70
     1
102
RTVSPropertyOp40
 70
     1
102
RTVSPropertyOp41
 70
     1
102
RTVSPropertyOp42
 70
     1
102
RTVSPropertyOp43
 70
     1
102
RTVSPropertyOp44
 70
     1
102
RTVSPropertyOp45
 70
     1
102
RTVSPropertyOp46
 70
     1
102
RTVSPropertyOp47
 70
     1
102
RTVSPropertyOp48
 70
     1
102
RTVSPropertyOp49
 70
     1
102
RTVSPropertyOp50
 70
     1
102
RTVSPropertyOp51
 70
     0
102
RTVSPropertyOp52
 70
     0
102
RTVSPropertyOp53
 70
     1
102
RTVSPropertyOp54
 70
     1
102
RTVSPropertyOp55
 70
     1
102
RTVSPropertyOp56
 70
     1
102
RTVSPropertyOp57
 70
     1
102
RTVSPropertyOp58
 70
     1
102
RTVSPropertyOp59
 70
     1
102
RTVSPropertyOp60
 70
     1
102
RTVSPropertyOp61
 70
     1
102
RTVSPropertyOp62
 70
     1
  0
XRECORD
  5
80D
102
{ACAD_REACTORS
330
80C
102
}
330
80C
100
AcDbXrecord
280
     1
102
RTVSPost2010Prop28
280
     0
102
RTVSPost2010PropOp28
 70
     1
102
RTVSPost2010Prop29
280
     1
102
RTVSPost2010PropOp29
 70
     1
102
RTVSPost2010Prop30
280
     1
102
RTVSPost2010PropOp30
 70
     1
102
RTVSPost2010Prop31
280
     0
102
RTVSPost2010PropOp31
 70
     1
102
RTVSPost2010Prop32
280
     0
102
RTVSPost2010PropOp32
 70
     1
102
RTVSPost2010Prop33
280
     0
102
RTVSPost2010PropOp33
 70
     1
102
RTVSPost2010Prop34
280
     0
102
RTVSPost2010PropOp34
 70
     1
102
RTVSPost2010Prop35
280
     0
102
RTVSPost2010PropOp35
 70
     1
102
RTVSPost2010Prop36
280
     0
102
RTVSPost2010PropOp36
 70
     1
102
RTVSPost2010Prop37
 90
       50
102
RTVSPost2010PropOp37
 70
     0
102
RTVSPost2010Prop38
140
0.0
102
RTVSPost2010PropOp38
 70
     0
102
RTVSPost2010Prop39
140
1.0
102
RTVSPost2010PropOp39
 70
     0
102
RTVSPost2010Prop40
 90
        0
102
RTVSPost2010PropOp40
 70
     0
102
RTVSPost2010Prop41ColorIndex
 90
       18
102
RTVSPost2010Prop41ColorRGB
 90
        0
102
RTVSPost2010PropOp41
 70
     0
102
RTVSPost2010Prop42
 90
       50
102
RTVSPost2010PropOp42
 70
     0
102
RTVSPost2010Prop43
 90
        3
102
RTVSPost2010PropOp43
 70
     0
102
RTVSPost2010Prop44ColorIndex
 90
        5
102
RTVSPost2010Prop44ColorRGB
 90
      255
102
RTVSPost2010PropOp44
 70
     0
102
RTVSPost2010Prop45
280
     0
102
RTVSPost2010PropOp45
 70
     1
102
RTVSPost2010Prop46
 90
       50
102
RTVSPost2010PropOp46
 70
     0
102
RTVSPost2010Prop47
 90
       50
102
RTVSPost2010PropOp47
 70
     0
102
RTVSPost2010Prop48
 90
       50
102
RTVSPost2010PropOp48
 70
     0
102
RTVSPost2010Prop49
280
     0
102
RTVSPost2010PropOp49
 70
     1
102
RTVSPost2010Prop50
 90
       50
102
RTVSPost2010PropOp50
 70
     0
102
RTVSPost2010Prop51ColorIndex
 90
      256
102
RTVSPost2010Prop51ColorRGB
 90
-16777216
102
RTVSPost2010PropOp51
 70
     0
102
RTVSPost2010Prop52
140
1.0
102
RTVSPost2010PropOp52
 70
     0
102
RTVSPost2010Prop53
 90
        2
102
RTVSPost2010PropOp53
 70
     0
102
RTVSPost2010Prop54
  1
strokes_ogs.tif
102
RTVSPost2010PropOp54
 70
     0
102
RTVSPost2010Prop55
280
     0
102
RTVSPost2010PropOp55
 70
     1
102
RTVSPost2010Prop56
140
1.0
102
RTVSPost2010PropOp56
 70
     0
102
RTVSPost2010Prop57
140
1.0
102
RTVSPost2010PropOp57
 70
     0
102
RTVSPropertyOp0
 70
     0
102
RTVSPropertyOp1
 70
     0
102
RTVSPropertyOp2
 70
     0
102
RTVSPropertyOp3
 70
     0
102
RTVSPropertyOp4
 70
     0
102
RTVSPropertyOp5
 70
     0
102
RTVSPropertyOp6
 70
     0
102
RTVSPropertyOp7
 70
     0
102
RTVSPropertyOp8
 70
     0
102
RTVSPropertyOp9
 70
     0
102
RTVSPropertyOp10
 70
     0
102
RTVSPropertyOp11
 70
     0
102
RTVSPropertyOp12
 70
     0
102
RTVSPropertyOp13
 70
     0
102
RTVSPropertyOp14
 70
     2
102
RTVSPropertyOp15
 70
     0
102
RTVSPropertyOp16
 70
     0
102
RTVSPropertyOp17
 70
     0
102
RTVSPropertyOp18
 70
     0
102
RTVSPropertyOp19
 70
     0
102
RTVSPropertyOp20
 70
     0
102
RTVSPropertyOp21
 70
     0
102
RTVSPropertyOp22
 70
     0
102
RTVSPropertyOp23
 70
     0
102
RTVSPropertyOp24
 70
     0
102
RTVSPropertyOp25
 70
     0
102
RTVSPropertyOp26
 70
     0
102
RTVSPropertyOp27
 70
     0
102
RTVSPropertyOp28
 70
     1
102
RTVSPropertyOp29
 70
     1
102
RTVSPropertyOp30
 70
     1
102
RTVSPropertyOp31
 70
     1
102
RTVSPropertyOp32
 70
     1
102
RTVSPropertyOp33
 70
     1
102
RTVSPropertyOp34
 70
     1
102
RTVSPropertyOp35
 70
     1
102
RTVSPropertyOp36
 70
     1
102
RTVSPropertyOp37
 70
     0
102
RTVSPropertyOp38
 70
     0
102
RTVSPropertyOp39
 70
     0
102
RTVSPropertyOp40
 70
     0
102
RTVSPropertyOp41
 70
     0
102
RTVSPropertyOp42
 70
     0
102
RTVSPropertyOp43
 70
     0
102
RTVSPropertyOp44
 70
     0
102
RTVSPropertyOp45
 70
     1
102
RTVSPropertyOp46
 70
     0
102
RTVSPropertyOp47
 70
     0
102
RTVSPropertyOp48
 70
     0
102
RTVSPropertyOp49
 70
     1
102
RTVSPropertyOp50
 70
     0
102
RTVSPropertyOp51
 70
     0
102
RTVSPropertyOp52
 70
     0
102
RTVSPropertyOp53
 70
     0
102
RTVSPropertyOp54
 70
     0
102
RTVSPropertyOp55
 70
     1
102
RTVSPropertyOp56
 70
     0
102
RTVSPropertyOp57
 70
     0
102
RTVSPropertyOp58
 70
     0
102
RTVSPropertyOp59
 70
     0
102
RTVSPropertyOp60
 70
     0
102
RTVSPropertyOp61
 70
     0
102
RTVSPropertyOp62
 70
     0
  0
XRECORD
  5
7FD
102
{ACAD_REACTORS
330
7FC
102
}
330
7FC
100
AcDbXrecord
280
     1
102
RTVSPost2010Prop28
280
     0
102
RTVSPost2010PropOp28
 70
     1
102
RTVSPost2010Prop29
280
     1
102
RTVSPost2010PropOp29
 70
     1
102
RTVSPost2010Prop30
280
     1
102
RTVSPost2010PropOp30
 70
     1
102
RTVSPost2010Prop31
280
     0
102
RTVSPost2010PropOp31
 70
     1
102
RTVSPost2010Prop32
280
     0
102
RTVSPost2010PropOp32
 70
     1
102
RTVSPost2010Prop33
280
     0
102
RTVSPost2010PropOp33
 70
     1
102
RTVSPost2010Prop34
280
     0
102
RTVSPost2010PropOp34
 70
     1
102
RTVSPost2010Prop35
280
     0
102
RTVSPost2010PropOp35
 70
     1
102
RTVSPost2010Prop36
280
     0
102
RTVSPost2010PropOp36
 70
     1
102
RTVSPost2010Prop37
 90
       50
102
RTVSPost2010PropOp37
 70
     1
102
RTVSPost2010Prop38
140
0.0
102
RTVSPost2010PropOp38
 70
     1
102
RTVSPost2010Prop39
140
1.0
102
RTVSPost2010PropOp39
 70
     1
102
RTVSPost2010Prop40
 90
        0
102
RTVSPost2010PropOp40
 70
     1
102
RTVSPost2010Prop41ColorIndex
 90
       18
102
RTVSPost2010Prop41ColorRGB
 90
        0
102
RTVSPost2010PropOp41
 70
     1
102
RTVSPost2010Prop42
 90
       50
102
RTVSPost2010PropOp42
 70
     1
102
RTVSPost2010Prop43
 90
        3
102
RTVSPost2010PropOp43
 70
     1
102
RTVSPost2010Prop44ColorIndex
 90
        5
102
RTVSPost2010Prop44ColorRGB
 90
      255
102
RTVSPost2010PropOp44
 70
     1
102
RTVSPost2010Prop45
280
     0
102
RTVSPost2010PropOp45
 70
     1
102
RTVSPost2010Prop46
 90
       50
102
RTVSPost2010PropOp46
 70
     1
102
RTVSPost2010Prop47
 90
       50
102
RTVSPost2010PropOp47
 70
     1
102
RTVSPost2010Prop48
 90
       50
102
RTVSPost2010PropOp48
 70
     1
102
RTVSPost2010Prop49
280
     0
102
RTVSPost2010PropOp49
 70
     1
102
RTVSPost2010Prop50
 90
       50
102
RTVSPost2010PropOp50
 70
     1
102
RTVSPost2010Prop51ColorIndex
 90
      256
102
RTVSPost2010Prop51ColorRGB
 90
-16777216
102
RTVSPost2010PropOp51
 70
     0
102
RTVSPost2010Prop52
140
1.0
102
RTVSPost2010PropOp52
 70
     0
102
RTVSPost2010Prop53
 90
        2
102
RTVSPost2010PropOp53
 70
     1
102
RTVSPost2010Prop54
  1
strokes_ogs.tif
102
RTVSPost2010PropOp54
 70
     1
102
RTVSPost2010Prop55
280
     0
102
RTVSPost2010PropOp55
 70
     1
102
RTVSPost2010Prop56
140
1.0
102
RTVSPost2010PropOp56
 70
     1
102
RTVSPost2010Prop57
140
1.0
102
RTVSPost2010PropOp57
 70
     1
102
RTVSPropertyOp0
 70
     1
102
RTVSPropertyOp1
 70
     1
102
RTVSPropertyOp2
 70
     1
102
RTVSPropertyOp3
 70
     1
102
RTVSPropertyOp4
 70
     1
102
RTVSPropertyOp5
 70
     1
102
RTVSPropertyOp6
 70
     1
102
RTVSPropertyOp7
 70
     1
102
RTVSPropertyOp8
 70
     1
102
RTVSPropertyOp9
 70
     1
102
RTVSPropertyOp10
 70
     1
102
RTVSPropertyOp11
 70
     1
102
RTVSPropertyOp12
 70
     1
102
RTVSPropertyOp13
 70
     1
102
RTVSPropertyOp14
 70
     1
102
RTVSPropertyOp15
 70
     1
102
RTVSPropertyOp16
 70
     1
102
RTVSPropertyOp17
 70
     1
102
RTVSPropertyOp18
 70
     1
102
RTVSPropertyOp19
 70
     1
102
RTVSPropertyOp20
 70
     1
102
RTVSPropertyOp21
 70
     1
102
RTVSPropertyOp22
 70
     1
102
RTVSPropertyOp23
 70
     1
102
RTVSPropertyOp24
 70
     1
102
RTVSPropertyOp25
 70
     1
102
RTVSPropertyOp26
 70
     1
102
RTVSPropertyOp27
 70
     1
102
RTVSPropertyOp28
 70
     1
102
RTVSPropertyOp29
 70
     1
102
RTVSPropertyOp30
 70
     1
102
RTVSPropertyOp31
 70
     1
102
RTVSPropertyOp32
 70
     1
102
RTVSPropertyOp33
 70
     1
102
RTVSPropertyOp34
 70
     1
102
RTVSPropertyOp35
 70
     1
102
RTVSPropertyOp36
 70
     1
102
RTVSPropertyOp37
 70
     1
102
RTVSPropertyOp38
 70
     1
102
RTVSPropertyOp39
 70
     1
102
RTVSPropertyOp40
 70
     1
102
RTVSPropertyOp41
 70
     1
102
RTVSPropertyOp42
 70
     1
102
RTVSPropertyOp43
 70
     1
102
RTVSPropertyOp44
 70
     1
102
RTVSPropertyOp45
 70
     1
102
RTVSPropertyOp46
 70
     1
102
RTVSPropertyOp47
 70
     1
102
RTVSPropertyOp48
 70
     1
102
RTVSPropertyOp49
 70
     1
102
RTVSPropertyOp50
 70
     1
102
RTVSPropertyOp51
 70
     0
102
RTVSPropertyOp52
 70
     0
102
RTVSPropertyOp53
 70
     1
102
RTVSPropertyOp54
 70
     1
102
RTVSPropertyOp55
 70
     1
102
RTVSPropertyOp56
 70
     1
102
RTVSPropertyOp57
 70
     1
102
RTVSPropertyOp58
 70
     1
102
RTVSPropertyOp59
 70
     1
102
RTVSPropertyOp60
 70
     1
102
RTVSPropertyOp61
 70
     1
102
RTVSPropertyOp62
 70
     1
  0
XRECORD
  5
80F
102
{ACAD_REACTORS
330
80E
102
}
330
80E
100
AcDbXrecord
280
     1
102
RTVSPost2010Prop28
280
     0
102
RTVSPost2010PropOp28
 70
     1
102
RTVSPost2010Prop29
280
     1
102
RTVSPost2010PropOp29
 70
     1
102
RTVSPost2010Prop30
280
     1
102
RTVSPost2010PropOp30
 70
     1
102
RTVSPost2010Prop31
280
     0
102
RTVSPost2010PropOp31
 70
     1
102
RTVSPost2010Prop32
280
     0
102
RTVSPost2010PropOp32
 70
     1
102
RTVSPost2010Prop33
280
     0
102
RTVSPost2010PropOp33
 70
     1
102
RTVSPost2010Prop34
280
     0
102
RTVSPost2010PropOp34
 70
     1
102
RTVSPost2010Prop35
280
     0
102
RTVSPost2010PropOp35
 70
     1
102
RTVSPost2010Prop36
280
     0
102
RTVSPost2010PropOp36
 70
     1
102
RTVSPost2010Prop37
 90
       50
102
RTVSPost2010PropOp37
 70
     0
102
RTVSPost2010Prop38
140
0.0
102
RTVSPost2010PropOp38
 70
     0
102
RTVSPost2010Prop39
140
1.0
102
RTVSPost2010PropOp39
 70
     0
102
RTVSPost2010Prop40
 90
        0
102
RTVSPost2010PropOp40
 70
     0
102
RTVSPost2010Prop41ColorIndex
 90
       18
102
RTVSPost2010Prop41ColorRGB
 90
        0
102
RTVSPost2010PropOp41
 70
     0
102
RTVSPost2010Prop42
 90
       50
102
RTVSPost2010PropOp42
 70
     0
102
RTVSPost2010Prop43
 90
        3
102
RTVSPost2010PropOp43
 70
     0
102
RTVSPost2010Prop44ColorIndex
 90
        5
102
RTVSPost2010Prop44ColorRGB
 90
      255
102
RTVSPost2010PropOp44
 70
     0
102
RTVSPost2010Prop45
280
     0
102
RTVSPost2010PropOp45
 70
     1
102
RTVSPost2010Prop46
 90
       50
102
RTVSPost2010PropOp46
 70
     0
102
RTVSPost2010Prop47
 90
       50
102
RTVSPost2010PropOp47
 70
     0
102
RTVSPost2010Prop48
 90
       50
102
RTVSPost2010PropOp48
 70
     0
102
RTVSPost2010Prop49
280
     0
102
RTVSPost2010PropOp49
 70
     1
102
RTVSPost2010Prop50
 90
       50
102
RTVSPost2010PropOp50
 70
     0
102
RTVSPost2010Prop51ColorIndex
 90
      256
102
RTVSPost2010Prop51ColorRGB
 90
-16777216
102
RTVSPost2010PropOp51
 70
     0
102
RTVSPost2010Prop52
140
1.0
102
RTVSPost2010PropOp52
 70
     0
102
RTVSPost2010Prop53
 90
        2
102
RTVSPost2010PropOp53
 70
     0
102
RTVSPost2010Prop54
  1
strokes_ogs.tif
102
RTVSPost2010PropOp54
 70
     0
102
RTVSPost2010Prop55
280
     0
102
RTVSPost2010PropOp55
 70
     1
102
RTVSPost2010Prop56
140
1.0
102
RTVSPost2010PropOp56
 70
     0
102
RTVSPost2010Prop57
140
1.0
102
RTVSPost2010PropOp57
 70
     0
102
RTVSPropertyOp0
 70
     0
102
RTVSPropertyOp1
 70
     0
102
RTVSPropertyOp2
 70
     0
102
RTVSPropertyOp3
 70
     0
102
RTVSPropertyOp4
 70
     0
102
RTVSPropertyOp5
 70
     0
102
RTVSPropertyOp6
 70
     0
102
RTVSPropertyOp7
 70
     0
102
RTVSPropertyOp8
 70
     0
102
RTVSPropertyOp9
 70
     0
102
RTVSPropertyOp10
 70
     0
102
RTVSPropertyOp11
 70
     0
102
RTVSPropertyOp12
 70
     0
102
RTVSPropertyOp13
 70
     0
102
RTVSPropertyOp14
 70
     2
102
RTVSPropertyOp15
 70
     0
102
RTVSPropertyOp16
 70
     0
102
RTVSPropertyOp17
 70
     0
102
RTVSPropertyOp18
 70
     0
102
RTVSPropertyOp19
 70
     0
102
RTVSPropertyOp20
 70
     0
102
RTVSPropertyOp21
 70
     0
102
RTVSPropertyOp22
 70
     0
102
RTVSPropertyOp23
 70
     0
102
RTVSPropertyOp24
 70
     0
102
RTVSPropertyOp25
 70
     0
102
RTVSPropertyOp26
 70
     0
102
RTVSPropertyOp27
 70
     0
102
RTVSPropertyOp28
 70
     1
102
RTVSPropertyOp29
 70
     1
102
RTVSPropertyOp30
 70
     1
102
RTVSPropertyOp31
 70
     1
102
RTVSPropertyOp32
 70
     1
102
RTVSPropertyOp33
 70
     1
102
RTVSPropertyOp34
 70
     1
102
RTVSPropertyOp35
 70
     1
102
RTVSPropertyOp36
 70
     1
102
RTVSPropertyOp37
 70
     0
102
RTVSPropertyOp38
 70
     0
102
RTVSPropertyOp39
 70
     0
102
RTVSPropertyOp40
 70
     0
102
RTVSPropertyOp41
 70
     0
102
RTVSPropertyOp42
 70
     0
102
RTVSPropertyOp43
 70
     0
102
RTVSPropertyOp44
 70
     0
102
RTVSPropertyOp45
 70
     1
102
RTVSPropertyOp46
 70
     0
102
RTVSPropertyOp47
 70
     0
102
RTVSPropertyOp48
 70
     0
102
RTVSPropertyOp49
 70
     1
102
RTVSPropertyOp50
 70
     0
102
RTVSPropertyOp51
 70
     0
102
RTVSPropertyOp52
 70
     0
102
RTVSPropertyOp53
 70
     0
102
RTVSPropertyOp54
 70
     0
102
RTVSPropertyOp55
 70
     1
102
RTVSPropertyOp56
 70
     0
102
RTVSPropertyOp57
 70
     0
102
RTVSPropertyOp58
 70
     0
102
RTVSPropertyOp59
 70
     0
102
RTVSPropertyOp60
 70
     0
102
RTVSPropertyOp61
 70
     0
102
RTVSPropertyOp62
 70
     0
  0
XRECORD
  5
7F5
102
{ACAD_REACTORS
330
7F4
102
}
330
7F4
100
AcDbXrecord
280
     1
102
RTVSPost2010Prop28
280
     0
102
RTVSPost2010PropOp28
 70
     1
102
RTVSPost2010Prop29
280
     1
102
RTVSPost2010PropOp29
 70
     1
102
RTVSPost2010Prop30
280
     1
102
RTVSPost2010PropOp30
 70
     1
102
RTVSPost2010Prop31
280
     0
102
RTVSPost2010PropOp31
 70
     1
102
RTVSPost2010Prop32
280
     0
102
RTVSPost2010PropOp32
 70
     1
102
RTVSPost2010Prop33
280
     0
102
RTVSPost2010PropOp33
 70
     1
102
RTVSPost2010Prop34
280
     0
102
RTVSPost2010PropOp34
 70
     1
102
RTVSPost2010Prop35
280
     0
102
RTVSPost2010PropOp35
 70
     1
102
RTVSPost2010Prop36
280
     0
102
RTVSPost2010PropOp36
 70
     1
102
RTVSPost2010Prop37
 90
       50
102
RTVSPost2010PropOp37
 70
     1
102
RTVSPost2010Prop38
140
0.0
102
RTVSPost2010PropOp38
 70
     1
102
RTVSPost2010Prop39
140
1.0
102
RTVSPost2010PropOp39
 70
     1
102
RTVSPost2010Prop40
 90
        0
102
RTVSPost2010PropOp40
 70
     1
102
RTVSPost2010Prop41ColorIndex
 90
       18
102
RTVSPost2010Prop41ColorRGB
 90
        0
102
RTVSPost2010PropOp41
 70
     1
102
RTVSPost2010Prop42
 90
       50
102
RTVSPost2010PropOp42
 70
     1
102
RTVSPost2010Prop43
 90
        3
102
RTVSPost2010PropOp43
 70
     1
102
RTVSPost2010Prop44ColorIndex
 90
        5
102
RTVSPost2010Prop44ColorRGB
 90
      255
102
RTVSPost2010PropOp44
 70
     1
102
RTVSPost2010Prop45
280
     0
102
RTVSPost2010PropOp45
 70
     1
102
RTVSPost2010Prop46
 90
       50
102
RTVSPost2010PropOp46
 70
     1
102
RTVSPost2010Prop47
 90
       50
102
RTVSPost2010PropOp47
 70
     1
102
RTVSPost2010Prop48
 90
       50
102
RTVSPost2010PropOp48
 70
     1
102
RTVSPost2010Prop49
280
     0
102
RTVSPost2010PropOp49
 70
     1
102
RTVSPost2010Prop50
 90
       50
102
RTVSPost2010PropOp50
 70
     1
102
RTVSPost2010Prop51ColorIndex
 90
      256
102
RTVSPost2010Prop51ColorRGB
 90
-16777216
102
RTVSPost2010PropOp51
 70
     0
102
RTVSPost2010Prop52
140
1.0
102
RTVSPost2010PropOp52
 70
     0
102
RTVSPost2010Prop53
 90
        2
102
RTVSPost2010PropOp53
 70
     1
102
RTVSPost2010Prop54
  1
strokes_ogs.tif
102
RTVSPost2010PropOp54
 70
     1
102
RTVSPost2010Prop55
280
     0
102
RTVSPost2010PropOp55
 70
     1
102
RTVSPost2010Prop56
140
1.0
102
RTVSPost2010PropOp56
 70
     1
102
RTVSPost2010Prop57
140
1.0
102
RTVSPost2010PropOp57
 70
     1
102
RTVSPropertyOp0
 70
     1
102
RTVSPropertyOp1
 70
     1
102
RTVSPropertyOp2
 70
     1
102
RTVSPropertyOp3
 70
     1
102
RTVSPropertyOp4
 70
     1
102
RTVSPropertyOp5
 70
     1
102
RTVSPropertyOp6
 70
     1
102
RTVSPropertyOp7
 70
     1
102
RTVSPropertyOp8
 70
     1
102
RTVSPropertyOp9
 70
     1
102
RTVSPropertyOp10
 70
     1
102
RTVSPropertyOp11
 70
     1
102
RTVSPropertyOp12
 70
     1
102
RTVSPropertyOp13
 70
     1
102
RTVSPropertyOp14
 70
     1
102
RTVSPropertyOp15
 70
     1
102
RTVSPropertyOp16
 70
     1
102
RTVSPropertyOp17
 70
     1
102
RTVSPropertyOp18
 70
     1
102
RTVSPropertyOp19
 70
     1
102
RTVSPropertyOp20
 70
     1
102
RTVSPropertyOp21
 70
     1
102
RTVSPropertyOp22
 70
     1
102
RTVSPropertyOp23
 70
     1
102
RTVSPropertyOp24
 70
     1
102
RTVSPropertyOp25
 70
     1
102
RTVSPropertyOp26
 70
     1
102
RTVSPropertyOp27
 70
     1
102
RTVSPropertyOp28
 70
     1
102
RTVSPropertyOp29
 70
     1
102
RTVSPropertyOp30
 70
     1
102
RTVSPropertyOp31
 70
     1
102
RTVSPropertyOp32
 70
     1
102
RTVSPropertyOp33
 70
     1
102
RTVSPropertyOp34
 70
     1
102
RTVSPropertyOp35
 70
     1
102
RTVSPropertyOp36
 70
     1
102
RTVSPropertyOp37
 70
     1
102
RTVSPropertyOp38
 70
     1
102
RTVSPropertyOp39
 70
     1
102
RTVSPropertyOp40
 70
     1
102
RTVSPropertyOp41
 70
     1
102
RTVSPropertyOp42
 70
     1
102
RTVSPropertyOp43
 70
     1
102
RTVSPropertyOp44
 70
     1
102
RTVSPropertyOp45
 70
     1
102
RTVSPropertyOp46
 70
     1
102
RTVSPropertyOp47
 70
     1
102
RTVSPropertyOp48
 70
     1
102
RTVSPropertyOp49
 70
     1
102
RTVSPropertyOp50
 70
     1
102
RTVSPropertyOp51
 70
     0
102
RTVSPropertyOp52
 70
     0
102
RTVSPropertyOp53
 70
     1
102
RTVSPropertyOp54
 70
     1
102
RTVSPropertyOp55
 70
     1
102
RTVSPropertyOp56
 70
     1
102
RTVSPropertyOp57
 70
     1
102
RTVSPropertyOp58
 70
     1
102
RTVSPropertyOp59
 70
     1
102
RTVSPropertyOp60
 70
     1
102
RTVSPropertyOp61
 70
     1
102
RTVSPropertyOp62
 70
     1
  0
XRECORD
  5
80B
102
{ACAD_REACTORS
330
80A
102
}
330
80A
100
AcDbXrecord
280
     1
102
RTVSPost2010Prop28
280
     0
102
RTVSPost2010PropOp28
 70
     1
102
RTVSPost2010Prop29
280
     1
102
RTVSPost2010PropOp29
 70
     1
102
RTVSPost2010Prop30
280
     1
102
RTVSPost2010PropOp30
 70
     1
102
RTVSPost2010Prop31
280
     0
102
RTVSPost2010PropOp31
 70
     1
102
RTVSPost2010Prop32
280
     0
102
RTVSPost2010PropOp32
 70
     1
102
RTVSPost2010Prop33
280
     0
102
RTVSPost2010PropOp33
 70
     1
102
RTVSPost2010Prop34
280
     0
102
RTVSPost2010PropOp34
 70
     1
102
RTVSPost2010Prop35
280
     0
102
RTVSPost2010PropOp35
 70
     1
102
RTVSPost2010Prop36
280
     0
102
RTVSPost2010PropOp36
 70
     1
102
RTVSPost2010Prop37
 90
       50
102
RTVSPost2010PropOp37
 70
     1
102
RTVSPost2010Prop38
140
0.0
102
RTVSPost2010PropOp38
 70
     1
102
RTVSPost2010Prop39
140
1.0
102
RTVSPost2010PropOp39
 70
     1
102
RTVSPost2010Prop40
 90
        0
102
RTVSPost2010PropOp40
 70
     1
102
RTVSPost2010Prop41ColorIndex
 90
       18
102
RTVSPost2010Prop41ColorRGB
 90
        0
102
RTVSPost2010PropOp41
 70
     1
102
RTVSPost2010Prop42
 90
       50
102
RTVSPost2010PropOp42
 70
     1
102
RTVSPost2010Prop43
 90
        3
102
RTVSPost2010PropOp43
 70
     1
102
RTVSPost2010Prop44ColorIndex
 90
        5
102
RTVSPost2010Prop44ColorRGB
 90
      255
102
RTVSPost2010PropOp44
 70
     1
102
RTVSPost2010Prop45
280
     0
102
RTVSPost2010PropOp45
 70
     1
102
RTVSPost2010Prop46
 90
       50
102
RTVSPost2010PropOp46
 70
     1
102
RTVSPost2010Prop47
 90
       50
102
RTVSPost2010PropOp47
 70
     1
102
RTVSPost2010Prop48
 90
       50
102
RTVSPost2010PropOp48
 70
     1
102
RTVSPost2010Prop49
280
     0
102
RTVSPost2010PropOp49
 70
     1
102
RTVSPost2010Prop50
 90
       50
102
RTVSPost2010PropOp50
 70
     1
102
RTVSPost2010Prop51ColorIndex
 90
      256
102
RTVSPost2010Prop51ColorRGB
 90
-16777216
102
RTVSPost2010PropOp51
 70
     0
102
RTVSPost2010Prop52
140
1.0
102
RTVSPost2010PropOp52
 70
     0
102
RTVSPost2010Prop53
 90
        2
102
RTVSPost2010PropOp53
 70
     1
102
RTVSPost2010Prop54
  1
strokes_ogs.tif
102
RTVSPost2010PropOp54
 70
     1
102
RTVSPost2010Prop55
280
     0
102
RTVSPost2010PropOp55
 70
     1
102
RTVSPost2010Prop56
140
1.0
102
RTVSPost2010PropOp56
 70
     1
102
RTVSPost2010Prop57
140
1.0
102
RTVSPost2010PropOp57
 70
     1
102
RTVSPropertyOp0
 70
     1
102
RTVSPropertyOp1
 70
     1
102
RTVSPropertyOp2
 70
     1
102
RTVSPropertyOp3
 70
     1
102
RTVSPropertyOp4
 70
     1
102
RTVSPropertyOp5
 70
     1
102
RTVSPropertyOp6
 70
     1
102
RTVSPropertyOp7
 70
     1
102
RTVSPropertyOp8
 70
     1
102
RTVSPropertyOp9
 70
     1
102
RTVSPropertyOp10
 70
     1
102
RTVSPropertyOp11
 70
     1
102
RTVSPropertyOp12
 70
     1
102
RTVSPropertyOp13
 70
     1
102
RTVSPropertyOp14
 70
     1
102
RTVSPropertyOp15
 70
     1
102
RTVSPropertyOp16
 70
     1
102
RTVSPropertyOp17
 70
     1
102
RTVSPropertyOp18
 70
     1
102
RTVSPropertyOp19
 70
     1
102
RTVSPropertyOp20
 70
     1
102
RTVSPropertyOp21
 70
     1
102
RTVSPropertyOp22
 70
     1
102
RTVSPropertyOp23
 70
     1
102
RTVSPropertyOp24
 70
     1
102
RTVSPropertyOp25
 70
     1
102
RTVSPropertyOp26
 70
     1
102
RTVSPropertyOp27
 70
     1
102
RTVSPropertyOp28
 70
     1
102
RTVSPropertyOp29
 70
     1
102
RTVSPropertyOp30
 70
     1
102
RTVSPropertyOp31
 70
     1
102
RTVSPropertyOp32
 70
     1
102
RTVSPropertyOp33
 70
     1
102
RTVSPropertyOp34
 70
     1
102
RTVSPropertyOp35
 70
     1
102
RTVSPropertyOp36
 70
     1
102
RTVSPropertyOp37
 70
     1
102
RTVSPropertyOp38
 70
     1
102
RTVSPropertyOp39
 70
     1
102
RTVSPropertyOp40
 70
     1
102
RTVSPropertyOp41
 70
     1
102
RTVSPropertyOp42
 70
     1
102
RTVSPropertyOp43
 70
     1
102
RTVSPropertyOp44
 70
     1
102
RTVSPropertyOp45
 70
     1
102
RTVSPropertyOp46
 70
     1
102
RTVSPropertyOp47
 70
     1
102
RTVSPropertyOp48
 70
     1
102
RTVSPropertyOp49
 70
     1
102
RTVSPropertyOp50
 70
     1
102
RTVSPropertyOp51
 70
     0
102
RTVSPropertyOp52
 70
     0
102
RTVSPropertyOp53
 70
     1
102
RTVSPropertyOp54
 70
     1
102
RTVSPropertyOp55
 70
     1
102
RTVSPropertyOp56
 70
     1
102
RTVSPropertyOp57
 70
     1
102
RTVSPropertyOp58
 70
     1
102
RTVSPropertyOp59
 70
     1
102
RTVSPropertyOp60
 70
     1
102
RTVSPropertyOp61
 70
     1
102
RTVSPropertyOp62
 70
     1
  0
XRECORD
  5
809
102
{ACAD_REACTORS
330
808
102
}
330
808
100
AcDbXrecord
280
     1
102
RTVSPost2010Prop28
280
     0
102
RTVSPost2010PropOp28
 70
     1
102
RTVSPost2010Prop29
280
     1
102
RTVSPost2010PropOp29
 70
     1
102
RTVSPost2010Prop30
280
     1
102
RTVSPost2010PropOp30
 70
     1
102
RTVSPost2010Prop31
280
     0
102
RTVSPost2010PropOp31
 70
     1
102
RTVSPost2010Prop32
280
     0
102
RTVSPost2010PropOp32
 70
     1
102
RTVSPost2010Prop33
280
     0
102
RTVSPost2010PropOp33
 70
     1
102
RTVSPost2010Prop34
280
     0
102
RTVSPost2010PropOp34
 70
     1
102
RTVSPost2010Prop35
280
     0
102
RTVSPost2010PropOp35
 70
     1
102
RTVSPost2010Prop36
280
     0
102
RTVSPost2010PropOp36
 70
     1
102
RTVSPost2010Prop37
 90
       50
102
RTVSPost2010PropOp37
 70
     1
102
RTVSPost2010Prop38
140
0.0
102
RTVSPost2010PropOp38
 70
     1
102
RTVSPost2010Prop39
140
1.0
102
RTVSPost2010PropOp39
 70
     1
102
RTVSPost2010Prop40
 90
        0
102
RTVSPost2010PropOp40
 70
     1
102
RTVSPost2010Prop41ColorIndex
 90
       18
102
RTVSPost2010Prop41ColorRGB
 90
        0
102
RTVSPost2010PropOp41
 70
     1
102
RTVSPost2010Prop42
 90
       50
102
RTVSPost2010PropOp42
 70
     1
102
RTVSPost2010Prop43
 90
        3
102
RTVSPost2010PropOp43
 70
     1
102
RTVSPost2010Prop44ColorIndex
 90
        5
102
RTVSPost2010Prop44ColorRGB
 90
      255
102
RTVSPost2010PropOp44
 70
     1
102
RTVSPost2010Prop45
280
     0
102
RTVSPost2010PropOp45
 70
     1
102
RTVSPost2010Prop46
 90
       50
102
RTVSPost2010PropOp46
 70
     1
102
RTVSPost2010Prop47
 90
       50
102
RTVSPost2010PropOp47
 70
     1
102
RTVSPost2010Prop48
 90
       50
102
RTVSPost2010PropOp48
 70
     1
102
RTVSPost2010Prop49
280
     0
102
RTVSPost2010PropOp49
 70
     1
102
RTVSPost2010Prop50
 90
       50
102
RTVSPost2010PropOp50
 70
     1
102
RTVSPost2010Prop51ColorIndex
 90
      256
102
RTVSPost2010Prop51ColorRGB
 90
-16777216
102
RTVSPost2010PropOp51
 70
     0
102
RTVSPost2010Prop52
140
1.0
102
RTVSPost2010PropOp52
 70
     0
102
RTVSPost2010Prop53
 90
        2
102
RTVSPost2010PropOp53
 70
     1
102
RTVSPost2010Prop54
  1
strokes_ogs.tif
102
RTVSPost2010PropOp54
 70
     1
102
RTVSPost2010Prop55
280
     0
102
RTVSPost2010PropOp55
 70
     1
102
RTVSPost2010Prop56
140
1.0
102
RTVSPost2010PropOp56
 70
     1
102
RTVSPost2010Prop57
140
1.0
102
RTVSPost2010PropOp57
 70
     1
102
RTVSPropertyOp0
 70
     1
102
RTVSPropertyOp1
 70
     1
102
RTVSPropertyOp2
 70
     1
102
RTVSPropertyOp3
 70
     1
102
RTVSPropertyOp4
 70
     1
102
RTVSPropertyOp5
 70
     1
102
RTVSPropertyOp6
 70
     1
102
RTVSPropertyOp7
 70
     1
102
RTVSPropertyOp8
 70
     1
102
RTVSPropertyOp9
 70
     1
102
RTVSPropertyOp10
 70
     1
102
RTVSPropertyOp11
 70
     1
102
RTVSPropertyOp12
 70
     1
102
RTVSPropertyOp13
 70
     1
102
RTVSPropertyOp14
 70
     1
102
RTVSPropertyOp15
 70
     1
102
RTVSPropertyOp16
 70
     1
102
RTVSPropertyOp17
 70
     1
102
RTVSPropertyOp18
 70
     1
102
RTVSPropertyOp19
 70
     1
102
RTVSPropertyOp20
 70
     1
102
RTVSPropertyOp21
 70
     1
102
RTVSPropertyOp22
 70
     1
102
RTVSPropertyOp23
 70
     1
102
RTVSPropertyOp24
 70
     1
102
RTVSPropertyOp25
 70
     1
102
RTVSPropertyOp26
 70
     1
102
RTVSPropertyOp27
 70
     1
102
RTVSPropertyOp28
 70
     1
102
RTVSPropertyOp29
 70
     1
102
RTVSPropertyOp30
 70
     1
102
RTVSPropertyOp31
 70
     1
102
RTVSPropertyOp32
 70
     1
102
RTVSPropertyOp33
 70
     1
102
RTVSPropertyOp34
 70
     1
102
RTVSPropertyOp35
 70
     1
102
RTVSPropertyOp36
 70
     1
102
RTVSPropertyOp37
 70
     1
102
RTVSPropertyOp38
 70
     1
102
RTVSPropertyOp39
 70
     1
102
RTVSPropertyOp40
 70
     1
102
RTVSPropertyOp41
 70
     1
102
RTVSPropertyOp42
 70
     1
102
RTVSPropertyOp43
 70
     1
102
RTVSPropertyOp44
 70
     1
102
RTVSPropertyOp45
 70
     1
102
RTVSPropertyOp46
 70
     1
102
RTVSPropertyOp47
 70
     1
102
RTVSPropertyOp48
 70
     1
102
RTVSPropertyOp49
 70
     1
102
RTVSPropertyOp50
 70
     1
102
RTVSPropertyOp51
 70
     0
102
RTVSPropertyOp52
 70
     0
102
RTVSPropertyOp53
 70
     1
102
RTVSPropertyOp54
 70
     1
102
RTVSPropertyOp55
 70
     1
102
RTVSPropertyOp56
 70
     1
102
RTVSPropertyOp57
 70
     1
102
RTVSPropertyOp58
 70
     1
102
RTVSPropertyOp59
 70
     1
102
RTVSPropertyOp60
 70
     1
102
RTVSPropertyOp61
 70
     1
102
RTVSPropertyOp62
 70
     1
  0
XRECORD
  5
803
102
{ACAD_REACTORS
330
802
102
}
330
802
100
AcDbXrecord
280
     1
102
RTVSPost2010Prop28
280
     0
102
RTVSPost2010PropOp28
 70
     1
102
RTVSPost2010Prop29
280
     1
102
RTVSPost2010PropOp29
 70
     1
102
RTVSPost2010Prop30
280
     1
102
RTVSPost2010PropOp30
 70
     1
102
RTVSPost2010Prop31
280
     0
102
RTVSPost2010PropOp31
 70
     1
102
RTVSPost2010Prop32
280
     0
102
RTVSPost2010PropOp32
 70
     1
102
RTVSPost2010Prop33
280
     0
102
RTVSPost2010PropOp33
 70
     1
102
RTVSPost2010Prop34
280
     0
102
RTVSPost2010PropOp34
 70
     1
102
RTVSPost2010Prop35
280
     0
102
RTVSPost2010PropOp35
 70
     1
102
RTVSPost2010Prop36
280
     0
102
RTVSPost2010PropOp36
 70
     1
102
RTVSPost2010Prop37
 90
       50
102
RTVSPost2010PropOp37
 70
     1
102
RTVSPost2010Prop38
140
0.0
102
RTVSPost2010PropOp38
 70
     1
102
RTVSPost2010Prop39
140
1.0
102
RTVSPost2010PropOp39
 70
     1
102
RTVSPost2010Prop40
 90
        0
102
RTVSPost2010PropOp40
 70
     1
102
RTVSPost2010Prop41ColorIndex
 90
       18
102
RTVSPost2010Prop41ColorRGB
 90
        0
102
RTVSPost2010PropOp41
 70
     1
102
RTVSPost2010Prop42
 90
       50
102
RTVSPost2010PropOp42
 70
     1
102
RTVSPost2010Prop43
 90
        3
102
RTVSPost2010PropOp43
 70
     1
102
RTVSPost2010Prop44ColorIndex
 90
        5
102
RTVSPost2010Prop44ColorRGB
 90
      255
102
RTVSPost2010PropOp44
 70
     1
102
RTVSPost2010Prop45
280
     0
102
RTVSPost2010PropOp45
 70
     1
102
RTVSPost2010Prop46
 90
       50
102
RTVSPost2010PropOp46
 70
     1
102
RTVSPost2010Prop47
 90
       50
102
RTVSPost2010PropOp47
 70
     1
102
RTVSPost2010Prop48
 90
       50
102
RTVSPost2010PropOp48
 70
     1
102
RTVSPost2010Prop49
280
     0
102
RTVSPost2010PropOp49
 70
     1
102
RTVSPost2010Prop50
 90
       50
102
RTVSPost2010PropOp50
 70
     1
102
RTVSPost2010Prop51ColorIndex
 90
      256
102
RTVSPost2010Prop51ColorRGB
 90
-16777216
102
RTVSPost2010PropOp51
 70
     0
102
RTVSPost2010Prop52
140
1.0
102
RTVSPost2010PropOp52
 70
     0
102
RTVSPost2010Prop53
 90
        2
102
RTVSPost2010PropOp53
 70
     1
102
RTVSPost2010Prop54
  1
strokes_ogs.tif
102
RTVSPost2010PropOp54
 70
     1
102
RTVSPost2010Prop55
280
     0
102
RTVSPost2010PropOp55
 70
     1
102
RTVSPost2010Prop56
140
1.0
102
RTVSPost2010PropOp56
 70
     1
102
RTVSPost2010Prop57
140
1.0
102
RTVSPost2010PropOp57
 70
     1
102
RTVSPropertyOp0
 70
     1
102
RTVSPropertyOp1
 70
     1
102
RTVSPropertyOp2
 70
     1
102
RTVSPropertyOp3
 70
     1
102
RTVSPropertyOp4
 70
     1
102
RTVSPropertyOp5
 70
     1
102
RTVSPropertyOp6
 70
     1
102
RTVSPropertyOp7
 70
     1
102
RTVSPropertyOp8
 70
     1
102
RTVSPropertyOp9
 70
     1
102
RTVSPropertyOp10
 70
     1
102
RTVSPropertyOp11
 70
     1
102
RTVSPropertyOp12
 70
     1
102
RTVSPropertyOp13
 70
     1
102
RTVSPropertyOp14
 70
     1
102
RTVSPropertyOp15
 70
     1
102
RTVSPropertyOp16
 70
     1
102
RTVSPropertyOp17
 70
     1
102
RTVSPropertyOp18
 70
     1
102
RTVSPropertyOp19
 70
     1
102
RTVSPropertyOp20
 70
     1
102
RTVSPropertyOp21
 70
     1
102
RTVSPropertyOp22
 70
     1
102
RTVSPropertyOp23
 70
     1
102
RTVSPropertyOp24
 70
     1
102
RTVSPropertyOp25
 70
     1
102
RTVSPropertyOp26
 70
     1
102
RTVSPropertyOp27
 70
     1
102
RTVSPropertyOp28
 70
     1
102
RTVSPropertyOp29
 70
     1
102
RTVSPropertyOp30
 70
     1
102
RTVSPropertyOp31
 70
     1
102
RTVSPropertyOp32
 70
     1
102
RTVSPropertyOp33
 70
     1
102
RTVSPropertyOp34
 70
     1
102
RTVSPropertyOp35
 70
     1
102
RTVSPropertyOp36
 70
     1
102
RTVSPropertyOp37
 70
     1
102
RTVSPropertyOp38
 70
     1
102
RTVSPropertyOp39
 70
     1
102
RTVSPropertyOp40
 70
     1
102
RTVSPropertyOp41
 70
     1
102
RTVSPropertyOp42
 70
     1
102
RTVSPropertyOp43
 70
     1
102
RTVSPropertyOp44
 70
     1
102
RTVSPropertyOp45
 70
     1
102
RTVSPropertyOp46
 70
     1
102
RTVSPropertyOp47
 70
     1
102
RTVSPropertyOp48
 70
     1
102
RTVSPropertyOp49
 70
     1
102
RTVSPropertyOp50
 70
     1
102
RTVSPropertyOp51
 70
     0
102
RTVSPropertyOp52
 70
     0
102
RTVSPropertyOp53
 70
     1
102
RTVSPropertyOp54
 70
     1
102
RTVSPropertyOp55
 70
     1
102
RTVSPropertyOp56
 70
     1
102
RTVSPropertyOp57
 70
     1
102
RTVSPropertyOp58
 70
     1
102
RTVSPropertyOp59
 70
     1
102
RTVSPropertyOp60
 70
     1
102
RTVSPropertyOp61
 70
     1
102
RTVSPropertyOp62
 70
     1
  0
XRECORD
  5
805
102
{ACAD_REACTORS
330
804
102
}
330
804
100
AcDbXrecord
280
     1
102
RTVSPost2010Prop28
280
     0
102
RTVSPost2010PropOp28
 70
     1
102
RTVSPost2010Prop29
280
     1
102
RTVSPost2010PropOp29
 70
     1
102
RTVSPost2010Prop30
280
     1
102
RTVSPost2010PropOp30
 70
     1
102
RTVSPost2010Prop31
280
     0
102
RTVSPost2010PropOp31
 70
     1
102
RTVSPost2010Prop32
280
     0
102
RTVSPost2010PropOp32
 70
     1
102
RTVSPost2010Prop33
280
     0
102
RTVSPost2010PropOp33
 70
     1
102
RTVSPost2010Prop34
280
     0
102
RTVSPost2010PropOp34
 70
     1
102
RTVSPost2010Prop35
280
     0
102
RTVSPost2010PropOp35
 70
     1
102
RTVSPost2010Prop36
280
     0
102
RTVSPost2010PropOp36
 70
     1
102
RTVSPost2010Prop37
 90
       50
102
RTVSPost2010PropOp37
 70
     1
102
RTVSPost2010Prop38
140
0.0
102
RTVSPost2010PropOp38
 70
     1
102
RTVSPost2010Prop39
140
1.0
102
RTVSPost2010PropOp39
 70
     1
102
RTVSPost2010Prop40
 90
        0
102
RTVSPost2010PropOp40
 70
     1
102
RTVSPost2010Prop41ColorIndex
 90
       18
102
RTVSPost2010Prop41ColorRGB
 90
        0
102
RTVSPost2010PropOp41
 70
     1
102
RTVSPost2010Prop42
 90
       50
102
RTVSPost2010PropOp42
 70
     1
102
RTVSPost2010Prop43
 90
        3
102
RTVSPost2010PropOp43
 70
     1
102
RTVSPost2010Prop44ColorIndex
 90
        5
102
RTVSPost2010Prop44ColorRGB
 90
      255
102
RTVSPost2010PropOp44
 70
     1
102
RTVSPost2010Prop45
280
     0
102
RTVSPost2010PropOp45
 70
     1
102
RTVSPost2010Prop46
 90
       50
102
RTVSPost2010PropOp46
 70
     1
102
RTVSPost2010Prop47
 90
       50
102
RTVSPost2010PropOp47
 70
     1
102
RTVSPost2010Prop48
 90
       50
102
RTVSPost2010PropOp48
 70
     1
102
RTVSPost2010Prop49
280
     0
102
RTVSPost2010PropOp49
 70
     1
102
RTVSPost2010Prop50
 90
       50
102
RTVSPost2010PropOp50
 70
     1
102
RTVSPost2010Prop51ColorIndex
 90
      256
102
RTVSPost2010Prop51ColorRGB
 90
-16777216
102
RTVSPost2010PropOp51
 70
     0
102
RTVSPost2010Prop52
140
1.0
102
RTVSPost2010PropOp52
 70
     0
102
RTVSPost2010Prop53
 90
        2
102
RTVSPost2010PropOp53
 70
     1
102
RTVSPost2010Prop54
  1
strokes_ogs.tif
102
RTVSPost2010PropOp54
 70
     1
102
RTVSPost2010Prop55
280
     0
102
RTVSPost2010PropOp55
 70
     1
102
RTVSPost2010Prop56
140
1.0
102
RTVSPost2010PropOp56
 70
     1
102
RTVSPost2010Prop57
140
1.0
102
RTVSPost2010PropOp57
 70
     1
102
RTVSPropertyOp0
 70
     1
102
RTVSPropertyOp1
 70
     1
102
RTVSPropertyOp2
 70
     1
102
RTVSPropertyOp3
 70
     1
102
RTVSPropertyOp4
 70
     1
102
RTVSPropertyOp5
 70
     1
102
RTVSPropertyOp6
 70
     1
102
RTVSPropertyOp7
 70
     1
102
RTVSPropertyOp8
 70
     1
102
RTVSPropertyOp9
 70
     1
102
RTVSPropertyOp10
 70
     1
102
RTVSPropertyOp11
 70
     1
102
RTVSPropertyOp12
 70
     1
102
RTVSPropertyOp13
 70
     1
102
RTVSPropertyOp14
 70
     1
102
RTVSPropertyOp15
 70
     1
102
RTVSPropertyOp16
 70
     1
102
RTVSPropertyOp17
 70
     1
102
RTVSPropertyOp18
 70
     1
102
RTVSPropertyOp19
 70
     1
102
RTVSPropertyOp20
 70
     1
102
RTVSPropertyOp21
 70
     1
102
RTVSPropertyOp22
 70
     1
102
RTVSPropertyOp23
 70
     1
102
RTVSPropertyOp24
 70
     1
102
RTVSPropertyOp25
 70
     1
102
RTVSPropertyOp26
 70
     1
102
RTVSPropertyOp27
 70
     1
102
RTVSPropertyOp28
 70
     1
102
RTVSPropertyOp29
 70
     1
102
RTVSPropertyOp30
 70
     1
102
RTVSPropertyOp31
 70
     1
102
RTVSPropertyOp32
 70
     1
102
RTVSPropertyOp33
 70
     1
102
RTVSPropertyOp34
 70
     1
102
RTVSPropertyOp35
 70
     1
102
RTVSPropertyOp36
 70
     1
102
RTVSPropertyOp37
 70
     1
102
RTVSPropertyOp38
 70
     1
102
RTVSPropertyOp39
 70
     1
102
RTVSPropertyOp40
 70
     1
102
RTVSPropertyOp41
 70
     1
102
RTVSPropertyOp42
 70
     1
102
RTVSPropertyOp43
 70
     1
102
RTVSPropertyOp44
 70
     1
102
RTVSPropertyOp45
 70
     1
102
RTVSPropertyOp46
 70
     1
102
RTVSPropertyOp47
 70
     1
102
RTVSPropertyOp48
 70
     1
102
RTVSPropertyOp49
 70
     1
102
RTVSPropertyOp50
 70
     1
102
RTVSPropertyOp51
 70
     0
102
RTVSPropertyOp52
 70
     0
102
RTVSPropertyOp53
 70
     1
102
RTVSPropertyOp54
 70
     1
102
RTVSPropertyOp55
 70
     1
102
RTVSPropertyOp56
 70
     1
102
RTVSPropertyOp57
 70
     1
102
RTVSPropertyOp58
 70
     1
102
RTVSPropertyOp59
 70
     1
102
RTVSPropertyOp60
 70
     1
102
RTVSPropertyOp61
 70
     1
102
RTVSPropertyOp62
 70
     1
  0
XRECORD
  5
7FB
102
{ACAD_REACTORS
330
7FA
102
}
330
7FA
100
AcDbXrecord
280
     1
102
RTVSPost2010Prop28
280
     0
102
RTVSPost2010PropOp28
 70
     1
102
RTVSPost2010Prop29
280
     1
102
RTVSPost2010PropOp29
 70
     1
102
RTVSPost2010Prop30
280
     1
102
RTVSPost2010PropOp30
 70
     1
102
RTVSPost2010Prop31
280
     0
102
RTVSPost2010PropOp31
 70
     1
102
RTVSPost2010Prop32
280
     0
102
RTVSPost2010PropOp32
 70
     1
102
RTVSPost2010Prop33
280
     0
102
RTVSPost2010PropOp33
 70
     1
102
RTVSPost2010Prop34
280
     0
102
RTVSPost2010PropOp34
 70
     1
102
RTVSPost2010Prop35
280
     0
102
RTVSPost2010PropOp35
 70
     1
102
RTVSPost2010Prop36
280
     0
102
RTVSPost2010PropOp36
 70
     1
102
RTVSPost2010Prop37
 90
       50
102
RTVSPost2010PropOp37
 70
     1
102
RTVSPost2010Prop38
140
0.0
102
RTVSPost2010PropOp38
 70
     1
102
RTVSPost2010Prop39
140
1.0
102
RTVSPost2010PropOp39
 70
     1
102
RTVSPost2010Prop40
 90
        0
102
RTVSPost2010PropOp40
 70
     1
102
RTVSPost2010Prop41ColorIndex
 90
       18
102
RTVSPost2010Prop41ColorRGB
 90
        0
102
RTVSPost2010PropOp41
 70
     1
102
RTVSPost2010Prop42
 90
       50
102
RTVSPost2010PropOp42
 70
     1
102
RTVSPost2010Prop43
 90
        3
102
RTVSPost2010PropOp43
 70
     1
102
RTVSPost2010Prop44ColorIndex
 90
        5
102
RTVSPost2010Prop44ColorRGB
 90
      255
102
RTVSPost2010PropOp44
 70
     1
102
RTVSPost2010Prop45
280
     0
102
RTVSPost2010PropOp45
 70
     1
102
RTVSPost2010Prop46
 90
       50
102
RTVSPost2010PropOp46
 70
     1
102
RTVSPost2010Prop47
 90
       50
102
RTVSPost2010PropOp47
 70
     1
102
RTVSPost2010Prop48
 90
       50
102
RTVSPost2010PropOp48
 70
     1
102
RTVSPost2010Prop49
280
     0
102
RTVSPost2010PropOp49
 70
     1
102
RTVSPost2010Prop50
 90
       50
102
RTVSPost2010PropOp50
 70
     1
102
RTVSPost2010Prop51ColorIndex
 90
      256
102
RTVSPost2010Prop51ColorRGB
 90
-16777216
102
RTVSPost2010PropOp51
 70
     0
102
RTVSPost2010Prop52
140
1.0
102
RTVSPost2010PropOp52
 70
     0
102
RTVSPost2010Prop53
 90
        2
102
RTVSPost2010PropOp53
 70
     1
102
RTVSPost2010Prop54
  1
strokes_ogs.tif
102
RTVSPost2010PropOp54
 70
     1
102
RTVSPost2010Prop55
280
     0
102
RTVSPost2010PropOp55
 70
     1
102
RTVSPost2010Prop56
140
1.0
102
RTVSPost2010PropOp56
 70
     1
102
RTVSPost2010Prop57
140
1.0
102
RTVSPost2010PropOp57
 70
     1
102
RTVSPropertyOp0
 70
     1
102
RTVSPropertyOp1
 70
     1
102
RTVSPropertyOp2
 70
     1
102
RTVSPropertyOp3
 70
     1
102
RTVSPropertyOp4
 70
     1
102
RTVSPropertyOp5
 70
     1
102
RTVSPropertyOp6
 70
     1
102
RTVSPropertyOp7
 70
     1
102
RTVSPropertyOp8
 70
     1
102
RTVSPropertyOp9
 70
     1
102
RTVSPropertyOp10
 70
     1
102
RTVSPropertyOp11
 70
     1
102
RTVSPropertyOp12
 70
     1
102
RTVSPropertyOp13
 70
     1
102
RTVSPropertyOp14
 70
     1
102
RTVSPropertyOp15
 70
     1
102
RTVSPropertyOp16
 70
     1
102
RTVSPropertyOp17
 70
     1
102
RTVSPropertyOp18
 70
     1
102
RTVSPropertyOp19
 70
     1
102
RTVSPropertyOp20
 70
     1
102
RTVSPropertyOp21
 70
     1
102
RTVSPropertyOp22
 70
     1
102
RTVSPropertyOp23
 70
     1
102
RTVSPropertyOp24
 70
     1
102
RTVSPropertyOp25
 70
     1
102
RTVSPropertyOp26
 70
     1
102
RTVSPropertyOp27
 70
     1
102
RTVSPropertyOp28
 70
     1
102
RTVSPropertyOp29
 70
     1
102
RTVSPropertyOp30
 70
     1
102
RTVSPropertyOp31
 70
     1
102
RTVSPropertyOp32
 70
     1
102
RTVSPropertyOp33
 70
     1
102
RTVSPropertyOp34
 70
     1
102
RTVSPropertyOp35
 70
     1
102
RTVSPropertyOp36
 70
     1
102
RTVSPropertyOp37
 70
     1
102
RTVSPropertyOp38
 70
     1
102
RTVSPropertyOp39
 70
     1
102
RTVSPropertyOp40
 70
     1
102
RTVSPropertyOp41
 70
     1
102
RTVSPropertyOp42
 70
     1
102
RTVSPropertyOp43
 70
     1
102
RTVSPropertyOp44
 70
     1
102
RTVSPropertyOp45
 70
     1
102
RTVSPropertyOp46
 70
     1
102
RTVSPropertyOp47
 70
     1
102
RTVSPropertyOp48
 70
     1
102
RTVSPropertyOp49
 70
     1
102
RTVSPropertyOp50
 70
     1
102
RTVSPropertyOp51
 70
     0
102
RTVSPropertyOp52
 70
     0
102
RTVSPropertyOp53
 70
     1
102
RTVSPropertyOp54
 70
     1
102
RTVSPropertyOp55
 70
     1
102
RTVSPropertyOp56
 70
     1
102
RTVSPropertyOp57
 70
     1
102
RTVSPropertyOp58
 70
     1
102
RTVSPropertyOp59
 70
     1
102
RTVSPropertyOp60
 70
     1
102
RTVSPropertyOp61
 70
     1
102
RTVSPropertyOp62
 70
     1
  0
XRECORD
  5
7EF
102
{ACAD_REACTORS
330
7EE
102
}
330
7EE
100
AcDbXrecord
280
     1
102
RTVSPost2010Prop28
280
     0
102
RTVSPost2010PropOp28
 70
     1
102
RTVSPost2010Prop29
280
     1
102
RTVSPost2010PropOp29
 70
     1
102
RTVSPost2010Prop30
280
     1
102
RTVSPost2010PropOp30
 70
     1
102
RTVSPost2010Prop31
280
     0
102
RTVSPost2010PropOp31
 70
     1
102
RTVSPost2010Prop32
280
     0
102
RTVSPost2010PropOp32
 70
     1
102
RTVSPost2010Prop33
280
     0
102
RTVSPost2010PropOp33
 70
     1
102
RTVSPost2010Prop34
280
     0
102
RTVSPost2010PropOp34
 70
     1
102
RTVSPost2010Prop35
280
     0
102
RTVSPost2010PropOp35
 70
     1
102
RTVSPost2010Prop36
280
     0
102
RTVSPost2010PropOp36
 70
     1
102
RTVSPost2010Prop37
 90
       50
102
RTVSPost2010PropOp37
 70
     1
102
RTVSPost2010Prop38
140
0.0
102
RTVSPost2010PropOp38
 70
     1
102
RTVSPost2010Prop39
140
1.0
102
RTVSPost2010PropOp39
 70
     1
102
RTVSPost2010Prop40
 90
        0
102
RTVSPost2010PropOp40
 70
     1
102
RTVSPost2010Prop41ColorIndex
 90
       18
102
RTVSPost2010Prop41ColorRGB
 90
        0
102
RTVSPost2010PropOp41
 70
     1
102
RTVSPost2010Prop42
 90
       50
102
RTVSPost2010PropOp42
 70
     1
102
RTVSPost2010Prop43
 90
        3
102
RTVSPost2010PropOp43
 70
     1
102
RTVSPost2010Prop44ColorIndex
 90
        5
102
RTVSPost2010Prop44ColorRGB
 90
      255
102
RTVSPost2010PropOp44
 70
     1
102
RTVSPost2010Prop45
280
     0
102
RTVSPost2010PropOp45
 70
     1
102
RTVSPost2010Prop46
 90
       50
102
RTVSPost2010PropOp46
 70
     1
102
RTVSPost2010Prop47
 90
       50
102
RTVSPost2010PropOp47
 70
     1
102
RTVSPost2010Prop48
 90
       50
102
RTVSPost2010PropOp48
 70
     1
102
RTVSPost2010Prop49
280
     0
102
RTVSPost2010PropOp49
 70
     1
102
RTVSPost2010Prop50
 90
       50
102
RTVSPost2010PropOp50
 70
     1
102
RTVSPost2010Prop51ColorIndex
 90
      256
102
RTVSPost2010Prop51ColorRGB
 90
-16777216
102
RTVSPost2010PropOp51
 70
     0
102
RTVSPost2010Prop52
140
1.0
102
RTVSPost2010PropOp52
 70
     0
102
RTVSPost2010Prop53
 90
        2
102
RTVSPost2010PropOp53
 70
     1
102
RTVSPost2010Prop54
  1
strokes_ogs.tif
102
RTVSPost2010PropOp54
 70
     1
102
RTVSPost2010Prop55
280
     0
102
RTVSPost2010PropOp55
 70
     1
102
RTVSPost2010Prop56
140
1.0
102
RTVSPost2010PropOp56
 70
     1
102
RTVSPost2010Prop57
140
1.0
102
RTVSPost2010PropOp57
 70
     1
102
RTVSPropertyOp0
 70
     1
102
RTVSPropertyOp1
 70
     1
102
RTVSPropertyOp2
 70
     1
102
RTVSPropertyOp3
 70
     1
102
RTVSPropertyOp4
 70
     1
102
RTVSPropertyOp5
 70
     1
102
RTVSPropertyOp6
 70
     1
102
RTVSPropertyOp7
 70
     1
102
RTVSPropertyOp8
 70
     1
102
RTVSPropertyOp9
 70
     1
102
RTVSPropertyOp10
 70
     1
102
RTVSPropertyOp11
 70
     1
102
RTVSPropertyOp12
 70
     1
102
RTVSPropertyOp13
 70
     1
102
RTVSPropertyOp14
 70
     1
102
RTVSPropertyOp15
 70
     1
102
RTVSPropertyOp16
 70
     1
102
RTVSPropertyOp17
 70
     1
102
RTVSPropertyOp18
 70
     1
102
RTVSPropertyOp19
 70
     1
102
RTVSPropertyOp20
 70
     1
102
RTVSPropertyOp21
 70
     1
102
RTVSPropertyOp22
 70
     1
102
RTVSPropertyOp23
 70
     1
102
RTVSPropertyOp24
 70
     1
102
RTVSPropertyOp25
 70
     1
102
RTVSPropertyOp26
 70
     1
102
RTVSPropertyOp27
 70
     1
102
RTVSPropertyOp28
 70
     1
102
RTVSPropertyOp29
 70
     1
102
RTVSPropertyOp30
 70
     1
102
RTVSPropertyOp31
 70
     1
102
RTVSPropertyOp32
 70
     1
102
RTVSPropertyOp33
 70
     1
102
RTVSPropertyOp34
 70
     1
102
RTVSPropertyOp35
 70
     1
102
RTVSPropertyOp36
 70
     1
102
RTVSPropertyOp37
 70
     1
102
RTVSPropertyOp38
 70
     1
102
RTVSPropertyOp39
 70
     1
102
RTVSPropertyOp40
 70
     1
102
RTVSPropertyOp41
 70
     1
102
RTVSPropertyOp42
 70
     1
102
RTVSPropertyOp43
 70
     1
102
RTVSPropertyOp44
 70
     1
102
RTVSPropertyOp45
 70
     1
102
RTVSPropertyOp46
 70
     1
102
RTVSPropertyOp47
 70
     1
102
RTVSPropertyOp48
 70
     1
102
RTVSPropertyOp49
 70
     1
102
RTVSPropertyOp50
 70
     1
102
RTVSPropertyOp51
 70
     0
102
RTVSPropertyOp52
 70
     0
102
RTVSPropertyOp53
 70
     1
102
RTVSPropertyOp54
 70
     1
102
RTVSPropertyOp55
 70
     1
102
RTVSPropertyOp56
 70
     1
102
RTVSPropertyOp57
 70
     1
102
RTVSPropertyOp58
 70
     1
102
RTVSPropertyOp59
 70
     1
102
RTVSPropertyOp60
 70
     1
102
RTVSPropertyOp61
 70
     1
102
RTVSPropertyOp62
 70
     1
  0
XRECORD
  5
807
102
{ACAD_REACTORS
330
806
102
}
330
806
100
AcDbXrecord
280
     1
102
RTVSPost2010Prop28
280
     0
102
RTVSPost2010PropOp28
 70
     1
102
RTVSPost2010Prop29
280
     1
102
RTVSPost2010PropOp29
 70
     1
102
RTVSPost2010Prop30
280
     1
102
RTVSPost2010PropOp30
 70
     1
102
RTVSPost2010Prop31
280
     0
102
RTVSPost2010PropOp31
 70
     1
102
RTVSPost2010Prop32
280
     0
102
RTVSPost2010PropOp32
 70
     1
102
RTVSPost2010Prop33
280
     0
102
RTVSPost2010PropOp33
 70
     1
102
RTVSPost2010Prop34
280
     0
102
RTVSPost2010PropOp34
 70
     1
102
RTVSPost2010Prop35
280
     0
102
RTVSPost2010PropOp35
 70
     1
102
RTVSPost2010Prop36
280
     0
102
RTVSPost2010PropOp36
 70
     1
102
RTVSPost2010Prop37
 90
       50
102
RTVSPost2010PropOp37
 70
     1
102
RTVSPost2010Prop38
140
0.0
102
RTVSPost2010PropOp38
 70
     1
102
RTVSPost2010Prop39
140
1.0
102
RTVSPost2010PropOp39
 70
     1
102
RTVSPost2010Prop40
 90
        0
102
RTVSPost2010PropOp40
 70
     1
102
RTVSPost2010Prop41ColorIndex
 90
       18
102
RTVSPost2010Prop41ColorRGB
 90
        0
102
RTVSPost2010PropOp41
 70
     1
102
RTVSPost2010Prop42
 90
       50
102
RTVSPost2010PropOp42
 70
     1
102
RTVSPost2010Prop43
 90
        3
102
RTVSPost2010PropOp43
 70
     1
102
RTVSPost2010Prop44ColorIndex
 90
        5
102
RTVSPost2010Prop44ColorRGB
 90
      255
102
RTVSPost2010PropOp44
 70
     1
102
RTVSPost2010Prop45
280
     0
102
RTVSPost2010PropOp45
 70
     1
102
RTVSPost2010Prop46
 90
       50
102
RTVSPost2010PropOp46
 70
     1
102
RTVSPost2010Prop47
 90
       50
102
RTVSPost2010PropOp47
 70
     1
102
RTVSPost2010Prop48
 90
       50
102
RTVSPost2010PropOp48
 70
     1
102
RTVSPost2010Prop49
280
     0
102
RTVSPost2010PropOp49
 70
     1
102
RTVSPost2010Prop50
 90
       50
102
RTVSPost2010PropOp50
 70
     1
102
RTVSPost2010Prop51ColorIndex
 90
      256
102
RTVSPost2010Prop51ColorRGB
 90
-16777216
102
RTVSPost2010PropOp51
 70
     0
102
RTVSPost2010Prop52
140
1.0
102
RTVSPost2010PropOp52
 70
     0
102
RTVSPost2010Prop53
 90
        2
102
RTVSPost2010PropOp53
 70
     1
102
RTVSPost2010Prop54
  1
strokes_ogs.tif
102
RTVSPost2010PropOp54
 70
     1
102
RTVSPost2010Prop55
280
     0
102
RTVSPost2010PropOp55
 70
     1
102
RTVSPost2010Prop56
140
1.0
102
RTVSPost2010PropOp56
 70
     1
102
RTVSPost2010Prop57
140
1.0
102
RTVSPost2010PropOp57
 70
     1
102
RTVSPropertyOp0
 70
     1
102
RTVSPropertyOp1
 70
     1
102
RTVSPropertyOp2
 70
     1
102
RTVSPropertyOp3
 70
     1
102
RTVSPropertyOp4
 70
     1
102
RTVSPropertyOp5
 70
     1
102
RTVSPropertyOp6
 70
     1
102
RTVSPropertyOp7
 70
     1
102
RTVSPropertyOp8
 70
     1
102
RTVSPropertyOp9
 70
     1
102
RTVSPropertyOp10
 70
     1
102
RTVSPropertyOp11
 70
     1
102
RTVSPropertyOp12
 70
     1
102
RTVSPropertyOp13
 70
     1
102
RTVSPropertyOp14
 70
     1
102
RTVSPropertyOp15
 70
     1
102
RTVSPropertyOp16
 70
     1
102
RTVSPropertyOp17
 70
     1
102
RTVSPropertyOp18
 70
     1
102
RTVSPropertyOp19
 70
     1
102
RTVSPropertyOp20
 70
     1
102
RTVSPropertyOp21
 70
     1
102
RTVSPropertyOp22
 70
     1
102
RTVSPropertyOp23
 70
     1
102
RTVSPropertyOp24
 70
     1
102
RTVSPropertyOp25
 70
     1
102
RTVSPropertyOp26
 70
     1
102
RTVSPropertyOp27
 70
     1
102
RTVSPropertyOp28
 70
     1
102
RTVSPropertyOp29
 70
     1
102
RTVSPropertyOp30
 70
     1
102
RTVSPropertyOp31
 70
     1
102
RTVSPropertyOp32
 70
     1
102
RTVSPropertyOp33
 70
     1
102
RTVSPropertyOp34
 70
     1
102
RTVSPropertyOp35
 70
     1
102
RTVSPropertyOp36
 70
     1
102
RTVSPropertyOp37
 70
     1
102
RTVSPropertyOp38
 70
     1
102
RTVSPropertyOp39
 70
     1
102
RTVSPropertyOp40
 70
     1
102
RTVSPropertyOp41
 70
     1
102
RTVSPropertyOp42
 70
     1
102
RTVSPropertyOp43
 70
     1
102
RTVSPropertyOp44
 70
     1
102
RTVSPropertyOp45
 70
     1
102
RTVSPropertyOp46
 70
     1
102
RTVSPropertyOp47
 70
     1
102
RTVSPropertyOp48
 70
     1
102
RTVSPropertyOp49
 70
     1
102
RTVSPropertyOp50
 70
     1
102
RTVSPropertyOp51
 70
     0
102
RTVSPropertyOp52
 70
     0
102
RTVSPropertyOp53
 70
     1
102
RTVSPropertyOp54
 70
     1
102
RTVSPropertyOp55
 70
     1
102
RTVSPropertyOp56
 70
     1
102
RTVSPropertyOp57
 70
     1
102
RTVSPropertyOp58
 70
     1
102
RTVSPropertyOp59
 70
     1
102
RTVSPropertyOp60
 70
     1
102
RTVSPropertyOp61
 70
     1
102
RTVSPropertyOp62
 70
     1
  0
ENDSEC
  0
EOF
