  0
SECTION
  2
HEADER
  9
$ACADVER
  1
AC1015
  9
$ACADMAINTVER
 70
    20
  9
$DWGCODEPAGE
  3
ANSI_1252
  9
$INSBASE
 10
0.0
 20
0.0
 30
0.0
  9
$EXTMIN
 10
-14.166709
 20
-21.67538900000001
 30
0.0
  9
$EXTMAX
 10
77.55103299999999
 20
37.98275
 30
0.0
  9
$LIMMIN
 10
0.0
 20
0.0
  9
$LIMMAX
 10
12.0
 20
9.0
  9
$ORTHOMODE
 70
     0
  9
$REGENMODE
 70
     1
  9
$FILLMODE
 70
     1
  9
$QTEXTMODE
 70
     0
  9
$MIRRTEXT
 70
     1
  9
$LTSCALE
 40
1.0
  9
$ATTMODE
 70
     1
  9
$TEXTSIZE
 40
3.0
  9
$TRACEWID
 40
10.0
  9
$TEXTSTYLE
  7
SANDVIK_STYLE
  9
$CLAYER
  8
1
  9
$CELTYPE
  6
ByLayer
  9
$CECOLOR
 62
   256
  9
$CELTSCALE
 40
1.0
  9
$DISPSILH
 70
     0
  9
$DIMSCALE
 40
1.0
  9
$DIMASZ
 40
0.18
  9
$DIMEXO
 40
0.0625
  9
$DIMDLI
 40
0.38
  9
$DIMRND
 40
0.0
  9
$DIMDLE
 40
0.0
  9
$DIMEXE
 40
0.18
  9
$DIMTP
 40
0.0
  9
$DIMTM
 40
0.0
  9
$DIMTXT
 40
0.18
  9
$DIMCEN
 40
0.09
  9
$DIMTSZ
 40
0.0
  9
$DIMTOL
 70
     0
  9
$DIMLIM
 70
     0
  9
$DIMTIH
 70
     1
  9
$DIMTOH
 70
     1
  9
$DIMSE1
 70
     0
  9
$DIMSE2
 70
     0
  9
$DIMTAD
 70
     0
  9
$DIMZIN
 70
     0
  9
$DIMBLK
  1

  9
$DIMASO
 70
     1
  9
$DIMSHO
 70
     1
  9
$DIMPOST
  1

  9
$DIMAPOST
  1

  9
$DIMALT
 70
     0
  9
$DIMALTD
 70
     2
  9
$DIMALTF
 40
25.4
  9
$DIMLFAC
 40
1.0
  9
$DIMTOFL
 70
     0
  9
$DIMTVP
 40
0.0
  9
$DIMTIX
 70
     0
  9
$DIMSOXD
 70
     0
  9
$DIMSAH
 70
     0
  9
$DIMBLK1
  1

  9
$DIMBLK2
  1

  9
$DIMSTYLE
  2
STANDARD
  9
$DIMCLRD
 70
     0
  9
$DIMCLRE
 70
     0
  9
$DIMCLRT
 70
     0
  9
$DIMTFAC
 40
1.0
  9
$DIMGAP
 40
0.09
  9
$DIMJUST
 70
     0
  9
$DIMSD1
 70
     0
  9
$DIMSD2
 70
     0
  9
$DIMTOLJ
 70
     1
  9
$DIMTZIN
 70
     0
  9
$DIMALTZ
 70
     0
  9
$DIMALTTZ
 70
     0
  9
$DIMUPT
 70
     0
  9
$DIMDEC
 70
     4
  9
$DIMTDEC
 70
     4
  9
$DIMALTU
 70
     2
  9
$DIMALTTD
 70
     2
  9
$DIMTXSTY
  7
STANDARD
  9
$DIMAUNIT
 70
     0
  9
$DIMADEC
 70
     0
  9
$DIMALTRND
 40
0.0
  9
$DIMAZIN
 70
     0
  9
$DIMDSEP
 70
    46
  9
$DIMATFIT
 70
     3
  9
$DIMFRAC
 70
     0
  9
$DIMLDRBLK
  1

  9
$DIMLUNIT
 70
     2
  9
$DIMLWD
 70
    -2
  9
$DIMLWE
 70
    -2
  9
$DIMTMOVE
 70
     0
  9
$LUNITS
 70
     2
  9
$LUPREC
 70
     2
  9
$SKETCHINC
 40
0.0
  9
$FILLETRAD
 40
0.0
  9
$AUNITS
 70
     0
  9
$AUPREC
 70
     2
  9
$MENU
  1
acad
  9
$ELEVATION
 40
0.0
  9
$PELEVATION
 40
0.0
  9
$THICKNESS
 40
0.0
  9
$LIMCHECK
 70
     0
  9
$CHAMFERA
 40
0.0
  9
$CHAMFERB
 40
0.0
  9
$CHAMFERC
 40
0.0
  9
$CHAMFERD
 40
0.0
  9
$SKPOLY
 70
     0
  9
$TDCREATE
 40
2456818.319609248
  9
$TDUCREATE
 40
2456818.236275914
  9
$TDUPDATE
 40
2456818.319613206
  9
$TDUUPDATE
 40
2456818.236279873
  9
$TDINDWG
 40
0.0000047106
  9
$TDUSRTIMER
 40
0.0000047106
  9
$USRTIMER
 70
     1
  9
$ANGBASE
 50
0.0
  9
$ANGDIR
 70
     0
  9
$PDMODE
 70
     0
  9
$PDSIZE
 40
0.0
  9
$PLINEWID
 40
0.0
  9
$SPLFRAME
 70
     0
  9
$SPLINETYPE
 70
     6
  9
$SPLINESEGS
 70
     8
  9
$HANDSEED
  5
3C0
  9
$SURFTAB1
 70
     6
  9
$SURFTAB2
 70
     6
  9
$SURFTYPE
 70
     6
  9
$SURFU
 70
     6
  9
$SURFV
 70
     6
  9
$UCSBASE
  2

  9
$UCSNAME
  2

  9
$UCSORG
 10
0.0
 20
0.0
 30
0.0
  9
$UCSXDIR
 10
1.0
 20
0.0
 30
0.0
  9
$UCSYDIR
 10
0.0
 20
1.0
 30
0.0
  9
$UCSORTHOREF
  2

  9
$UCSORTHOVIEW
 70
     0
  9
$UCSORGTOP
 10
0.0
 20
0.0
 30
0.0
  9
$UCSORGBOTTOM
 10
0.0
 20
0.0
 30
0.0
  9
$UCSORGLEFT
 10
0.0
 20
0.0
 30
0.0
  9
$UCSORGRIGHT
 10
0.0
 20
0.0
 30
0.0
  9
$UCSORGFRONT
 10
0.0
 20
0.0
 30
0.0
  9
$UCSORGBACK
 10
0.0
 20
0.0
 30
0.0
  9
$PUCSBASE
  2

  9
$PUCSNAME
  2

  9
$PUCSORG
 10
0.0
 20
0.0
 30
0.0
  9
$PUCSXDIR
 10
1.0
 20
0.0
 30
0.0
  9
$PUCSYDIR
 10
0.0
 20
1.0
 30
0.0
  9
$PUCSORTHOREF
  2

  9
$PUCSORTHOVIEW
 70
     0
  9
$PUCSORGTOP
 10
0.0
 20
0.0
 30
0.0
  9
$PUCSORGBOTTOM
 10
0.0
 20
0.0
 30
0.0
  9
$PUCSORGLEFT
 10
0.0
 20
0.0
 30
0.0
  9
$PUCSORGRIGHT
 10
0.0
 20
0.0
 30
0.0
  9
$PUCSORGFRONT
 10
0.0
 20
0.0
 30
0.0
  9
$PUCSORGBACK
 10
0.0
 20
0.0
 30
0.0
  9
$USERI1
 70
     0
  9
$USERI2
 70
     0
  9
$USERI3
 70
     0
  9
$USERI4
 70
     0
  9
$USERI5
 70
     0
  9
$USERR1
 40
0.0
  9
$USERR2
 40
0.0
  9
$USERR3
 40
0.0
  9
$USERR4
 40
0.0
  9
$USERR5
 40
0.0
  9
$WORLDVIEW
 70
     1
  9
$SHADEDGE
 70
     3
  9
$SHADEDIF
 70
    70
  9
$TILEMODE
 70
     1
  9
$MAXACTVP
 70
    16
  9
$PINSBASE
 10
0.0
 20
0.0
 30
0.0
  9
$PLIMCHECK
 70
     0
  9
$PEXTMIN
 10
1.000000000000000E+20
 20
1.000000000000000E+20
 30
1.000000000000000E+20
  9
$PEXTMAX
 10
-1.000000000000000E+20
 20
-1.000000000000000E+20
 30
-1.000000000000000E+20
  9
$PLIMMIN
 10
0.0
 20
0.0
  9
$PLIMMAX
 10
12.0
 20
9.0
  9
$UNITMODE
 70
     0
  9
$VISRETAIN
 70
     0
  9
$PLINEGEN
 70
     0
  9
$PSLTSCALE
 70
     1
  9
$TREEDEPTH
 70
  3020
  9
$CMLSTYLE
  2
Standard
  9
$CMLJUST
 70
     0
  9
$CMLSCALE
 40
1.0
  9
$PROXYGRAPHICS
 70
     1
  9
$MEASUREMENT
 70
     0
  9
$CELWEIGHT
370
    -1
  9
$ENDCAPS
280
     0
  9
$JOINSTYLE
280
     0
  9
$LWDISPLAY
290
     0
  9
$INSUNITS
 70
     0
  9
$HYPERLINKBASE
  1

  9
$STYLESHEET
  1

  9
$XEDIT
290
     1
  9
$CEPSNTYPE
380
     0
  9
$PSTYLEMODE
290
     1
  9
$FINGERPRINTGUID
  2
{F23A84E1-4F1F-41E6-A0D2-DE2F39484343}
  9
$VERSIONGUID
  2
{85472173-4E41-4CB8-B537-49C22FD48896}
  9
$EXTNAMES
290
     1
  9
$PSVPSCALE
 40
0.0
  9
$OLESTARTUP
290
     0
  0
ENDSEC
  0
SECTION
  2
CLASSES
  0
CLASS
  1
ACDBDICTIONARYWDFLT
  2
AcDbDictionaryWithDefault
  3
ObjectDBX Classes
 90
        0
280
     0
281
     0
  0
CLASS
  1
MATERIAL
  2
AcDbMaterial
  3
ObjectDBX Classes
 90
     1153
280
     0
281
     0
  0
CLASS
  1
VISUALSTYLE
  2
AcDbVisualStyle
  3
ObjectDBX Classes
 90
     4095
280
     0
281
     0
  0
CLASS
  1
SCALE
  2
AcDbScale
  3
ObjectDBX Classes
 90
     1153
280
     0
281
     0
  0
CLASS
  1
TABLESTYLE
  2
AcDbTableStyle
  3
ObjectDBX Classes
 90
     4095
280
     0
281
     0
  0
CLASS
  1
MLEADERSTYLE
  2
AcDbMLeaderStyle
  3
ACDB_MLEADERSTYLE_CLASS
 90
     4095
280
     0
281
     0
  0
CLASS
  1
ACDBSECTIONVIEWSTYLE
  2
AcDbSectionViewStyle
  3
ObjectDBX Classes
 90
     1025
280
     0
281
     0
  0
CLASS
  1
ACDBDETAILVIEWSTYLE
  2
AcDbDetailViewStyle
  3
ObjectDBX Classes
 90
     1025
280
     0
281
     0
  0
CLASS
  1
EXACXREFPANELOBJECT
  2
ExAcXREFPanelObject
  3
EXAC_ESW
 90
     1025
280
     0
281
     0
  0
CLASS
  1
NPOCOLLECTION
  2
AcDbImpNonPersistentObjectsCollection
  3
ObjectDBX Classes
 90
     1153
280
     0
281
     0
  0
CLASS
  1
DICTIONARYVAR
  2
AcDbDictionaryVar
  3
ObjectDBX Classes
 90
        0
280
     0
281
     0
  0
CLASS
  1
CELLSTYLEMAP
  2
AcDbCellStyleMap
  3
ObjectDBX Classes
 90
     1152
280
     0
281
     0
  0
CLASS
  1
ACDBPLACEHOLDER
  2
AcDbPlaceHolder
  3
ObjectDBX Classes
 90
        0
280
     0
281
     0
  0
CLASS
  1
LAYOUT
  2
AcDbLayout
  3
ObjectDBX Classes
 90
        0
280
     0
281
     0
  0
ENDSEC
  0
SECTION
  2
TABLES
  0
TABLE
  2
VPORT
  5
28D
330
0
100
AcDbSymbolTable
 70
     1
  0
VPORT
  5
324
330
28D
100
AcDbSymbolTableRecord
100
AcDbViewportTableRecord
  2
*Active
 70
     0
 10
0.0
 20
0.0
 11
1.0
 21
1.0
 12
31.69216199999999
 22
8.153680499999996
 13
0.0
 23
0.0
 14
1.0
 24
1.0
 15
0.0
 25
0.0
 16
0.0
 26
0.0
 36
1.0
 17
0.0
 27
0.0
 37
0.0
 40
66.76256384635832
 41
2.2
 42
50.0
 43
0.0
 44
0.0
 50
0.0
 51
0.0
 71
     0
 72
   100
 73
     1
 74
     1
 75
     0
 76
     0
 77
     0
 78
     0
281
     0
 65
     1
110
0.0
120
0.0
130
0.0
111
1.0
121
0.0
131
0.0
112
0.0
122
1.0
132
0.0
 79
     0
146
0.0
1001
ACAD_NAV_VCDISPLAY
1070
     3
  0
ENDTAB
  0
TABLE
  2
LTYPE
  5
28A
330
0
100
AcDbSymbolTable
 70
     4
  0
LTYPE
  5
2DF
330
28A
100
AcDbSymbolTableRecord
100
AcDbLinetypeTableRecord
  2
ByBlock
 70
     0
  3

 72
    65
 73
     0
 40
0.0
  0
LTYPE
  5
2E0
330
28A
100
AcDbSymbolTableRecord
100
AcDbLinetypeTableRecord
  2
ByLayer
 70
     0
  3

 72
    65
 73
     0
 40
0.0
  0
LTYPE
  5
2E1
330
28A
100
AcDbSymbolTableRecord
100
AcDbLinetypeTableRecord
  2
CONTINUOUS
 70
     0
  3
Solid line
 72
    65
 73
     0
 40
0.0
  0
LTYPE
  5
2ED
330
28A
100
AcDbSymbolTableRecord
100
AcDbLinetypeTableRecord
  2
PHANTOM2
 70
     0
  3
Phantom (.5x) ___ _ _ ___ _ _ ___ _ _ ___ _ _
 72
    65
 73
     6
 40
1.25
 49
0.625
 74
     0
 49
-0.125
 74
     0
 49
0.125
 74
     0
 49
-0.125
 74
     0
 49
0.125
 74
     0
 49
-0.125
 74
     0
  0
LTYPE
  5
2FB
330
28A
100
AcDbSymbolTableRecord
100
AcDbLinetypeTableRecord
  2
CENTER
 70
     0
  3
____ _ ____ _ ____ _ ____ _ ____ _ ____ _ ____
 72
    65
 73
     4
 40
5.059897
 49
3.162434999999999
 74
     0
 49
-0.6324870000000001
 74
     0
 49
0.6324870000000001
 74
     0
 49
-0.6324870000000001
 74
     0
  0
LTYPE
  5
2FC
330
28A
100
AcDbSymbolTableRecord
100
AcDbLinetypeTableRecord
  2
DASHED
 70
     0
  3
__ __ __ __ __ __ __ __ __ __ __ __ __ __ __ __
 72
    65
 73
     2
 40
7.589844999999999
 49
5.059897
 74
     0
 49
-2.529948
 74
     0
  0
ENDTAB
  0
TABLE
  2
LAYER
  5
287
330
0
100
AcDbSymbolTable
 70
    38
  0
LAYER
  5
2D9
102
{ACAD_XDICTIONARY
360
32C
102
}
330
287
100
AcDbSymbolTableRecord
100
AcDbLayerTableRecord
  2
0
 70
     0
 62
     7
  6
CONTINUOUS
370
    -3
390
294
  0
LAYER
  5
2F9
102
{ACAD_XDICTIONARY
360
32E
102
}
330
287
100
AcDbSymbolTableRecord
100
AcDbLayerTableRecord
  2
1
 70
     0
 62
     4
  6
CONTINUOUS
370
    -3
390
294
  0
LAYER
  5
2FD
102
{ACAD_XDICTIONARY
360
330
102
}
330
287
100
AcDbSymbolTableRecord
100
AcDbLayerTableRecord
  2
61
 70
     0
 62
     5
  6
CONTINUOUS
370
    -3
390
294
  0
LAYER
  5
2FE
102
{ACAD_XDICTIONARY
360
332
102
}
330
287
100
AcDbSymbolTableRecord
100
AcDbLayerTableRecord
  2
62
 70
     0
 62
    -5
  6
CONTINUOUS
370
    -3
390
294
  0
LAYER
  5
2FF
102
{ACAD_XDICTIONARY
360
334
102
}
330
287
100
AcDbSymbolTableRecord
100
AcDbLayerTableRecord
  2
63
 70
     0
 62
    -5
  6
CONTINUOUS
370
    -3
390
294
  0
LAYER
  5
300
102
{ACAD_XDICTIONARY
360
336
102
}
330
287
100
AcDbSymbolTableRecord
100
AcDbLayerTableRecord
  2
64
 70
     0
 62
    -5
  6
CONTINUOUS
370
    -3
390
294
  0
LAYER
  5
301
102
{ACAD_XDICTIONARY
360
338
102
}
330
287
100
AcDbSymbolTableRecord
100
AcDbLayerTableRecord
  2
65
 70
     0
 62
    -5
  6
CONTINUOUS
370
    -3
390
294
  0
LAYER
  5
302
102
{ACAD_XDICTIONARY
360
33A
102
}
330
287
100
AcDbSymbolTableRecord
100
AcDbLayerTableRecord
  2
66
 70
     0
 62
    -5
  6
CONTINUOUS
370
    -3
390
294
  0
LAYER
  5
303
102
{ACAD_XDICTIONARY
360
33C
102
}
330
287
100
AcDbSymbolTableRecord
100
AcDbLayerTableRecord
  2
67
 70
     0
 62
    -5
  6
CONTINUOUS
370
    -3
390
294
  0
LAYER
  5
304
102
{ACAD_XDICTIONARY
360
33E
102
}
330
287
100
AcDbSymbolTableRecord
100
AcDbLayerTableRecord
  2
68
 70
     0
 62
    -5
  6
CONTINUOUS
370
    -3
390
294
  0
LAYER
  5
305
102
{ACAD_XDICTIONARY
360
340
102
}
330
287
100
AcDbSymbolTableRecord
100
AcDbLayerTableRecord
  2
69
 70
     0
 62
    -5
  6
CONTINUOUS
370
    -3
390
294
  0
LAYER
  5
306
102
{ACAD_XDICTIONARY
360
342
102
}
330
287
100
AcDbSymbolTableRecord
100
AcDbLayerTableRecord
  2
70
 70
     0
 62
     5
  6
CONTINUOUS
370
    -3
390
294
  0
LAYER
  5
307
102
{ACAD_XDICTIONARY
360
344
102
}
330
287
100
AcDbSymbolTableRecord
100
AcDbLayerTableRecord
  2
2
 70
     0
 62
     7
  6
CONTINUOUS
370
    -3
390
294
  0
LAYER
  5
308
102
{ACAD_XDICTIONARY
360
346
102
}
330
287
100
AcDbSymbolTableRecord
100
AcDbLayerTableRecord
  2
3
 70
     0
 62
     1
  6
DASHED
370
    -3
390
294
  0
LAYER
  5
309
102
{ACAD_XDICTIONARY
360
348
102
}
330
287
100
AcDbSymbolTableRecord
100
AcDbLayerTableRecord
  2
4
 70
     0
 62
    -2
  6
CENTER
370
    -3
390
294
  0
LAYER
  5
30A
102
{ACAD_XDICTIONARY
360
34A
102
}
330
287
100
AcDbSymbolTableRecord
100
AcDbLayerTableRecord
  2
5
 70
     0
 62
    -7
  6
CONTINUOUS
370
    -3
390
294
  0
LAYER
  5
30B
102
{ACAD_XDICTIONARY
360
34C
102
}
330
287
100
AcDbSymbolTableRecord
100
AcDbLayerTableRecord
  2
SK1
 70
     0
 62
     4
  6
CONTINUOUS
370
    -3
390
294
  0
LAYER
  5
30C
102
{ACAD_XDICTIONARY
360
34E
102
}
330
287
100
AcDbSymbolTableRecord
100
AcDbLayerTableRecord
  2
6
 70
     0
 62
     5
  6
CONTINUOUS
370
    -3
390
294
  0
LAYER
  5
30D
102
{ACAD_XDICTIONARY
360
350
102
}
330
287
100
AcDbSymbolTableRecord
100
AcDbLayerTableRecord
  2
SK2
 70
     0
 62
     7
  6
CONTINUOUS
370
    -3
390
294
  0
LAYER
  5
30E
102
{ACAD_XDICTIONARY
360
352
102
}
330
287
100
AcDbSymbolTableRecord
100
AcDbLayerTableRecord
  2
SK3
 70
     0
 62
     1
  6
DASHED
370
    -3
390
294
  0
LAYER
  5
30F
102
{ACAD_XDICTIONARY
360
354
102
}
330
287
100
AcDbSymbolTableRecord
100
AcDbLayerTableRecord
  2
SK4
 70
     0
 62
     2
  6
CENTER
370
    -3
390
294
  0
LAYER
  5
310
102
{ACAD_XDICTIONARY
360
356
102
}
330
287
100
AcDbSymbolTableRecord
100
AcDbLayerTableRecord
  2
CUT
 70
     0
 62
    -1
  6
CONTINUOUS
370
    -3
390
294
  0
LAYER
  5
311
102
{ACAD_XDICTIONARY
360
358
102
}
330
287
100
AcDbSymbolTableRecord
100
AcDbLayerTableRecord
  2
SK6
 70
     0
 62
     5
  6
CONTINUOUS
370
    -3
390
294
  0
LAYER
  5
312
102
{ACAD_XDICTIONARY
360
35A
102
}
330
287
100
AcDbSymbolTableRecord
100
AcDbLayerTableRecord
  2
80
 70
     0
 62
    -2
  6
CENTER
370
    -3
390
294
  0
LAYER
  5
313
102
{ACAD_XDICTIONARY
360
35C
102
}
330
287
100
AcDbSymbolTableRecord
100
AcDbLayerTableRecord
  2
81
 70
     0
 62
    -2
  6
CENTER
370
    -3
390
294
  0
LAYER
  5
314
102
{ACAD_XDICTIONARY
360
35E
102
}
330
287
100
AcDbSymbolTableRecord
100
AcDbLayerTableRecord
  2
82
 70
     0
 62
    -2
  6
CENTER
370
    -3
390
294
  0
LAYER
  5
315
102
{ACAD_XDICTIONARY
360
360
102
}
330
287
100
AcDbSymbolTableRecord
100
AcDbLayerTableRecord
  2
NOCUT
 70
     0
 62
     7
  6
CONTINUOUS
370
    -3
390
294
  0
LAYER
  5
316
102
{ACAD_XDICTIONARY
360
362
102
}
330
287
100
AcDbSymbolTableRecord
100
AcDbLayerTableRecord
  2
50
 70
     0
 62
    -7
  6
CONTINUOUS
370
    -3
390
294
  0
LAYER
  5
317
102
{ACAD_XDICTIONARY
360
364
102
}
330
287
100
AcDbSymbolTableRecord
100
AcDbLayerTableRecord
  2
51
 70
     0
 62
     7
  6
CONTINUOUS
370
    -3
390
294
  0
LAYER
  5
318
102
{ACAD_XDICTIONARY
360
366
102
}
330
287
100
AcDbSymbolTableRecord
100
AcDbLayerTableRecord
  2
52
 70
     0
 62
    -7
  6
CONTINUOUS
370
    -3
390
294
  0
LAYER
  5
319
102
{ACAD_XDICTIONARY
360
368
102
}
330
287
100
AcDbSymbolTableRecord
100
AcDbLayerTableRecord
  2
53
 70
     0
 62
    -7
  6
CONTINUOUS
370
    -3
390
294
  0
LAYER
  5
31A
102
{ACAD_XDICTIONARY
360
36A
102
}
330
287
100
AcDbSymbolTableRecord
100
AcDbLayerTableRecord
  2
54
 70
     0
 62
    -7
  6
CONTINUOUS
370
    -3
390
294
  0
LAYER
  5
31B
102
{ACAD_XDICTIONARY
360
36C
102
}
330
287
100
AcDbSymbolTableRecord
100
AcDbLayerTableRecord
  2
55
 70
     0
 62
    -7
  6
CONTINUOUS
370
    -3
390
294
  0
LAYER
  5
31C
102
{ACAD_XDICTIONARY
360
36E
102
}
330
287
100
AcDbSymbolTableRecord
100
AcDbLayerTableRecord
  2
56
 70
     0
 62
    -7
  6
CONTINUOUS
370
    -3
390
294
  0
LAYER
  5
31D
102
{ACAD_XDICTIONARY
360
370
102
}
330
287
100
AcDbSymbolTableRecord
100
AcDbLayerTableRecord
  2
57
 70
     0
 62
    -7
  6
CONTINUOUS
370
    -3
390
294
  0
LAYER
  5
31E
102
{ACAD_XDICTIONARY
360
372
102
}
330
287
100
AcDbSymbolTableRecord
100
AcDbLayerTableRecord
  2
58
 70
     0
 62
    -7
  6
CONTINUOUS
370
    -3
390
294
  0
LAYER
  5
31F
102
{ACAD_XDICTIONARY
360
374
102
}
330
287
100
AcDbSymbolTableRecord
100
AcDbLayerTableRecord
  2
2L
 70
     0
 62
     7
  6
CONTINUOUS
370
    -3
390
294
  0
LAYER
  5
320
102
{ACAD_XDICTIONARY
360
376
102
}
330
287
100
AcDbSymbolTableRecord
100
AcDbLayerTableRecord
  2
59
 70
     0
 62
    -7
  6
CONTINUOUS
370
    -3
390
294
  0
ENDTAB
  0
TABLE
  2
STYLE
  5
288
330
0
100
AcDbSymbolTable
 70
     3
  0
STYLE
  5
2DA
330
288
100
AcDbSymbolTableRecord
100
AcDbTextStyleTableRecord
  2
STANDARD
 70
     0
 40
0.0
 41
1.0
 50
0.0
 71
     0
 42
4.5
  3
simplex.shx
  4

  0
STYLE
  5
2DE
330
288
100
AcDbSymbolTableRecord
100
AcDbTextStyleTableRecord
  2
Annotative
 70
     0
 40
0.0
 41
1.0
 50
0.0
 71
     0
 42
0.2
  3
txt
  4

1001
AcadAnnotative
1000
AnnotativeData
1002
{
1070
     1
1070
     1
1002
}
  0
STYLE
  5
2FA
330
288
100
AcDbSymbolTableRecord
100
AcDbTextStyleTableRecord
  2
SANDVIK_STYLE
 70
     0
 40
3.0
 41
1.0
 50
0.0
 71
     0
 42
3.0
  3
simplex.shx
  4

  0
ENDTAB
  0
TABLE
  2
VIEW
  5
28B
330
0
100
AcDbSymbolTable
 70
     0
  0
ENDTAB
  0
TABLE
  2
UCS
  5
28C
330
0
100
AcDbSymbolTable
 70
     0
  0
ENDTAB
  0
TABLE
  2
APPID
  5
28E
330
0
100
AcDbSymbolTable
 70
     4
  0
APPID
  5
2DB
330
28E
100
AcDbSymbolTableRecord
100
AcDbRegAppTableRecord
  2
ACAD
 70
     0
  0
APPID
  5
2E2
330
28E
100
AcDbSymbolTableRecord
100
AcDbRegAppTableRecord
  2
AcadAnnotative
 70
     0
  0
APPID
  5
382
330
28E
100
AcDbSymbolTableRecord
100
AcDbRegAppTableRecord
  2
ACAD_NAV_VCDISPLAY
 70
     0
  0
APPID
  5
3BB
330
28E
100
AcDbSymbolTableRecord
100
AcDbRegAppTableRecord
  2
ACAD_MLEADERVER
 70
     0
  0
ENDTAB
  0
TABLE
  2
DIMSTYLE
  5
28F
330
0
100
AcDbSymbolTable
 70
     3
100
AcDbDimStyleTable
 71
     0
  0
DIMSTYLE
105
2DC
330
28F
100
AcDbSymbolTableRecord
100
AcDbDimStyleTableRecord
  2
STANDARD
 70
     0
  4
 
 41
3.0
 42
2.5
 43
10.0
 44
2.5
 46
1.25
 73
     0
 74
     0
140
3.0
141
-3.0
143
0.039
145
1.5
146
0.75
147
1.5
271
     2
272
     2
279
     2
340
2FA
  0
DIMSTYLE
105
2DD
330
28F
100
AcDbSymbolTableRecord
100
AcDbDimStyleTableRecord
  2
Annotative
 70
     0
340
2DA
1001
AcadAnnotative
1000
AnnotativeData
1002
{
1070
     1
1070
     1
1002
}
  0
DIMSTYLE
105
321
330
28F
100
AcDbSymbolTableRecord
100
AcDbDimStyleTableRecord
  2
SANDVIK_DIM
 70
     0
  4
 
 40
0.0
 41
4.57
 42
0.0
 44
5.0
 73
     0
 74
     0
 77
     1
 78
     8
140
4.5
147
2.299999999999999
176
   256
177
   256
178
   256
271
     2
272
     2
279
     2
340
2FA
  0
ENDTAB
  0
TABLE
  2
BLOCK_RECORD
  5
286
330
0
100
AcDbSymbolTable
 70
     3
  0
BLOCK_RECORD
  5
2F5
330
286
100
AcDbSymbolTableRecord
100
AcDbBlockTableRecord
  2
*Model_Space
340
2F8
  0
BLOCK_RECORD
  5
2F1
330
286
100
AcDbSymbolTableRecord
100
AcDbBlockTableRecord
  2
*Paper_Space
340
2F4
  0
BLOCK_RECORD
  5
325
330
286
100
AcDbSymbolTableRecord
100
AcDbBlockTableRecord
  2
*D0
340
0
102
{BLKREFS
331
21C
102
}
  0
BLOCK_RECORD
  5
326
330
286
100
AcDbSymbolTableRecord
100
AcDbBlockTableRecord
  2
*D1
340
0
102
{BLKREFS
331
21E
102
}
  0
BLOCK_RECORD
  5
327
330
286
100
AcDbSymbolTableRecord
100
AcDbBlockTableRecord
  2
*D2
340
0
102
{BLKREFS
331
220
102
}
  0
ENDTAB
  0
ENDSEC
  0
SECTION
  2
BLOCKS
  0
BLOCK
  5
2F6
330
2F5
100
AcDbEntity
  8
0
100
AcDbBlockBegin
  2
*Model_Space
 70
     0
 10
0.0
 20
0.0
 30
0.0
  3
*Model_Space
  1

  0
ENDBLK
  5
2F7
330
2F5
100
AcDbEntity
  8
0
100
AcDbBlockEnd
  0
BLOCK
  5
2F2
330
2F1
100
AcDbEntity
 67
     1
  8
0
100
AcDbBlockBegin
  2
*Paper_Space
 70
     0
 10
0.0
 20
0.0
 30
0.0
  3
*Paper_Space
  1

  0
ENDBLK
  5
2F3
330
2F1
100
AcDbEntity
 67
     1
  8
0
100
AcDbBlockEnd
  0
BLOCK
  5
2
330
325
100
AcDbEntity
  8
0
100
AcDbBlockBegin
  2
*D0
 70
     1
 10
0.0
 20
0.0
 30
0.0
  3
*D0
  1

  0
LINE
  5
3
330
325
100
AcDbEntity
  8
0
100
AcDbLine
 10
0.0
 20
9.9
 30
0.0
 11
0.0
 21
34.9
 31
0.0
  0
LINE
  5
4
330
325
100
AcDbEntity
  8
0
100
AcDbLine
 10
60.0
 20
7.0
 30
0.0
 11
60.0
 21
34.9
 31
0.0
  0
LINE
  5
5
330
325
100
AcDbEntity
  8
0
100
AcDbLine
 10
2.5
 20
33.9
 30
0.0
 11
57.5
 21
33.9
 31
0.0
  0
LINE
  5
6
330
325
100
AcDbEntity
  8
0
100
AcDbLine
 10
2.5
 20
34.316667
 30
0.0
 11
2.5
 21
33.483333
 31
0.0
  0
LINE
  5
7
330
325
100
AcDbEntity
  8
0
100
AcDbLine
 10
2.5
 20
33.483333
 30
0.0
 11
0.0
 21
33.9
 31
0.0
  0
LINE
  5
8
330
325
100
AcDbEntity
  8
0
100
AcDbLine
 10
0.0
 20
33.9
 30
0.0
 11
0.0
 21
33.9
 31
0.0
  0
LINE
  5
9
330
325
100
AcDbEntity
  8
0
100
AcDbLine
 10
0.0
 20
33.9
 30
0.0
 11
2.5
 21
34.316667
 31
0.0
  0
LINE
  5
A
330
325
100
AcDbEntity
  8
0
100
AcDbLine
 10
57.5
 20
34.316667
 30
0.0
 11
57.5
 21
33.483333
 31
0.0
  0
LINE
  5
B
330
325
100
AcDbEntity
  8
0
100
AcDbLine
 10
57.5
 20
33.483333
 30
0.0
 11
60.0
 21
33.9
 31
0.0
  0
LINE
  5
C
330
325
100
AcDbEntity
  8
0
100
AcDbLine
 10
60.0
 20
33.9
 30
0.0
 11
60.0
 21
33.9
 31
0.0
  0
LINE
  5
D
330
325
100
AcDbEntity
  8
0
100
AcDbLine
 10
60.0
 20
33.9
 30
0.0
 11
57.5
 21
34.316667
 31
0.0
  0
ENDBLK
  5
E
330
325
100
AcDbEntity
  8
0
100
AcDbBlockEnd
  0
BLOCK
  5
F
330
326
100
AcDbEntity
  8
0
100
AcDbBlockBegin
  2
*D1
 70
     1
 10
0.0
 20
0.0
 30
0.0
  3
*D1
  1

  0
LINE
  5
10
330
326
100
AcDbEntity
  8
0
100
AcDbLine
 10
61.0
 20
6.0
 30
0.0
 11
77.55103299999999
 21
6.0
 31
0.0
  0
LINE
  5
11
330
326
100
AcDbEntity
  8
0
100
AcDbLine
 10
61.0
 20
-6.0
 30
0.0
 11
77.55103299999999
 21
-6.0
 31
0.0
  0
LINE
  5
12
330
326
100
AcDbEntity
  8
0
100
AcDbLine
 10
76.55103299999999
 20
3.5
 30
0.0
 11
76.55103299999999
 21
-3.5
 31
0.0
  0
LINE
  5
13
330
326
100
AcDbEntity
  8
0
100
AcDbLine
 10
76.13436599999999
 20
3.5
 30
0.0
 11
76.96769999999999
 21
3.5
 31
0.0
  0
LINE
  5
14
330
326
100
AcDbEntity
  8
0
100
AcDbLine
 10
76.96769999999999
 20
3.5
 30
0.0
 11
76.55103299999999
 21
6.0
 31
0.0
  0
LINE
  5
15
330
326
100
AcDbEntity
  8
0
100
AcDbLine
 10
76.55103299999999
 20
6.0
 30
0.0
 11
76.55103299999999
 21
6.0
 31
0.0
  0
LINE
  5
16
330
326
100
AcDbEntity
  8
0
100
AcDbLine
 10
76.55103299999999
 20
6.0
 30
0.0
 11
76.13436599999999
 21
3.5
 31
0.0
  0
LINE
  5
17
330
326
100
AcDbEntity
  8
0
100
AcDbLine
 10
76.13436599999999
 20
-3.5
 30
0.0
 11
76.96769999999999
 21
-3.5
 31
0.0
  0
LINE
  5
18
330
326
100
AcDbEntity
  8
0
100
AcDbLine
 10
76.96769999999999
 20
-3.5
 30
0.0
 11
76.55103299999999
 21
-6.0
 31
0.0
  0
LINE
  5
19
330
326
100
AcDbEntity
  8
0
100
AcDbLine
 10
76.55103299999999
 20
-6.0
 30
0.0
 11
76.55103299999999
 21
-6.0
 31
0.0
  0
LINE
  5
1A
330
326
100
AcDbEntity
  8
0
100
AcDbLine
 10
76.55103299999999
 20
-6.0
 30
0.0
 11
76.13436599999999
 21
-3.5
 31
0.0
  0
ENDBLK
  5
1B
330
326
100
AcDbEntity
  8
0
100
AcDbBlockEnd
  0
BLOCK
  5
1C
330
327
100
AcDbEntity
  8
0
100
AcDbBlockBegin
  2
*D2
 70
     1
 10
0.0
 20
0.0
 30
0.0
  3
*D2
  1

  0
LINE
  5
1D
330
327
100
AcDbEntity
  8
0
100
AcDbLine
 10
60.0
 20
7.0
 30
0.0
 11
60.0
 21
24.9
 31
0.0
  0
LINE
  5
1E
330
327
100
AcDbEntity
  8
0
100
AcDbLine
 10
15.0
 20
7.0
 30
0.0
 11
15.0
 21
24.9
 31
0.0
  0
LINE
  5
1F
330
327
100
AcDbEntity
  8
0
100
AcDbLine
 10
57.5
 20
23.9
 30
0.0
 11
17.5
 21
23.9
 31
0.0
  0
LINE
  5
20
330
327
100
AcDbEntity
  8
0
100
AcDbLine
 10
57.5
 20
24.316667
 30
0.0
 11
57.5
 21
23.483333
 31
0.0
  0
LINE
  5
21
330
327
100
AcDbEntity
  8
0
100
AcDbLine
 10
57.5
 20
23.483333
 30
0.0
 11
60.0
 21
23.9
 31
0.0
  0
LINE
  5
22
330
327
100
AcDbEntity
  8
0
100
AcDbLine
 10
60.0
 20
23.9
 30
0.0
 11
60.0
 21
23.9
 31
0.0
  0
LINE
  5
23
330
327
100
AcDbEntity
  8
0
100
AcDbLine
 10
60.0
 20
23.9
 30
0.0
 11
57.5
 21
24.316667
 31
0.0
  0
LINE
  5
24
330
327
100
AcDbEntity
  8
0
100
AcDbLine
 10
17.5
 20
24.316667
 30
0.0
 11
17.5
 21
23.483333
 31
0.0
  0
LINE
  5
25
330
327
100
AcDbEntity
  8
0
100
AcDbLine
 10
17.5
 20
23.483333
 30
0.0
 11
15.0
 21
23.9
 31
0.0
  0
LINE
  5
26
330
327
100
AcDbEntity
  8
0
100
AcDbLine
 10
15.0
 20
23.9
 30
0.0
 11
15.0
 21
23.9
 31
0.0
  0
LINE
  5
27
330
327
100
AcDbEntity
  8
0
100
AcDbLine
 10
15.0
 20
23.9
 30
0.0
 11
17.5
 21
24.316667
 31
0.0
  0
ENDBLK
  5
28
330
327
100
AcDbEntity
  8
0
100
AcDbBlockEnd
  0
ENDSEC
  0
SECTION
  2
ENTITIES
  0
LINE
  5
29
330
2F5
100
AcDbEntity
  8
1
100
AcDbLine
 10
8.0
 20
5.625
 30
0.0
 11
51.144089
 21
5.625
 31
0.0
  0
LINE
  5
2A
330
2F5
100
AcDbEntity
  8
1
100
AcDbLine
 10
8.0
 20
-5.625
 30
0.0
 11
51.144089
 21
-5.625
 31
0.0
  0
LINE
  5
2B
330
2F5
100
AcDbEntity
  8
1
100
AcDbLine
 10
8.0
 20
-5.625
 30
0.0
 11
8.0
 21
5.625
 31
0.0
  0
LINE
  5
2C
330
2F5
100
AcDbEntity
  8
1
100
AcDbLine
 10
59.5
 20
-1.373421
 30
0.0
 11
59.364864
 21
-1.483184
 31
0.0
  0
LINE
  5
2D
330
2F5
100
AcDbEntity
  8
1
100
AcDbLine
 10
59.364864
 20
-1.483184
 30
0.0
 11
59.224726
 21
-1.595864999999999
 31
0.0
  0
LINE
  5
2E
330
2F5
100
AcDbEntity
  8
1
100
AcDbLine
 10
59.224726
 20
-1.595864999999999
 30
0.0
 11
59.07958499999999
 21
-1.711465
 31
0.0
  0
LINE
  5
2F
330
2F5
100
AcDbEntity
  8
1
100
AcDbLine
 10
59.07958499999999
 20
-1.711465
 30
0.0
 11
58.929578
 21
-1.829895999999999
 31
0.0
  0
LINE
  5
30
330
2F5
100
AcDbEntity
  8
1
100
AcDbLine
 10
58.929578
 20
-1.829895999999999
 30
0.0
 11
58.77456899999999
 21
-1.951245
 31
0.0
  0
LINE
  5
31
330
2F5
100
AcDbEntity
  8
1
100
AcDbLine
 10
58.77456899999999
 20
-1.951245
 30
0.0
 11
58.614148
 21
-2.075784999999999
 31
0.0
  0
LINE
  5
32
330
2F5
100
AcDbEntity
  8
1
100
AcDbLine
 10
58.614148
 20
-2.075784999999999
 30
0.0
 11
58.448177
 21
-2.203603999999999
 31
0.0
  0
LINE
  5
33
330
2F5
100
AcDbEntity
  8
1
100
AcDbLine
 10
58.448177
 20
-2.203603999999999
 30
0.0
 11
58.27679499999999
 21
-2.334611999999999
 31
0.0
  0
LINE
  5
34
330
2F5
100
AcDbEntity
  8
1
100
AcDbLine
 10
58.27679499999999
 20
-2.334611999999999
 30
0.0
 11
58.1
 21
-2.468811
 31
0.0
  0
LINE
  5
35
330
2F5
100
AcDbEntity
  8
1
100
AcDbLine
 10
60.0
 20
-4.835393999999999
 30
0.0
 11
60.0
 21
-1.498712
 31
0.0
  0
LINE
  5
36
330
2F5
100
AcDbEntity
  8
1
100
AcDbLine
 10
59.5
 20
-3.126874
 30
0.0
 11
59.5
 21
1.29641
 31
0.0
  0
LINE
  5
37
330
2F5
100
AcDbEntity
  8
1
100
AcDbLine
 10
51.93951099999999
 20
-3.230904999999999
 30
0.0
 11
51.809309
 21
-3.113993999999999
 31
0.0
  0
LINE
  5
38
330
2F5
100
AcDbEntity
  8
1
100
AcDbLine
 10
51.809309
 20
-3.113993999999999
 30
0.0
 11
51.682836
 21
-2.991965
 31
0.0
  0
LINE
  5
39
330
2F5
100
AcDbEntity
  8
1
100
AcDbLine
 10
51.682836
 20
-2.991965
 30
0.0
 11
51.560091
 21
-2.864743999999999
 31
0.0
  0
LINE
  5
3A
330
2F5
100
AcDbEntity
  8
1
100
AcDbLine
 10
51.560091
 20
-2.864743999999999
 30
0.0
 11
51.440996
 21
-2.731936999999999
 31
0.0
  0
LINE
  5
3B
330
2F5
100
AcDbEntity
  8
1
100
AcDbLine
 10
51.440996
 20
-2.731936999999999
 30
0.0
 11
51.32562899999999
 21
-2.593809999999999
 31
0.0
  0
LINE
  5
3C
330
2F5
100
AcDbEntity
  8
1
100
AcDbLine
 10
51.32562899999999
 20
-2.593809999999999
 30
0.0
 11
51.214227
 21
-2.451338
 31
0.0
  0
LINE
  5
3D
330
2F5
100
AcDbEntity
  8
1
100
AcDbLine
 10
51.214227
 20
-2.451338
 30
0.0
 11
51.10691899999999
 21
-2.304666999999999
 31
0.0
  0
LINE
  5
3E
330
2F5
100
AcDbEntity
  8
1
100
AcDbLine
 10
51.10691899999999
 20
-2.304666999999999
 30
0.0
 11
51.003575
 21
-2.153697999999999
 31
0.0
  0
LINE
  5
3F
330
2F5
100
AcDbEntity
  8
1
100
AcDbLine
 10
51.003575
 20
-2.153697999999999
 30
0.0
 11
50.904041
 21
-1.999108999999999
 31
0.0
  0
LINE
  5
40
330
2F5
100
AcDbEntity
  8
1
100
AcDbLine
 10
50.904041
 20
-1.999108999999999
 30
0.0
 11
50.808269
 21
-1.840893999999999
 31
0.0
  0
LINE
  5
41
330
2F5
100
AcDbEntity
  8
1
100
AcDbLine
 10
50.808269
 20
-1.840893999999999
 30
0.0
 11
50.716306
 21
-1.679213999999999
 31
0.0
  0
LINE
  5
42
330
2F5
100
AcDbEntity
  8
1
100
AcDbLine
 10
50.716306
 20
-1.679213999999999
 30
0.0
 11
50.628136
 21
-1.51506
 31
0.0
  0
LINE
  5
43
330
2F5
100
AcDbEntity
  8
1
100
AcDbLine
 10
50.628136
 20
-1.51506
 30
0.0
 11
50.543816
 21
-1.348694999999999
 31
0.0
  0
LINE
  5
44
330
2F5
100
AcDbEntity
  8
1
100
AcDbLine
 10
50.543816
 20
-1.348694999999999
 30
0.0
 11
50.463289
 21
-1.18012
 31
0.0
  0
LINE
  5
45
330
2F5
100
AcDbEntity
  8
1
100
AcDbLine
 10
50.463289
 20
-1.18012
 30
0.0
 11
50.386367
 21
-1.009975999999999
 31
0.0
  0
LINE
  5
46
330
2F5
100
AcDbEntity
  8
1
100
AcDbLine
 10
50.386367
 20
-1.009975999999999
 30
0.0
 11
50.312976
 21
-0.8382889999999999
 31
0.0
  0
LINE
  5
47
330
2F5
100
AcDbEntity
  8
1
100
AcDbLine
 10
50.312976
 20
-0.8382889999999999
 30
0.0
 11
50.243189
 21
-0.665344
 31
0.0
  0
LINE
  5
48
330
2F5
100
AcDbEntity
  8
1
100
AcDbLine
 10
50.243189
 20
-0.665344
 30
0.0
 11
50.177039
 21
-0.492198
 31
0.0
  0
LINE
  5
49
330
2F5
100
AcDbEntity
  8
1
100
AcDbLine
 10
50.177039
 20
-0.492198
 30
0.0
 11
50.114537
 21
-0.319321
 31
0.0
  0
LINE
  5
4A
330
2F5
100
AcDbEntity
  8
1
100
AcDbLine
 10
50.114537
 20
-0.319321
 30
0.0
 11
50.055671
 21
-0.146582
 31
0.0
  0
LINE
  5
4B
330
2F5
100
AcDbEntity
  8
1
100
AcDbLine
 10
50.055671
 20
-0.146582
 30
0.0
 11
50.000441
 21
0.025853
 31
0.0
  0
LINE
  5
4C
330
2F5
100
AcDbEntity
  8
1
100
AcDbLine
 10
59.5
 20
-0.274781
 30
0.0
 11
54.55570600000001
 21
-2.274934999999999
 31
0.0
  0
LINE
  5
4D
330
2F5
100
AcDbEntity
  8
1
100
AcDbLine
 10
54.55570600000001
 20
-2.274934999999999
 30
0.0
 11
54.3909
 21
-2.340631999999999
 31
0.0
  0
LINE
  5
4E
330
2F5
100
AcDbEntity
  8
1
100
AcDbLine
 10
54.3909
 20
-2.340631999999999
 30
0.0
 11
54.22649
 21
-2.405515
 31
0.0
  0
LINE
  5
4F
330
2F5
100
AcDbEntity
  8
1
100
AcDbLine
 10
54.22649
 20
-2.405515
 30
0.0
 11
54.062676
 21
-2.469504999999999
 31
0.0
  0
LINE
  5
50
330
2F5
100
AcDbEntity
  8
1
100
AcDbLine
 10
54.062676
 20
-2.469504999999999
 30
0.0
 11
53.899655
 21
-2.532523999999999
 31
0.0
  0
LINE
  5
51
330
2F5
100
AcDbEntity
  8
1
100
AcDbLine
 10
53.899655
 20
-2.532523999999999
 30
0.0
 11
53.73762199999999
 21
-2.594495999999999
 31
0.0
  0
LINE
  5
52
330
2F5
100
AcDbEntity
  8
1
100
AcDbLine
 10
53.73762199999999
 20
-2.594495999999999
 30
0.0
 11
53.57677299999999
 21
-2.655348
 31
0.0
  0
LINE
  5
53
330
2F5
100
AcDbEntity
  8
1
100
AcDbLine
 10
53.57677299999999
 20
-2.655348
 30
0.0
 11
53.417302
 21
-2.715003999999999
 31
0.0
  0
LINE
  5
54
330
2F5
100
AcDbEntity
  8
1
100
AcDbLine
 10
53.417302
 20
-2.715003999999999
 30
0.0
 11
53.259401
 21
-2.773395
 31
0.0
  0
LINE
  5
55
330
2F5
100
AcDbEntity
  8
1
100
AcDbLine
 10
53.259401
 20
-2.773395
 30
0.0
 11
53.10325999999999
 21
-2.830449999999999
 31
0.0
  0
LINE
  5
56
330
2F5
100
AcDbEntity
  8
1
100
AcDbLine
 10
53.10325999999999
 20
-2.830449999999999
 30
0.0
 11
52.94906700000001
 21
-2.886099999999999
 31
0.0
  0
LINE
  5
57
330
2F5
100
AcDbEntity
  8
1
100
AcDbLine
 10
52.94906700000001
 20
-2.886099999999999
 30
0.0
 11
52.797008
 21
-2.940275999999999
 31
0.0
  0
LINE
  5
58
330
2F5
100
AcDbEntity
  8
1
100
AcDbLine
 10
52.797008
 20
-2.940275999999999
 30
0.0
 11
52.647266
 21
-2.992916
 31
0.0
  0
LINE
  5
59
330
2F5
100
AcDbEntity
  8
1
100
AcDbLine
 10
52.647266
 20
-2.992916
 30
0.0
 11
52.50002099999999
 21
-3.043956
 31
0.0
  0
LINE
  5
5A
330
2F5
100
AcDbEntity
  8
1
100
AcDbLine
 10
52.50002099999999
 20
-3.043956
 30
0.0
 11
52.35545
 21
-3.093332
 31
0.0
  0
LINE
  5
5B
330
2F5
100
AcDbEntity
  8
1
100
AcDbLine
 10
52.35545
 20
-3.093332
 30
0.0
 11
52.213729
 21
-3.140986999999999
 31
0.0
  0
LINE
  5
5C
330
2F5
100
AcDbEntity
  8
1
100
AcDbLine
 10
52.213729
 20
-3.140986999999999
 30
0.0
 11
52.075026
 21
-3.186863999999999
 31
0.0
  0
LINE
  5
5D
330
2F5
100
AcDbEntity
  8
1
100
AcDbLine
 10
52.075026
 20
-3.186863999999999
 30
0.0
 11
51.93951099999999
 21
-3.230904999999999
 31
0.0
  0
LINE
  5
5E
330
2F5
100
AcDbEntity
  8
1
100
AcDbLine
 10
54.24084499999999
 20
-1.970259
 30
0.0
 11
54.201361
 21
-1.990269999999999
 31
0.0
  0
LINE
  5
5F
330
2F5
100
AcDbEntity
  8
1
100
AcDbLine
 10
54.201361
 20
-1.990269999999999
 30
0.0
 11
54.161962
 21
-2.008359999999999
 31
0.0
  0
LINE
  5
60
330
2F5
100
AcDbEntity
  8
1
100
AcDbLine
 10
54.161962
 20
-2.008359999999999
 30
0.0
 11
54.123217
 21
-2.024415999999999
 31
0.0
  0
LINE
  5
61
330
2F5
100
AcDbEntity
  8
1
100
AcDbLine
 10
54.123217
 20
-2.024415999999999
 30
0.0
 11
54.08514399999999
 21
-2.038390999999999
 31
0.0
  0
LINE
  5
62
330
2F5
100
AcDbEntity
  8
1
100
AcDbLine
 10
54.08514399999999
 20
-2.038390999999999
 30
0.0
 11
54.04772600000001
 21
-2.050339
 31
0.0
  0
LINE
  5
63
330
2F5
100
AcDbEntity
  8
1
100
AcDbLine
 10
54.04772600000001
 20
-2.050339
 30
0.0
 11
54.011384
 21
-2.060351999999999
 31
0.0
  0
LINE
  5
64
330
2F5
100
AcDbEntity
  8
1
100
AcDbLine
 10
54.011384
 20
-2.060351999999999
 30
0.0
 11
53.97619999999999
 21
-2.068384999999999
 31
0.0
  0
LINE
  5
65
330
2F5
100
AcDbEntity
  8
1
100
AcDbLine
 10
53.97619999999999
 20
-2.068384999999999
 30
0.0
 11
53.94209
 21
-2.074494
 31
0.0
  0
LINE
  5
66
330
2F5
100
AcDbEntity
  8
1
100
AcDbLine
 10
53.94209
 20
-2.074494
 30
0.0
 11
53.909226
 21
-2.078929999999999
 31
0.0
  0
LINE
  5
67
330
2F5
100
AcDbEntity
  8
1
100
AcDbLine
 10
53.909226
 20
-2.078929999999999
 30
0.0
 11
53.877662
 21
-2.081685999999999
 31
0.0
  0
LINE
  5
68
330
2F5
100
AcDbEntity
  8
1
100
AcDbLine
 10
53.877662
 20
-2.081685999999999
 30
0.0
 11
53.847338
 21
-2.082778999999999
 31
0.0
  0
LINE
  5
69
330
2F5
100
AcDbEntity
  8
1
100
AcDbLine
 10
53.847338
 20
-2.082778999999999
 30
0.0
 11
53.818264
 21
-2.082495
 31
0.0
  0
LINE
  5
6A
330
2F5
100
AcDbEntity
  8
1
100
AcDbLine
 10
53.818264
 20
-2.082495
 30
0.0
 11
53.790475
 21
-2.080852
 31
0.0
  0
LINE
  5
6B
330
2F5
100
AcDbEntity
  8
1
100
AcDbLine
 10
53.790475
 20
-2.080852
 30
0.0
 11
53.763929
 21
-2.077840999999999
 31
0.0
  0
LINE
  5
6C
330
2F5
100
AcDbEntity
  8
1
100
AcDbLine
 10
53.763929
 20
-2.077840999999999
 30
0.0
 11
53.738523
 21
-2.073703
 31
0.0
  0
LINE
  5
6D
330
2F5
100
AcDbEntity
  8
1
100
AcDbLine
 10
53.738523
 20
-2.073703
 30
0.0
 11
53.714216
 21
-2.06844
 31
0.0
  0
LINE
  5
6E
330
2F5
100
AcDbEntity
  8
1
100
AcDbLine
 10
53.714216
 20
-2.06844
 30
0.0
 11
53.691042
 21
-2.062054999999999
 31
0.0
  0
LINE
  5
6F
330
2F5
100
AcDbEntity
  8
1
100
AcDbLine
 10
53.691042
 20
-2.062054999999999
 30
0.0
 11
53.66900799999999
 21
-2.054786
 31
0.0
  0
LINE
  5
70
330
2F5
100
AcDbEntity
  8
1
100
AcDbLine
 10
53.66900799999999
 20
-2.054786
 30
0.0
 11
53.64814499999999
 21
-2.04665
 31
0.0
  0
LINE
  5
71
330
2F5
100
AcDbEntity
  8
1
100
AcDbLine
 10
53.64814499999999
 20
-2.04665
 30
0.0
 11
53.628417
 21
-2.037634
 31
0.0
  0
LINE
  5
72
330
2F5
100
AcDbEntity
  8
1
100
AcDbLine
 10
53.628417
 20
-2.037634
 30
0.0
 11
53.609724
 21
-2.027918999999999
 31
0.0
  0
LINE
  5
73
330
2F5
100
AcDbEntity
  8
1
100
AcDbLine
 10
53.609724
 20
-2.027918999999999
 30
0.0
 11
53.592068
 21
-2.017526999999999
 31
0.0
  0
LINE
  5
74
330
2F5
100
AcDbEntity
  8
1
100
AcDbLine
 10
53.592068
 20
-2.017526999999999
 30
0.0
 11
53.575443
 21
-2.006441
 31
0.0
  0
LINE
  5
75
330
2F5
100
AcDbEntity
  8
1
100
AcDbLine
 10
53.575443
 20
-2.006441
 30
0.0
 11
53.55974899999999
 21
-1.994786999999999
 31
0.0
  0
LINE
  5
76
330
2F5
100
AcDbEntity
  8
1
100
AcDbLine
 10
53.55974899999999
 20
-1.994786999999999
 30
0.0
 11
53.54496199999999
 21
-1.982561999999999
 31
0.0
  0
LINE
  5
77
330
2F5
100
AcDbEntity
  8
1
100
AcDbLine
 10
53.54496199999999
 20
-1.982561999999999
 30
0.0
 11
53.531103
 21
-1.969774
 31
0.0
  0
LINE
  5
78
330
2F5
100
AcDbEntity
  8
1
100
AcDbLine
 10
53.531103
 20
-1.969774
 30
0.0
 11
53.51812699999999
 21
-1.956556999999999
 31
0.0
  0
LINE
  5
79
330
2F5
100
AcDbEntity
  8
1
100
AcDbLine
 10
53.51812699999999
 20
-1.956556999999999
 30
0.0
 11
53.506058
 21
-1.942963999999999
 31
0.0
  0
LINE
  5
7A
330
2F5
100
AcDbEntity
  8
1
100
AcDbLine
 10
53.506058
 20
-1.942963999999999
 30
0.0
 11
53.49486999999999
 21
-1.928945
 31
0.0
  0
LINE
  5
7B
330
2F5
100
AcDbEntity
  8
1
100
AcDbLine
 10
53.49486999999999
 20
-1.928945
 30
0.0
 11
53.48445
 21
-1.914502
 31
0.0
  0
LINE
  5
7C
330
2F5
100
AcDbEntity
  8
1
100
AcDbLine
 10
53.48445
 20
-1.914502
 30
0.0
 11
53.474768
 21
-1.899620999999999
 31
0.0
  0
LINE
  5
7D
330
2F5
100
AcDbEntity
  8
1
100
AcDbLine
 10
53.474768
 20
-1.899620999999999
 30
0.0
 11
53.465852
 21
-1.884315999999999
 31
0.0
  0
LINE
  5
7E
330
2F5
100
AcDbEntity
  8
1
100
AcDbLine
 10
53.465852
 20
-1.884315999999999
 30
0.0
 11
53.45768299999999
 21
-1.868625999999999
 31
0.0
  0
LINE
  5
7F
330
2F5
100
AcDbEntity
  8
1
100
AcDbLine
 10
53.45768299999999
 20
-1.868625999999999
 30
0.0
 11
53.45024999999999
 21
-1.852534999999999
 31
0.0
  0
LINE
  5
80
330
2F5
100
AcDbEntity
  8
1
100
AcDbLine
 10
53.45024999999999
 20
-1.852534999999999
 30
0.0
 11
53.44356099999999
 21
-1.836059999999999
 31
0.0
  0
LINE
  5
81
330
2F5
100
AcDbEntity
  8
1
100
AcDbLine
 10
53.44356099999999
 20
-1.836059999999999
 30
0.0
 11
53.43763
 21
-1.819299999999999
 31
0.0
  0
LINE
  5
82
330
2F5
100
AcDbEntity
  8
1
100
AcDbLine
 10
53.43763
 20
-1.819299999999999
 30
0.0
 11
53.432464
 21
-1.802304999999999
 31
0.0
  0
LINE
  5
83
330
2F5
100
AcDbEntity
  8
1
100
AcDbLine
 10
53.432464
 20
-1.802304999999999
 30
0.0
 11
53.428055
 21
-1.785025999999999
 31
0.0
  0
LINE
  5
84
330
2F5
100
AcDbEntity
  8
1
100
AcDbLine
 10
53.428055
 20
-1.785025999999999
 30
0.0
 11
53.424389
 21
-1.767411
 31
0.0
  0
LINE
  5
85
330
2F5
100
AcDbEntity
  8
1
100
AcDbLine
 10
53.424389
 20
-1.767411
 30
0.0
 11
53.421446
 21
-1.749463999999999
 31
0.0
  0
LINE
  5
86
330
2F5
100
AcDbEntity
  8
1
100
AcDbLine
 10
53.421446
 20
-1.749463999999999
 30
0.0
 11
53.41924699999999
 21
-1.731179999999999
 31
0.0
  0
LINE
  5
87
330
2F5
100
AcDbEntity
  8
1
100
AcDbLine
 10
53.41924699999999
 20
-1.731179999999999
 30
0.0
 11
53.417836
 21
-1.712500999999999
 31
0.0
  0
LINE
  5
88
330
2F5
100
AcDbEntity
  8
1
100
AcDbLine
 10
53.417836
 20
-1.712500999999999
 30
0.0
 11
53.41720200000001
 21
-1.693386999999999
 31
0.0
  0
LINE
  5
89
330
2F5
100
AcDbEntity
  8
1
100
AcDbLine
 10
53.41720200000001
 20
-1.693386999999999
 30
0.0
 11
53.417357
 21
-1.673875999999999
 31
0.0
  0
LINE
  5
8A
330
2F5
100
AcDbEntity
  8
1
100
AcDbLine
 10
53.417357
 20
-1.673875999999999
 30
0.0
 11
53.41838199999999
 21
-1.654027
 31
0.0
  0
LINE
  5
8B
330
2F5
100
AcDbEntity
  8
1
100
AcDbLine
 10
53.41838199999999
 20
-1.654027
 30
0.0
 11
53.42026800000001
 21
-1.633864999999999
 31
0.0
  0
LINE
  5
8C
330
2F5
100
AcDbEntity
  8
1
100
AcDbLine
 10
53.42026800000001
 20
-1.633864999999999
 30
0.0
 11
53.423024
 21
-1.613363999999999
 31
0.0
  0
LINE
  5
8D
330
2F5
100
AcDbEntity
  8
1
100
AcDbLine
 10
53.423024
 20
-1.613363999999999
 30
0.0
 11
53.426761
 21
-1.592504
 31
0.0
  0
LINE
  5
8E
330
2F5
100
AcDbEntity
  8
1
100
AcDbLine
 10
53.426761
 20
-1.592504
 30
0.0
 11
53.431468
 21
-1.571270999999999
 31
0.0
  0
LINE
  5
8F
330
2F5
100
AcDbEntity
  8
1
100
AcDbLine
 10
53.431468
 20
-1.571270999999999
 30
0.0
 11
53.437158
 21
-1.549676999999999
 31
0.0
  0
LINE
  5
90
330
2F5
100
AcDbEntity
  8
1
100
AcDbLine
 10
53.437158
 20
-1.549676999999999
 30
0.0
 11
53.443979
 21
-1.527737
 31
0.0
  0
LINE
  5
91
330
2F5
100
AcDbEntity
  8
1
100
AcDbLine
 10
53.443979
 20
-1.527737
 30
0.0
 11
53.45198100000001
 21
-1.505457999999999
 31
0.0
  0
LINE
  5
92
330
2F5
100
AcDbEntity
  8
1
100
AcDbLine
 10
53.45198100000001
 20
-1.505457999999999
 30
0.0
 11
53.461118
 21
-1.482829999999999
 31
0.0
  0
LINE
  5
93
330
2F5
100
AcDbEntity
  8
1
100
AcDbLine
 10
53.461118
 20
-1.482829999999999
 30
0.0
 11
53.471392
 21
-1.45985
 31
0.0
  0
LINE
  5
94
330
2F5
100
AcDbEntity
  8
1
100
AcDbLine
 10
58.1
 20
-2.468811
 30
0.0
 11
57.76424
 21
-2.555833999999999
 31
0.0
  0
LINE
  5
95
330
2F5
100
AcDbEntity
  8
1
100
AcDbLine
 10
57.76424
 20
-2.555833999999999
 30
0.0
 11
57.426563
 21
-2.642186999999999
 31
0.0
  0
LINE
  5
96
330
2F5
100
AcDbEntity
  8
1
100
AcDbLine
 10
57.426563
 20
-2.642186999999999
 30
0.0
 11
57.08696899999999
 21
-2.727874
 31
0.0
  0
LINE
  5
97
330
2F5
100
AcDbEntity
  8
1
100
AcDbLine
 10
57.08696899999999
 20
-2.727874
 30
0.0
 11
56.745303
 21
-2.812934999999999
 31
0.0
  0
LINE
  5
98
330
2F5
100
AcDbEntity
  8
1
100
AcDbLine
 10
56.745303
 20
-2.812934999999999
 30
0.0
 11
56.40171999999999
 21
-2.897329
 31
0.0
  0
LINE
  5
99
330
2F5
100
AcDbEntity
  8
1
100
AcDbLine
 10
56.40171999999999
 20
-2.897329
 30
0.0
 11
56.056685
 21
-2.980924
 31
0.0
  0
LINE
  5
9A
330
2F5
100
AcDbEntity
  8
1
100
AcDbLine
 10
56.056685
 20
-2.980924
 30
0.0
 11
55.71035300000001
 21
-3.063677
 31
0.0
  0
LINE
  5
9B
330
2F5
100
AcDbEntity
  8
1
100
AcDbLine
 10
55.71035300000001
 20
-3.063677
 30
0.0
 11
55.362568
 21
-3.145631999999999
 31
0.0
  0
LINE
  5
9C
330
2F5
100
AcDbEntity
  8
1
100
AcDbLine
 10
55.362568
 20
-3.145631999999999
 30
0.0
 11
55.013331
 21
-3.22679
 31
0.0
  0
LINE
  5
9D
330
2F5
100
AcDbEntity
  8
1
100
AcDbLine
 10
54.94256800000001
 20
-5.634826
 30
0.0
 11
55.321256
 21
-5.591336
 31
0.0
  0
LINE
  5
9E
330
2F5
100
AcDbEntity
  8
1
100
AcDbLine
 10
55.321256
 20
-5.591336
 30
0.0
 11
55.695209
 21
-5.544074
 31
0.0
  0
LINE
  5
9F
330
2F5
100
AcDbEntity
  8
1
100
AcDbLine
 10
55.695209
 20
-5.544074
 30
0.0
 11
56.06442799999999
 21
-5.49304
 31
0.0
  0
LINE
  5
A0
330
2F5
100
AcDbEntity
  8
1
100
AcDbLine
 10
56.06442799999999
 20
-5.49304
 30
0.0
 11
56.429142
 21
-5.438147999999999
 31
0.0
  0
LINE
  5
A1
330
2F5
100
AcDbEntity
  8
1
100
AcDbLine
 10
56.429142
 20
-5.438147999999999
 30
0.0
 11
56.789122
 21
-5.379483999999999
 31
0.0
  0
LINE
  5
A2
330
2F5
100
AcDbEntity
  8
1
100
AcDbLine
 10
56.789122
 20
-5.379483999999999
 30
0.0
 11
57.143674
 21
-5.317305999999999
 31
0.0
  0
LINE
  5
A3
330
2F5
100
AcDbEntity
  8
1
100
AcDbLine
 10
57.143674
 20
-5.317305999999999
 30
0.0
 11
57.492567
 21
-5.251699999999999
 31
0.0
  0
LINE
  5
A4
330
2F5
100
AcDbEntity
  8
1
100
AcDbLine
 10
57.492567
 20
-5.251699999999999
 30
0.0
 11
57.836031
 21
-5.182580999999999
 31
0.0
  0
LINE
  5
A5
330
2F5
100
AcDbEntity
  8
1
100
AcDbLine
 10
57.836031
 20
-5.182580999999999
 30
0.0
 11
58.174067
 21
-5.109948999999999
 31
0.0
  0
LINE
  5
A6
330
2F5
100
AcDbEntity
  8
1
100
AcDbLine
 10
58.1
 20
-4.864073
 30
0.0
 11
57.691085
 21
-4.957050999999999
 31
0.0
  0
LINE
  5
A7
330
2F5
100
AcDbEntity
  8
1
100
AcDbLine
 10
57.691085
 20
-4.957050999999999
 30
0.0
 11
57.27248
 21
-5.044526
 31
0.0
  0
LINE
  5
A8
330
2F5
100
AcDbEntity
  8
1
100
AcDbLine
 10
57.27248
 20
-5.044526
 30
0.0
 11
56.844186
 21
-5.126497
 31
0.0
  0
LINE
  5
A9
330
2F5
100
AcDbEntity
  8
1
100
AcDbLine
 10
56.844186
 20
-5.126497
 30
0.0
 11
56.405536
 21
-5.203199999999999
 31
0.0
  0
LINE
  5
AA
330
2F5
100
AcDbEntity
  8
1
100
AcDbLine
 10
56.405536
 20
-5.203199999999999
 30
0.0
 11
55.957197
 21
-5.274398999999999
 31
0.0
  0
LINE
  5
AB
330
2F5
100
AcDbEntity
  8
1
100
AcDbLine
 10
55.957197
 20
-5.274398999999999
 30
0.0
 11
55.50116800000001
 21
-5.339386
 31
0.0
  0
LINE
  5
AC
330
2F5
100
AcDbEntity
  8
1
100
AcDbLine
 10
55.50116800000001
 20
-5.339386
 30
0.0
 11
55.03733
 21
-5.398105999999999
 31
0.0
  0
LINE
  5
AD
330
2F5
100
AcDbEntity
  8
1
100
AcDbLine
 10
55.03733
 20
-5.398105999999999
 30
0.0
 11
54.565801
 21
-5.450613999999999
 31
0.0
  0
LINE
  5
AE
330
2F5
100
AcDbEntity
  8
1
100
AcDbLine
 10
55.013331
 20
-3.22679
 30
0.0
 11
54.859574
 21
-3.260048999999999
 31
0.0
  0
LINE
  5
AF
330
2F5
100
AcDbEntity
  8
1
100
AcDbLine
 10
54.859574
 20
-3.260048999999999
 30
0.0
 11
54.703386
 21
-3.289285
 31
0.0
  0
LINE
  5
B0
330
2F5
100
AcDbEntity
  8
1
100
AcDbLine
 10
54.703386
 20
-3.289285
 30
0.0
 11
54.54476500000001
 21
-3.314551
 31
0.0
  0
LINE
  5
B1
330
2F5
100
AcDbEntity
  8
1
100
AcDbLine
 10
54.54476500000001
 20
-3.314551
 30
0.0
 11
54.38358199999999
 21
-3.335919
 31
0.0
  0
LINE
  5
B2
330
2F5
100
AcDbEntity
  8
1
100
AcDbLine
 10
54.38358199999999
 20
-3.335919
 30
0.0
 11
54.219966
 21
-3.353401
 31
0.0
  0
LINE
  5
B3
330
2F5
100
AcDbEntity
  8
1
100
AcDbLine
 10
54.219966
 20
-3.353401
 30
0.0
 11
54.054308
 21
-3.366944
 31
0.0
  0
LINE
  5
B4
330
2F5
100
AcDbEntity
  8
1
100
AcDbLine
 10
54.054308
 20
-3.366944
 30
0.0
 11
53.886565
 21
-3.376530999999999
 31
0.0
  0
LINE
  5
B5
330
2F5
100
AcDbEntity
  8
1
100
AcDbLine
 10
53.886565
 20
-3.376530999999999
 30
0.0
 11
53.716778
 21
-3.382225
 31
0.0
  0
LINE
  5
B6
330
2F5
100
AcDbEntity
  8
1
100
AcDbLine
 10
53.716778
 20
-3.382225
 30
0.0
 11
53.54546
 21
-3.384075
 31
0.0
  0
LINE
  5
B7
330
2F5
100
AcDbEntity
  8
1
100
AcDbLine
 10
53.54546
 20
-3.384075
 30
0.0
 11
53.372761
 21
-3.382057
 31
0.0
  0
LINE
  5
B8
330
2F5
100
AcDbEntity
  8
1
100
AcDbLine
 10
53.372761
 20
-3.382057
 30
0.0
 11
53.198531
 21
-3.376195999999999
 31
0.0
  0
LINE
  5
B9
330
2F5
100
AcDbEntity
  8
1
100
AcDbLine
 10
53.198531
 20
-3.376195999999999
 30
0.0
 11
53.022827
 21
-3.3666
 31
0.0
  0
LINE
  5
BA
330
2F5
100
AcDbEntity
  8
1
100
AcDbLine
 10
53.022827
 20
-3.3666
 30
0.0
 11
52.845604
 21
-3.353234999999999
 31
0.0
  0
LINE
  5
BB
330
2F5
100
AcDbEntity
  8
1
100
AcDbLine
 10
52.845604
 20
-3.353234999999999
 30
0.0
 11
52.666909
 21
-3.336091
 31
0.0
  0
LINE
  5
BC
330
2F5
100
AcDbEntity
  8
1
100
AcDbLine
 10
52.666909
 20
-3.336091
 30
0.0
 11
52.48693199999999
 21
-3.315308999999999
 31
0.0
  0
LINE
  5
BD
330
2F5
100
AcDbEntity
  8
1
100
AcDbLine
 10
52.48693199999999
 20
-3.315308999999999
 30
0.0
 11
52.305739
 21
-3.290905999999999
 31
0.0
  0
LINE
  5
BE
330
2F5
100
AcDbEntity
  8
1
100
AcDbLine
 10
52.305739
 20
-3.290905999999999
 30
0.0
 11
52.123265
 21
-3.262786999999999
 31
0.0
  0
LINE
  5
BF
330
2F5
100
AcDbEntity
  8
1
100
AcDbLine
 10
52.123265
 20
-3.262786999999999
 30
0.0
 11
51.93951099999999
 21
-3.230904999999999
 31
0.0
  0
LINE
  5
C0
330
2F5
100
AcDbEntity
  8
1
100
AcDbLine
 10
54.565801
 20
-5.450613999999999
 30
0.0
 11
54.08894100000001
 21
-5.496369999999999
 31
0.0
  0
LINE
  5
C1
330
2F5
100
AcDbEntity
  8
1
100
AcDbLine
 10
54.08894100000001
 20
-5.496369999999999
 30
0.0
 11
53.60666099999999
 21
-5.535306999999999
 31
0.0
  0
LINE
  5
C2
330
2F5
100
AcDbEntity
  8
1
100
AcDbLine
 10
53.60666099999999
 20
-5.535306999999999
 30
0.0
 11
53.119049
 21
-5.567492999999999
 31
0.0
  0
LINE
  5
C3
330
2F5
100
AcDbEntity
  8
1
100
AcDbLine
 10
53.119049
 20
-5.567492999999999
 30
0.0
 11
52.628724
 21
-5.592586999999999
 31
0.0
  0
LINE
  5
C4
330
2F5
100
AcDbEntity
  8
1
100
AcDbLine
 10
52.628724
 20
-5.592586999999999
 30
0.0
 11
52.136559
 21
-5.610481
 31
0.0
  0
LINE
  5
C5
330
2F5
100
AcDbEntity
  8
1
100
AcDbLine
 10
52.136559
 20
-5.610481
 30
0.0
 11
51.641681
 21
-5.621284999999999
 31
0.0
  0
LINE
  5
C6
330
2F5
100
AcDbEntity
  8
1
100
AcDbLine
 10
51.641681
 20
-5.621284999999999
 30
0.0
 11
51.144089
 21
-5.625
 31
0.0
  0
LINE
  5
C7
330
2F5
100
AcDbEntity
  8
1
100
AcDbLine
 10
54.293661
 20
-5.553764
 30
0.0
 11
54.293661
 21
-5.476726999999999
 31
0.0
  0
LINE
  5
C8
330
2F5
100
AcDbEntity
  8
1
100
AcDbLine
 10
54.62631700000001
 20
-5.772484999999999
 30
0.0
 11
54.600337
 21
-5.765886
 31
0.0
  0
LINE
  5
C9
330
2F5
100
AcDbEntity
  8
1
100
AcDbLine
 10
54.600337
 20
-5.765886
 30
0.0
 11
54.53808399999999
 21
-5.743028999999999
 31
0.0
  0
LINE
  5
CA
330
2F5
100
AcDbEntity
  8
1
100
AcDbLine
 10
54.53808399999999
 20
-5.743028999999999
 30
0.0
 11
54.47625600000001
 21
-5.710373999999999
 31
0.0
  0
LINE
  5
CB
330
2F5
100
AcDbEntity
  8
1
100
AcDbLine
 10
54.47625600000001
 20
-5.710373999999999
 30
0.0
 11
54.414965
 21
-5.667966999999999
 31
0.0
  0
LINE
  5
CC
330
2F5
100
AcDbEntity
  8
1
100
AcDbLine
 10
54.414965
 20
-5.667966999999999
 30
0.0
 11
54.3541
 21
-5.615765
 31
0.0
  0
LINE
  5
CD
330
2F5
100
AcDbEntity
  8
1
100
AcDbLine
 10
54.3541
 20
-5.615765
 30
0.0
 11
54.293661
 21
-5.553764
 31
0.0
  0
LINE
  5
CE
330
2F5
100
AcDbEntity
  8
1
100
AcDbLine
 10
55.658494
 20
-6.0
 30
0.0
 11
54.626425
 21
-5.772523999999999
 31
0.0
  0
LINE
  5
CF
330
2F5
100
AcDbEntity
  8
1
100
AcDbLine
 10
54.293661
 20
-5.553764
 30
0.0
 11
54.508567
 21
-5.581713999999999
 31
0.0
  0
LINE
  5
D0
330
2F5
100
AcDbEntity
  8
1
100
AcDbLine
 10
54.508567
 20
-5.581713999999999
 30
0.0
 11
54.72486899999999
 21
-5.608735
 31
0.0
  0
LINE
  5
D1
330
2F5
100
AcDbEntity
  8
1
100
AcDbLine
 10
54.72486899999999
 20
-5.608735
 30
0.0
 11
54.94256800000001
 21
-5.634826
 31
0.0
  0
LINE
  5
D2
330
2F5
100
AcDbEntity
  8
1
100
AcDbLine
 10
60.0
 20
-4.835393999999999
 30
0.0
 11
58.576811
 21
-6.0
 31
0.0
  0
LINE
  5
D3
330
2F5
100
AcDbEntity
  8
1
100
AcDbLine
 10
58.1
 20
-2.468811
 30
0.0
 11
58.1
 21
-4.864073
 31
0.0
  0
LINE
  5
D4
330
2F5
100
AcDbEntity
  8
1
100
AcDbLine
 10
59.5
 20
-3.126874
 30
0.0
 11
59.412866
 21
-3.256125999999999
 31
0.0
  0
LINE
  5
D5
330
2F5
100
AcDbEntity
  8
1
100
AcDbLine
 10
59.412866
 20
-3.256125999999999
 30
0.0
 11
59.32074599999999
 21
-3.387958999999999
 31
0.0
  0
LINE
  5
D6
330
2F5
100
AcDbEntity
  8
1
100
AcDbLine
 10
59.32074599999999
 20
-3.387958999999999
 30
0.0
 11
59.223639
 21
-3.522373999999999
 31
0.0
  0
LINE
  5
D7
330
2F5
100
AcDbEntity
  8
1
100
AcDbLine
 10
59.223639
 20
-3.522373999999999
 30
0.0
 11
59.121793
 21
-3.659199999999999
 31
0.0
  0
LINE
  5
D8
330
2F5
100
AcDbEntity
  8
1
100
AcDbLine
 10
59.121793
 20
-3.659199999999999
 30
0.0
 11
59.014959
 21
-3.798608999999999
 31
0.0
  0
LINE
  5
D9
330
2F5
100
AcDbEntity
  8
1
100
AcDbLine
 10
59.014959
 20
-3.798608999999999
 30
0.0
 11
58.90240099999999
 21
-3.941098999999999
 31
0.0
  0
LINE
  5
DA
330
2F5
100
AcDbEntity
  8
1
100
AcDbLine
 10
58.90240099999999
 20
-3.941098999999999
 30
0.0
 11
58.78406999999999
 21
-4.086751999999999
 31
0.0
  0
LINE
  5
DB
330
2F5
100
AcDbEntity
  8
1
100
AcDbLine
 10
58.78406999999999
 20
-4.086751999999999
 30
0.0
 11
58.660014
 21
-4.235489
 31
0.0
  0
LINE
  5
DC
330
2F5
100
AcDbEntity
  8
1
100
AcDbLine
 10
58.660014
 20
-4.235489
 30
0.0
 11
58.529638
 21
-4.387564
 31
0.0
  0
LINE
  5
DD
330
2F5
100
AcDbEntity
  8
1
100
AcDbLine
 10
58.529638
 20
-4.387564
 30
0.0
 11
58.392745
 21
-4.543060999999999
 31
0.0
  0
LINE
  5
DE
330
2F5
100
AcDbEntity
  8
1
100
AcDbLine
 10
58.392745
 20
-4.543060999999999
 30
0.0
 11
58.24953199999999
 21
-4.701899
 31
0.0
  0
LINE
  5
DF
330
2F5
100
AcDbEntity
  8
1
100
AcDbLine
 10
58.24953199999999
 20
-4.701899
 30
0.0
 11
58.1
 21
-4.864073
 31
0.0
  0
LINE
  5
E0
330
2F5
100
AcDbEntity
  8
1
100
AcDbLine
 10
60.0
 20
-3.615773999999999
 30
0.0
 11
58.174067
 21
-5.109948999999999
 31
0.0
  0
LINE
  5
E1
330
2F5
100
AcDbEntity
  8
1
100
AcDbLine
 10
59.5
 20
-3.125
 30
0.0
 11
60.0
 21
-3.125
 31
0.0
  0
LINE
  5
E2
330
2F5
100
AcDbEntity
  8
1
100
AcDbLine
 10
59.35159300000001
 20
-3.343815
 30
0.0
 11
60.0
 21
-3.343815
 31
0.0
  0
LINE
  5
E3
330
2F5
100
AcDbEntity
  8
1
100
AcDbLine
 10
58.517079
 20
1.570810999999999
 30
0.0
 11
58.198766
 21
1.445114
 31
0.0
  0
LINE
  5
E4
330
2F5
100
AcDbEntity
  8
1
100
AcDbLine
 10
58.198766
 20
1.445114
 30
0.0
 11
57.880323
 21
1.318785
 31
0.0
  0
LINE
  5
E5
330
2F5
100
AcDbEntity
  8
1
100
AcDbLine
 10
57.880323
 20
1.318785
 30
0.0
 11
57.561748
 21
1.191883
 31
0.0
  0
LINE
  5
E6
330
2F5
100
AcDbEntity
  8
1
100
AcDbLine
 10
57.561748
 20
1.191883
 30
0.0
 11
56.92403299999999
 21
0.936585
 31
0.0
  0
LINE
  5
E7
330
2F5
100
AcDbEntity
  8
1
100
AcDbLine
 10
57.63260999999999
 20
0.7908490000000001
 30
0.0
 11
56.971167
 21
0.523716
 31
0.0
  0
LINE
  5
E8
330
2F5
100
AcDbEntity
  8
1
100
AcDbLine
 10
54.849891
 20
-0.5850420000000001
 30
0.0
 11
60.0
 21
1.498712999999999
 31
0.0
  0
LINE
  5
E9
330
2F5
100
AcDbEntity
  8
1
100
AcDbLine
 10
57.143674
 20
2.89089
 30
0.0
 11
57.836031
 21
3.159279
 31
0.0
  0
LINE
  5
EA
330
2F5
100
AcDbEntity
  8
1
100
AcDbLine
 10
57.836031
 20
3.159279
 30
0.0
 11
58.174067
 21
3.289719
 31
0.0
  0
LINE
  5
EB
330
2F5
100
AcDbEntity
  8
1
100
AcDbLine
 10
58.1
 20
4.819861
 30
0.0
 11
57.76424
 21
4.769015
 31
0.0
  0
LINE
  5
EC
330
2F5
100
AcDbEntity
  8
1
100
AcDbLine
 10
57.76424
 20
4.769015
 30
0.0
 11
57.426563
 21
4.716664999999999
 31
0.0
  0
LINE
  5
ED
330
2F5
100
AcDbEntity
  8
1
100
AcDbLine
 10
57.426563
 20
4.716664999999999
 30
0.0
 11
57.08696899999999
 21
4.662812999999999
 31
0.0
  0
LINE
  5
EE
330
2F5
100
AcDbEntity
  8
1
100
AcDbLine
 10
57.08696899999999
 20
4.662812999999999
 30
0.0
 11
56.745303
 21
4.607435999999999
 31
0.0
  0
LINE
  5
EF
330
2F5
100
AcDbEntity
  8
1
100
AcDbLine
 10
56.745303
 20
4.607435999999999
 30
0.0
 11
56.40171999999999
 21
4.550555999999999
 31
0.0
  0
LINE
  5
F0
330
2F5
100
AcDbEntity
  8
1
100
AcDbLine
 10
56.40171999999999
 20
4.550555999999999
 30
0.0
 11
56.056685
 21
4.492233999999999
 31
0.0
  0
LINE
  5
F1
330
2F5
100
AcDbEntity
  8
1
100
AcDbLine
 10
56.056685
 20
4.492233999999999
 30
0.0
 11
55.71035300000001
 21
4.432489
 31
0.0
  0
LINE
  5
F2
330
2F5
100
AcDbEntity
  8
1
100
AcDbLine
 10
55.71035300000001
 20
4.432489
 30
0.0
 11
55.362568
 21
4.371299999999999
 31
0.0
  0
LINE
  5
F3
330
2F5
100
AcDbEntity
  8
1
100
AcDbLine
 10
55.362568
 20
4.371299999999999
 30
0.0
 11
55.013331
 21
4.308669
 31
0.0
  0
LINE
  5
F4
330
2F5
100
AcDbEntity
  8
1
100
AcDbLine
 10
51.325513
 20
4.746303
 30
0.0
 11
51.10653899999999
 21
4.911083999999999
 31
0.0
  0
LINE
  5
F5
330
2F5
100
AcDbEntity
  8
1
100
AcDbLine
 10
51.10653899999999
 20
4.911083999999999
 30
0.0
 11
51.003104
 21
4.989234999999999
 31
0.0
  0
LINE
  5
F6
330
2F5
100
AcDbEntity
  8
1
100
AcDbLine
 10
51.003104
 20
4.989234999999999
 30
0.0
 11
50.903445
 21
5.063978999999999
 31
0.0
  0
LINE
  5
F7
330
2F5
100
AcDbEntity
  8
1
100
AcDbLine
 10
50.903445
 20
5.063978999999999
 30
0.0
 11
50.807519
 21
5.135114999999999
 31
0.0
  0
LINE
  5
F8
330
2F5
100
AcDbEntity
  8
1
100
AcDbLine
 10
50.807519
 20
5.135114999999999
 30
0.0
 11
50.715369
 21
5.202393999999999
 31
0.0
  0
LINE
  5
F9
330
2F5
100
AcDbEntity
  8
1
100
AcDbLine
 10
50.715369
 20
5.202393999999999
 30
0.0
 11
50.626928
 21
5.265309999999999
 31
0.0
  0
LINE
  5
FA
330
2F5
100
AcDbEntity
  8
1
100
AcDbLine
 10
50.626928
 20
5.265309999999999
 30
0.0
 11
50.542141
 21
5.323748
 31
0.0
  0
LINE
  5
FB
330
2F5
100
AcDbEntity
  8
1
100
AcDbLine
 10
50.542141
 20
5.323748
 30
0.0
 11
50.461064
 21
5.377493
 31
0.0
  0
LINE
  5
FC
330
2F5
100
AcDbEntity
  8
1
100
AcDbLine
 10
50.461064
 20
5.377493
 30
0.0
 11
50.383796
 21
5.426076
 31
0.0
  0
LINE
  5
FD
330
2F5
100
AcDbEntity
  8
1
100
AcDbLine
 10
50.383796
 20
5.426076
 30
0.0
 11
50.31037
 21
5.46944
 31
0.0
  0
LINE
  5
FE
330
2F5
100
AcDbEntity
  8
1
100
AcDbLine
 10
50.31037
 20
5.46944
 30
0.0
 11
50.240754
 21
5.50755
 31
0.0
  0
LINE
  5
FF
330
2F5
100
AcDbEntity
  8
1
100
AcDbLine
 10
50.240754
 20
5.50755
 30
0.0
 11
50.174953
 21
5.540183999999999
 31
0.0
  0
LINE
  5
100
330
2F5
100
AcDbEntity
  8
1
100
AcDbLine
 10
50.174953
 20
5.540183999999999
 30
0.0
 11
50.112968
 21
5.567352999999999
 31
0.0
  0
LINE
  5
101
330
2F5
100
AcDbEntity
  8
1
100
AcDbLine
 10
50.112968
 20
5.567352999999999
 30
0.0
 11
50.054797
 21
5.589196
 31
0.0
  0
LINE
  5
102
330
2F5
100
AcDbEntity
  8
1
100
AcDbLine
 10
50.054797
 20
5.589196
 30
0.0
 11
50.000441
 21
5.605788999999999
 31
0.0
  0
LINE
  5
103
330
2F5
100
AcDbEntity
  8
1
100
AcDbLine
 10
54.849891
 20
5.815799
 30
0.0
 11
54.849891
 21
4.280934999999999
 31
0.0
  0
LINE
  5
104
330
2F5
100
AcDbEntity
  8
1
100
AcDbLine
 10
54.293661
 20
5.553764
 30
0.0
 11
54.293661
 21
4.213152
 31
0.0
  0
LINE
  5
105
330
2F5
100
AcDbEntity
  8
1
100
AcDbLine
 10
53.471392
 20
-1.45985
 30
0.0
 11
53.482326
 21
-1.437779
 31
0.0
  0
LINE
  5
106
330
2F5
100
AcDbEntity
  8
1
100
AcDbLine
 10
53.482326
 20
-1.437779
 30
0.0
 11
53.494603
 21
-1.415530999999999
 31
0.0
  0
LINE
  5
107
330
2F5
100
AcDbEntity
  8
1
100
AcDbLine
 10
53.494603
 20
-1.415530999999999
 30
0.0
 11
53.50822700000001
 21
-1.393108999999999
 31
0.0
  0
LINE
  5
108
330
2F5
100
AcDbEntity
  8
1
100
AcDbLine
 10
53.50822700000001
 20
-1.393108999999999
 30
0.0
 11
53.523165
 21
-1.370438999999999
 31
0.0
  0
LINE
  5
109
330
2F5
100
AcDbEntity
  8
1
100
AcDbLine
 10
53.523165
 20
-1.370438999999999
 30
0.0
 11
53.539455
 21
-1.347585999999999
 31
0.0
  0
LINE
  5
10A
330
2F5
100
AcDbEntity
  8
1
100
AcDbLine
 10
53.539455
 20
-1.347585999999999
 30
0.0
 11
53.557202
 21
-1.324748999999999
 31
0.0
  0
LINE
  5
10B
330
2F5
100
AcDbEntity
  8
1
100
AcDbLine
 10
53.557202
 20
-1.324748999999999
 30
0.0
 11
53.576394
 21
-1.301938999999999
 31
0.0
  0
LINE
  5
10C
330
2F5
100
AcDbEntity
  8
1
100
AcDbLine
 10
53.576394
 20
-1.301938999999999
 30
0.0
 11
53.59705
 21
-1.279135
 31
0.0
  0
LINE
  5
10D
330
2F5
100
AcDbEntity
  8
1
100
AcDbLine
 10
53.59705
 20
-1.279135
 30
0.0
 11
53.619325
 21
-1.256489999999999
 31
0.0
  0
LINE
  5
10E
330
2F5
100
AcDbEntity
  8
1
100
AcDbLine
 10
53.619325
 20
-1.256489999999999
 30
0.0
 11
53.643248
 21
-1.233964999999999
 31
0.0
  0
LINE
  5
10F
330
2F5
100
AcDbEntity
  8
1
100
AcDbLine
 10
53.643248
 20
-1.233964999999999
 30
0.0
 11
53.668797
 21
-1.211587999999999
 31
0.0
  0
LINE
  5
110
330
2F5
100
AcDbEntity
  8
1
100
AcDbLine
 10
53.668797
 20
-1.211587999999999
 30
0.0
 11
53.69605400000001
 21
-1.189601
 31
0.0
  0
LINE
  5
111
330
2F5
100
AcDbEntity
  8
1
100
AcDbLine
 10
53.69605400000001
 20
-1.189601
 30
0.0
 11
53.72507299999999
 21
-1.167974
 31
0.0
  0
LINE
  5
112
330
2F5
100
AcDbEntity
  8
1
100
AcDbLine
 10
53.72507299999999
 20
-1.167974
 30
0.0
 11
53.755805
 21
-1.146725999999999
 31
0.0
  0
LINE
  5
113
330
2F5
100
AcDbEntity
  8
1
100
AcDbLine
 10
53.755805
 20
-1.146725999999999
 30
0.0
 11
53.788169
 21
-1.126186
 31
0.0
  0
LINE
  5
114
330
2F5
100
AcDbEntity
  8
1
100
AcDbLine
 10
53.788169
 20
-1.126186
 30
0.0
 11
53.822261
 21
-1.106333999999999
 31
0.0
  0
LINE
  5
115
330
2F5
100
AcDbEntity
  8
1
100
AcDbLine
 10
53.822261
 20
-1.106333999999999
 30
0.0
 11
53.84290400000001
 21
-1.095064
 31
0.0
  0
LINE
  5
116
330
2F5
100
AcDbEntity
  8
1
100
AcDbLine
 10
53.79130799999999
 20
1.552284
 30
0.0
 11
53.324105
 21
1.366180999999999
 31
0.0
  0
LINE
  5
117
330
2F5
100
AcDbEntity
  8
1
100
AcDbLine
 10
53.324105
 20
1.366180999999999
 30
0.0
 11
52.854023
 21
1.178345999999999
 31
0.0
  0
LINE
  5
118
330
2F5
100
AcDbEntity
  8
1
100
AcDbLine
 10
52.854023
 20
1.178345999999999
 30
0.0
 11
52.380983
 21
0.9887399999999999
 31
0.0
  0
LINE
  5
119
330
2F5
100
AcDbEntity
  8
1
100
AcDbLine
 10
52.380983
 20
0.9887399999999999
 30
0.0
 11
51.905063
 21
0.797401
 31
0.0
  0
LINE
  5
11A
330
2F5
100
AcDbEntity
  8
1
100
AcDbLine
 10
51.905063
 20
0.797401
 30
0.0
 11
51.428795
 21
0.6053410000000001
 31
0.0
  0
LINE
  5
11B
330
2F5
100
AcDbEntity
  8
1
100
AcDbLine
 10
51.428795
 20
0.6053410000000001
 30
0.0
 11
50.95302499999999
 21
0.412897
 31
0.0
  0
LINE
  5
11C
330
2F5
100
AcDbEntity
  8
1
100
AcDbLine
 10
50.95302499999999
 20
0.412897
 30
0.0
 11
50.476907
 21
0.219735
 31
0.0
  0
LINE
  5
11D
330
2F5
100
AcDbEntity
  8
1
100
AcDbLine
 10
50.476907
 20
0.219735
 30
0.0
 11
50.000441
 21
0.025853
 31
0.0
  0
LINE
  5
11E
330
2F5
100
AcDbEntity
  8
1
100
AcDbLine
 10
54.298131
 20
1.548499999999999
 30
0.0
 11
53.63069300000001
 21
1.278774
 31
0.0
  0
LINE
  5
11F
330
2F5
100
AcDbEntity
  8
1
100
AcDbLine
 10
53.63069300000001
 20
1.278774
 30
0.0
 11
53.468304
 21
1.214026
 31
0.0
  0
LINE
  5
120
330
2F5
100
AcDbEntity
  8
1
100
AcDbLine
 10
53.468304
 20
1.214026
 30
0.0
 11
53.30649300000001
 21
1.150144999999999
 31
0.0
  0
LINE
  5
121
330
2F5
100
AcDbEntity
  8
1
100
AcDbLine
 10
53.30649300000001
 20
1.150144999999999
 30
0.0
 11
53.145077
 21
1.087061
 31
0.0
  0
LINE
  5
122
330
2F5
100
AcDbEntity
  8
1
100
AcDbLine
 10
53.145077
 20
1.087061
 30
0.0
 11
52.984239
 21
1.024844
 31
0.0
  0
LINE
  5
123
330
2F5
100
AcDbEntity
  8
1
100
AcDbLine
 10
52.984239
 20
1.024844
 30
0.0
 11
52.824536
 21
0.96371
 31
0.0
  0
LINE
  5
124
330
2F5
100
AcDbEntity
  8
1
100
AcDbLine
 10
52.824536
 20
0.96371
 30
0.0
 11
52.665967
 21
0.9036599999999999
 31
0.0
  0
LINE
  5
125
330
2F5
100
AcDbEntity
  8
1
100
AcDbLine
 10
52.665967
 20
0.9036599999999999
 30
0.0
 11
52.508531
 21
0.8446909999999999
 31
0.0
  0
LINE
  5
126
330
2F5
100
AcDbEntity
  8
1
100
AcDbLine
 10
52.508531
 20
0.8446909999999999
 30
0.0
 11
52.35278199999999
 21
0.787013
 31
0.0
  0
LINE
  5
127
330
2F5
100
AcDbEntity
  8
1
100
AcDbLine
 10
52.35278199999999
 20
0.787013
 30
0.0
 11
52.198727
 21
0.730626
 31
0.0
  0
LINE
  5
128
330
2F5
100
AcDbEntity
  8
1
100
AcDbLine
 10
52.198727
 20
0.730626
 30
0.0
 11
52.04635800000001
 21
0.67553
 31
0.0
  0
LINE
  5
129
330
2F5
100
AcDbEntity
  8
1
100
AcDbLine
 10
52.04635800000001
 20
0.67553
 30
0.0
 11
51.896208
 21
0.621915
 31
0.0
  0
LINE
  5
12A
330
2F5
100
AcDbEntity
  8
1
100
AcDbLine
 10
51.896208
 20
0.621915
 30
0.0
 11
51.748285
 21
0.569788
 31
0.0
  0
LINE
  5
12B
330
2F5
100
AcDbEntity
  8
1
100
AcDbLine
 10
51.748285
 20
0.569788
 30
0.0
 11
51.60257999999999
 21
0.51914
 31
0.0
  0
LINE
  5
12C
330
2F5
100
AcDbEntity
  8
1
100
AcDbLine
 10
51.60257999999999
 20
0.51914
 30
0.0
 11
51.45960399999999
 21
0.470153
 31
0.0
  0
LINE
  5
12D
330
2F5
100
AcDbEntity
  8
1
100
AcDbLine
 10
51.45960399999999
 20
0.470153
 30
0.0
 11
51.31936599999999
 21
0.422828
 31
0.0
  0
LINE
  5
12E
330
2F5
100
AcDbEntity
  8
1
100
AcDbLine
 10
51.31936599999999
 20
0.422828
 30
0.0
 11
51.181856
 21
0.377162
 31
0.0
  0
LINE
  5
12F
330
2F5
100
AcDbEntity
  8
1
100
AcDbLine
 10
51.181856
 20
0.377162
 30
0.0
 11
51.04755499999999
 21
0.333314
 31
0.0
  0
LINE
  5
130
330
2F5
100
AcDbEntity
  8
1
100
AcDbLine
 10
51.04755499999999
 20
0.333314
 30
0.0
 11
50.916474
 21
0.291291
 31
0.0
  0
LINE
  5
131
330
2F5
100
AcDbEntity
  8
1
100
AcDbLine
 10
50.916474
 20
0.291291
 30
0.0
 11
50.78860200000001
 21
0.251085
 31
0.0
  0
LINE
  5
132
330
2F5
100
AcDbEntity
  8
1
100
AcDbLine
 10
50.78860200000001
 20
0.251085
 30
0.0
 11
50.664386
 21
0.212839
 31
0.0
  0
LINE
  5
133
330
2F5
100
AcDbEntity
  8
1
100
AcDbLine
 10
50.664386
 20
0.212839
 30
0.0
 11
50.543838
 21
0.176558
 31
0.0
  0
LINE
  5
134
330
2F5
100
AcDbEntity
  8
1
100
AcDbLine
 10
50.543838
 20
0.176558
 30
0.0
 11
50.426947
 21
0.142235
 31
0.0
  0
LINE
  5
135
330
2F5
100
AcDbEntity
  8
1
100
AcDbLine
 10
50.426947
 20
0.142235
 30
0.0
 11
50.314121
 21
0.109991
 31
0.0
  0
LINE
  5
136
330
2F5
100
AcDbEntity
  8
1
100
AcDbLine
 10
50.314121
 20
0.109991
 30
0.0
 11
50.205496
 21
0.079866
 31
0.0
  0
LINE
  5
137
330
2F5
100
AcDbEntity
  8
1
100
AcDbLine
 10
50.205496
 20
0.079866
 30
0.0
 11
50.100936
 21
0.05182
 31
0.0
  0
LINE
  5
138
330
2F5
100
AcDbEntity
  8
1
100
AcDbLine
 10
50.100936
 20
0.05182
 30
0.0
 11
50.000441
 21
0.025853
 31
0.0
  0
LINE
  5
139
330
2F5
100
AcDbEntity
  8
1
100
AcDbLine
 10
55.013331
 20
4.308669
 30
0.0
 11
54.859574
 21
4.282385999999999
 31
0.0
  0
LINE
  5
13A
330
2F5
100
AcDbEntity
  8
1
100
AcDbLine
 10
54.859574
 20
4.282385999999999
 30
0.0
 11
54.703386
 21
4.258983999999999
 31
0.0
  0
LINE
  5
13B
330
2F5
100
AcDbEntity
  8
1
100
AcDbLine
 10
54.703386
 20
4.258983999999999
 30
0.0
 11
54.54476500000001
 21
4.238533
 31
0.0
  0
LINE
  5
13C
330
2F5
100
AcDbEntity
  8
1
100
AcDbLine
 10
54.54476500000001
 20
4.238533
 30
0.0
 11
54.38358199999999
 21
4.221068999999999
 31
0.0
  0
LINE
  5
13D
330
2F5
100
AcDbEntity
  8
1
100
AcDbLine
 10
54.38358199999999
 20
4.221068999999999
 30
0.0
 11
54.219966
 21
4.206665
 31
0.0
  0
LINE
  5
13E
330
2F5
100
AcDbEntity
  8
1
100
AcDbLine
 10
54.219966
 20
4.206665
 30
0.0
 11
54.054308
 21
4.195435999999999
 31
0.0
  0
LINE
  5
13F
330
2F5
100
AcDbEntity
  8
1
100
AcDbLine
 10
54.054308
 20
4.195435999999999
 30
0.0
 11
53.886565
 21
4.187448
 31
0.0
  0
LINE
  5
140
330
2F5
100
AcDbEntity
  8
1
100
AcDbLine
 10
53.886565
 20
4.187448
 30
0.0
 11
53.716778
 21
4.182688999999999
 31
0.0
  0
LINE
  5
141
330
2F5
100
AcDbEntity
  8
1
100
AcDbLine
 10
53.716778
 20
4.182688999999999
 30
0.0
 11
53.54546
 21
4.18114
 31
0.0
  0
LINE
  5
142
330
2F5
100
AcDbEntity
  8
1
100
AcDbLine
 10
53.54546
 20
4.18114
 30
0.0
 11
53.372761
 21
4.182828999999999
 31
0.0
  0
LINE
  5
143
330
2F5
100
AcDbEntity
  8
1
100
AcDbLine
 10
53.372761
 20
4.182828999999999
 30
0.0
 11
53.198531
 21
4.187726
 31
0.0
  0
LINE
  5
144
330
2F5
100
AcDbEntity
  8
1
100
AcDbLine
 10
53.198531
 20
4.187726
 30
0.0
 11
53.022827
 21
4.195720999999999
 31
0.0
  0
LINE
  5
145
330
2F5
100
AcDbEntity
  8
1
100
AcDbLine
 10
53.022827
 20
4.195720999999999
 30
0.0
 11
52.845604
 21
4.206801999999999
 31
0.0
  0
LINE
  5
146
330
2F5
100
AcDbEntity
  8
1
100
AcDbLine
 10
52.845604
 20
4.206801999999999
 30
0.0
 11
52.666909
 21
4.220926
 31
0.0
  0
LINE
  5
147
330
2F5
100
AcDbEntity
  8
1
100
AcDbLine
 10
52.666909
 20
4.220926
 30
0.0
 11
52.48693199999999
 21
4.237916
 31
0.0
  0
LINE
  5
148
330
2F5
100
AcDbEntity
  8
1
100
AcDbLine
 10
52.48693199999999
 20
4.237916
 30
0.0
 11
52.305739
 21
4.257679
 31
0.0
  0
LINE
  5
149
330
2F5
100
AcDbEntity
  8
1
100
AcDbLine
 10
52.305739
 20
4.257679
 30
0.0
 11
52.123265
 21
4.280205999999999
 31
0.0
  0
LINE
  5
14A
330
2F5
100
AcDbEntity
  8
1
100
AcDbLine
 10
52.123265
 20
4.280205999999999
 30
0.0
 11
51.93951099999999
 21
4.305436
 31
0.0
  0
LINE
  5
14B
330
2F5
100
AcDbEntity
  8
1
100
AcDbLine
 10
51.93951099999999
 20
4.305436
 30
0.0
 11
51.80942899999999
 21
4.395080999999999
 31
0.0
  0
LINE
  5
14C
330
2F5
100
AcDbEntity
  8
1
100
AcDbLine
 10
51.80942899999999
 20
4.395080999999999
 30
0.0
 11
51.68300900000001
 21
4.484244999999999
 31
0.0
  0
LINE
  5
14D
330
2F5
100
AcDbEntity
  8
1
100
AcDbLine
 10
51.68300900000001
 20
4.484244999999999
 30
0.0
 11
51.560252
 21
4.572637999999999
 31
0.0
  0
LINE
  5
14E
330
2F5
100
AcDbEntity
  8
1
100
AcDbLine
 10
51.560252
 20
4.572637999999999
 30
0.0
 11
51.441052
 21
4.660178
 31
0.0
  0
LINE
  5
14F
330
2F5
100
AcDbEntity
  8
1
100
AcDbLine
 10
51.441052
 20
4.660178
 30
0.0
 11
51.325513
 21
4.746303
 31
0.0
  0
LINE
  5
150
330
2F5
100
AcDbEntity
  8
1
100
AcDbLine
 10
55.649891
 20
0.421975
 30
0.0
 11
55.649891
 21
-0.013041
 31
0.0
  0
LINE
  5
151
330
2F5
100
AcDbEntity
  8
1
100
AcDbLine
 10
54.293661
 20
1.565763
 30
0.0
 11
54.37091500000001
 21
1.250618
 31
0.0
  0
LINE
  5
152
330
2F5
100
AcDbEntity
  8
1
100
AcDbLine
 10
54.849891
 20
-0.355579
 30
0.0
 11
54.709591
 21
0.184221
 31
0.0
  0
LINE
  5
153
330
2F5
100
AcDbEntity
  8
1
100
AcDbLine
 10
54.849891
 20
-0.5850420000000001
 30
0.0
 11
54.37091500000001
 21
1.250618
 31
0.0
  0
LINE
  5
154
330
2F5
100
AcDbEntity
  8
1
100
AcDbLine
 10
54.709591
 20
0.184221
 30
0.0
 11
54.56916800000001
 21
0.720102
 31
0.0
  0
LINE
  5
155
330
2F5
100
AcDbEntity
  8
1
100
AcDbLine
 10
54.56916800000001
 20
0.720102
 30
0.0
 11
54.43005600000001
 21
1.246588999999999
 31
0.0
  0
LINE
  5
156
330
2F5
100
AcDbEntity
  8
1
100
AcDbLine
 10
54.43005600000001
 20
1.246588999999999
 30
0.0
 11
54.293661
 21
1.758372999999999
 31
0.0
  0
LINE
  5
157
330
2F5
100
AcDbEntity
  8
1
100
AcDbLine
 10
54.94256800000001
 20
2.027986999999999
 30
0.0
 11
54.922773
 21
1.942749
 31
0.0
  0
LINE
  5
158
330
2F5
100
AcDbEntity
  8
1
100
AcDbLine
 10
54.922773
 20
1.942749
 30
0.0
 11
54.907266
 21
1.858979
 31
0.0
  0
LINE
  5
159
330
2F5
100
AcDbEntity
  8
1
100
AcDbLine
 10
54.907266
 20
1.858979
 30
0.0
 11
54.896048
 21
1.776679
 31
0.0
  0
LINE
  5
15A
330
2F5
100
AcDbEntity
  8
1
100
AcDbLine
 10
54.896048
 20
1.776679
 30
0.0
 11
54.88904399999999
 21
1.696081
 31
0.0
  0
LINE
  5
15B
330
2F5
100
AcDbEntity
  8
1
100
AcDbLine
 10
54.88904399999999
 20
1.696081
 30
0.0
 11
54.886327
 21
1.616948999999999
 31
0.0
  0
LINE
  5
15C
330
2F5
100
AcDbEntity
  8
1
100
AcDbLine
 10
54.886327
 20
1.616948999999999
 30
0.0
 11
54.888125
 21
1.538569
 31
0.0
  0
LINE
  5
15D
330
2F5
100
AcDbEntity
  8
1
100
AcDbLine
 10
54.888125
 20
1.538569
 30
0.0
 11
54.89447
 21
1.460348999999999
 31
0.0
  0
LINE
  5
15E
330
2F5
100
AcDbEntity
  8
1
100
AcDbLine
 10
54.89447
 20
1.460348999999999
 30
0.0
 11
54.905328
 21
1.382845
 31
0.0
  0
LINE
  5
15F
330
2F5
100
AcDbEntity
  8
1
100
AcDbLine
 10
54.905328
 20
1.382845
 30
0.0
 11
54.920824
 21
1.307054999999999
 31
0.0
  0
LINE
  5
160
330
2F5
100
AcDbEntity
  8
1
100
AcDbLine
 10
54.920824
 20
1.307054999999999
 30
0.0
 11
54.941188
 21
1.233025999999999
 31
0.0
  0
LINE
  5
161
330
2F5
100
AcDbEntity
  8
1
100
AcDbLine
 10
54.941188
 20
1.233025999999999
 30
0.0
 11
54.96619
 21
1.160698999999999
 31
0.0
  0
LINE
  5
162
330
2F5
100
AcDbEntity
  8
1
100
AcDbLine
 10
54.96619
 20
1.160698999999999
 30
0.0
 11
54.995261
 21
1.090932999999999
 31
0.0
  0
LINE
  5
163
330
2F5
100
AcDbEntity
  8
1
100
AcDbLine
 10
54.995261
 20
1.090932999999999
 30
0.0
 11
55.02828199999999
 21
1.024181
 31
0.0
  0
LINE
  5
164
330
2F5
100
AcDbEntity
  8
1
100
AcDbLine
 10
55.02828199999999
 20
1.024181
 30
0.0
 11
55.065373
 21
0.960008
 31
0.0
  0
LINE
  5
165
330
2F5
100
AcDbEntity
  8
1
100
AcDbLine
 10
55.065373
 20
0.960008
 30
0.0
 11
55.106318
 21
0.8979409999999999
 31
0.0
  0
LINE
  5
166
330
2F5
100
AcDbEntity
  8
1
100
AcDbLine
 10
55.106318
 20
0.8979409999999999
 30
0.0
 11
55.15100699999999
 21
0.8379599999999999
 31
0.0
  0
LINE
  5
167
330
2F5
100
AcDbEntity
  8
1
100
AcDbLine
 10
55.15100699999999
 20
0.8379599999999999
 30
0.0
 11
55.199549
 21
0.780091
 31
0.0
  0
LINE
  5
168
330
2F5
100
AcDbEntity
  8
1
100
AcDbLine
 10
55.199549
 20
0.780091
 30
0.0
 11
55.25206
 21
0.7239290000000001
 31
0.0
  0
LINE
  5
169
330
2F5
100
AcDbEntity
  8
1
100
AcDbLine
 10
55.25206
 20
0.7239290000000001
 30
0.0
 11
55.30860799999999
 21
0.669329
 31
0.0
  0
LINE
  5
16A
330
2F5
100
AcDbEntity
  8
1
100
AcDbLine
 10
55.30860799999999
 20
0.669329
 30
0.0
 11
55.369123
 21
0.6164310000000001
 31
0.0
  0
LINE
  5
16B
330
2F5
100
AcDbEntity
  8
1
100
AcDbLine
 10
55.369123
 20
0.6164310000000001
 30
0.0
 11
55.433518
 21
0.565245
 31
0.0
  0
LINE
  5
16C
330
2F5
100
AcDbEntity
  8
1
100
AcDbLine
 10
55.433518
 20
0.565245
 30
0.0
 11
55.501763
 21
0.515775
 31
0.0
  0
LINE
  5
16D
330
2F5
100
AcDbEntity
  8
1
100
AcDbLine
 10
55.501763
 20
0.515775
 30
0.0
 11
55.573888
 21
0.468018
 31
0.0
  0
LINE
  5
16E
330
2F5
100
AcDbEntity
  8
1
100
AcDbLine
 10
55.573888
 20
0.468018
 30
0.0
 11
55.649891
 21
0.421975
 31
0.0
  0
LINE
  5
16F
330
2F5
100
AcDbEntity
  8
1
100
AcDbLine
 10
54.849891
 20
-0.355579
 30
0.0
 11
54.849891
 21
-0.5850420000000001
 31
0.0
  0
LINE
  5
170
330
2F5
100
AcDbEntity
  8
1
100
AcDbLine
 10
54.293661
 20
1.758372999999999
 30
0.0
 11
54.293661
 21
1.565763
 31
0.0
  0
LINE
  5
171
330
2F5
100
AcDbEntity
  8
1
100
AcDbLine
 10
54.70861899999999
 20
-1.554375999999999
 30
0.0
 11
54.692218
 21
-1.579039999999999
 31
0.0
  0
LINE
  5
172
330
2F5
100
AcDbEntity
  8
1
100
AcDbLine
 10
54.692218
 20
-1.579039999999999
 30
0.0
 11
54.67441700000001
 21
-1.603849
 31
0.0
  0
LINE
  5
173
330
2F5
100
AcDbEntity
  8
1
100
AcDbLine
 10
54.67441700000001
 20
-1.603849
 30
0.0
 11
54.65521500000001
 21
-1.628803
 31
0.0
  0
LINE
  5
174
330
2F5
100
AcDbEntity
  8
1
100
AcDbLine
 10
54.65521500000001
 20
-1.628803
 30
0.0
 11
54.63461399999999
 21
-1.653902999999999
 31
0.0
  0
LINE
  5
175
330
2F5
100
AcDbEntity
  8
1
100
AcDbLine
 10
54.63461399999999
 20
-1.653902999999999
 30
0.0
 11
54.612613
 21
-1.679145999999999
 31
0.0
  0
LINE
  5
176
330
2F5
100
AcDbEntity
  8
1
100
AcDbLine
 10
54.612613
 20
-1.679145999999999
 30
0.0
 11
54.589213
 21
-1.704534999999999
 31
0.0
  0
LINE
  5
177
330
2F5
100
AcDbEntity
  8
1
100
AcDbLine
 10
54.589213
 20
-1.704534999999999
 30
0.0
 11
54.552603
 21
-1.741309
 31
0.0
  0
LINE
  5
178
330
2F5
100
AcDbEntity
  8
1
100
AcDbLine
 10
54.552603
 20
-1.741309
 30
0.0
 11
54.51536700000001
 21
-1.776291999999999
 31
0.0
  0
LINE
  5
179
330
2F5
100
AcDbEntity
  8
1
100
AcDbLine
 10
54.51536700000001
 20
-1.776291999999999
 30
0.0
 11
54.47750799999999
 21
-1.809482
 31
0.0
  0
LINE
  5
17A
330
2F5
100
AcDbEntity
  8
1
100
AcDbLine
 10
54.47750799999999
 20
-1.809482
 30
0.0
 11
54.438899
 21
-1.840901999999999
 31
0.0
  0
LINE
  5
17B
330
2F5
100
AcDbEntity
  8
1
100
AcDbLine
 10
54.438899
 20
-1.840901999999999
 30
0.0
 11
54.399674
 21
-1.870524999999999
 31
0.0
  0
LINE
  5
17C
330
2F5
100
AcDbEntity
  8
1
100
AcDbLine
 10
54.399674
 20
-1.870524999999999
 30
0.0
 11
54.360223
 21
-1.898274999999999
 31
0.0
  0
LINE
  5
17D
330
2F5
100
AcDbEntity
  8
1
100
AcDbLine
 10
54.360223
 20
-1.898274999999999
 30
0.0
 11
54.320549
 21
-1.924158999999999
 31
0.0
  0
LINE
  5
17E
330
2F5
100
AcDbEntity
  8
1
100
AcDbLine
 10
54.320549
 20
-1.924158999999999
 30
0.0
 11
54.280657
 21
-1.94817
 31
0.0
  0
LINE
  5
17F
330
2F5
100
AcDbEntity
  8
1
100
AcDbLine
 10
54.280657
 20
-1.94817
 30
0.0
 11
54.24084499999999
 21
-1.970259
 31
0.0
  0
LINE
  5
180
330
2F5
100
AcDbEntity
  8
1
100
AcDbLine
 10
53.84290400000001
 20
-1.095064
 30
0.0
 11
53.85798900000001
 21
-1.08718
 31
0.0
  0
LINE
  5
181
330
2F5
100
AcDbEntity
  8
1
100
AcDbLine
 10
53.85798900000001
 20
-1.08718
 30
0.0
 11
53.89498
 21
-1.069107
 31
0.0
  0
LINE
  5
182
330
2F5
100
AcDbEntity
  8
1
100
AcDbLine
 10
53.89498
 20
-1.069107
 30
0.0
 11
53.933268
 21
-1.052149
 31
0.0
  0
LINE
  5
183
330
2F5
100
AcDbEntity
  8
1
100
AcDbLine
 10
53.933268
 20
-1.052149
 30
0.0
 11
53.972818
 21
-1.036265999999999
 31
0.0
  0
LINE
  5
184
330
2F5
100
AcDbEntity
  8
1
100
AcDbLine
 10
53.972818
 20
-1.036265999999999
 30
0.0
 11
54.01315799999999
 21
-1.021738999999999
 31
0.0
  0
LINE
  5
185
330
2F5
100
AcDbEntity
  8
1
100
AcDbLine
 10
54.01315799999999
 20
-1.021738999999999
 30
0.0
 11
54.05426999999999
 21
-1.008601
 31
0.0
  0
LINE
  5
186
330
2F5
100
AcDbEntity
  8
1
100
AcDbLine
 10
54.05426999999999
 20
-1.008601
 30
0.0
 11
54.096165
 21
-0.996818
 31
0.0
  0
LINE
  5
187
330
2F5
100
AcDbEntity
  8
1
100
AcDbLine
 10
54.096165
 20
-0.996818
 30
0.0
 11
54.138415
 21
-0.986556
 31
0.0
  0
LINE
  5
188
330
2F5
100
AcDbEntity
  8
1
100
AcDbLine
 10
54.138415
 20
-0.986556
 30
0.0
 11
54.18101
 21
-0.9778299999999999
 31
0.0
  0
LINE
  5
189
330
2F5
100
AcDbEntity
  8
1
100
AcDbLine
 10
54.18101
 20
-0.9778299999999999
 30
0.0
 11
54.223952
 21
-0.9706299999999998
 31
0.0
  0
LINE
  5
18A
330
2F5
100
AcDbEntity
  8
1
100
AcDbLine
 10
54.223952
 20
-0.9706299999999998
 30
0.0
 11
54.266827
 21
-0.965099
 31
0.0
  0
LINE
  5
18B
330
2F5
100
AcDbEntity
  8
1
100
AcDbLine
 10
54.266827
 20
-0.965099
 30
0.0
 11
54.309493
 21
-0.9612860000000001
 31
0.0
  0
LINE
  5
18C
330
2F5
100
AcDbEntity
  8
1
100
AcDbLine
 10
54.309493
 20
-0.9612860000000001
 30
0.0
 11
54.35208499999999
 21
-0.959148
 31
0.0
  0
LINE
  5
18D
330
2F5
100
AcDbEntity
  8
1
100
AcDbLine
 10
54.35208499999999
 20
-0.959148
 30
0.0
 11
54.394599
 21
-0.9586859999999999
 31
0.0
  0
LINE
  5
18E
330
2F5
100
AcDbEntity
  8
1
100
AcDbLine
 10
56.92403299999999
 20
0.936585
 30
0.0
 11
56.28665999999999
 21
0.679782
 31
0.0
  0
LINE
  5
18F
330
2F5
100
AcDbEntity
  8
1
100
AcDbLine
 10
56.28665999999999
 20
0.679782
 30
0.0
 11
55.649891
 21
0.421975
 31
0.0
  0
LINE
  5
190
330
2F5
100
AcDbEntity
  8
1
100
AcDbLine
 10
56.971167
 20
0.523716
 30
0.0
 11
56.310137
 21
0.255702
 31
0.0
  0
LINE
  5
191
330
2F5
100
AcDbEntity
  8
1
100
AcDbLine
 10
56.310137
 20
0.255702
 30
0.0
 11
55.649891
 21
-0.013041
 31
0.0
  0
LINE
  5
192
330
2F5
100
AcDbEntity
  8
1
100
AcDbLine
 10
55.37676600000001
 20
-0.129786
 30
0.0
 11
55.649891
 21
-0.013041
 31
0.0
  0
LINE
  5
193
330
2F5
100
AcDbEntity
  8
1
100
AcDbLine
 10
54.849891
 20
-0.355579
 30
0.0
 11
55.37676600000001
 21
-0.129786
 31
0.0
  0
LINE
  5
194
330
2F5
100
AcDbEntity
  8
1
100
AcDbLine
 10
56.429142
 20
2.612319999999999
 30
0.0
 11
57.143674
 21
2.89089
 31
0.0
  0
LINE
  5
195
330
2F5
100
AcDbEntity
  8
1
100
AcDbLine
 10
55.695209
 20
2.3246
 30
0.0
 11
56.429142
 21
2.612319999999999
 31
0.0
  0
LINE
  5
196
330
2F5
100
AcDbEntity
  8
1
100
AcDbLine
 10
54.94256800000001
 20
2.027986999999999
 30
0.0
 11
55.695209
 21
2.3246
 31
0.0
  0
LINE
  5
197
330
2F5
100
AcDbEntity
  8
1
100
AcDbLine
 10
54.295194
 20
1.752318999999999
 30
0.0
 11
53.79130799999999
 21
1.552284
 31
0.0
  0
LINE
  5
198
330
2F5
100
AcDbEntity
  8
1
100
AcDbLine
 10
54.293661
 20
1.758372999999999
 30
0.0
 11
54.94256800000001
 21
2.027986999999999
 31
0.0
  0
LINE
  5
199
330
2F5
100
AcDbEntity
  8
1
100
AcDbLine
 10
54.394599
 20
-0.9586859999999999
 30
0.0
 11
54.422055
 21
-0.9595749999999998
 31
0.0
  0
LINE
  5
19A
330
2F5
100
AcDbEntity
  8
1
100
AcDbLine
 10
54.422055
 20
-0.9595749999999998
 30
0.0
 11
54.448467
 21
-0.96128
 31
0.0
  0
LINE
  5
19B
330
2F5
100
AcDbEntity
  8
1
100
AcDbLine
 10
54.448467
 20
-0.96128
 30
0.0
 11
54.47383699999999
 21
-0.963804
 31
0.0
  0
LINE
  5
19C
330
2F5
100
AcDbEntity
  8
1
100
AcDbLine
 10
54.47383699999999
 20
-0.963804
 30
0.0
 11
54.498153
 21
-0.9671829999999999
 31
0.0
  0
LINE
  5
19D
330
2F5
100
AcDbEntity
  8
1
100
AcDbLine
 10
54.498153
 20
-0.9671829999999999
 30
0.0
 11
54.521427
 21
-0.9713779999999999
 31
0.0
  0
LINE
  5
19E
330
2F5
100
AcDbEntity
  8
1
100
AcDbLine
 10
54.521427
 20
-0.9713779999999999
 30
0.0
 11
54.54369
 21
-0.9762799999999998
 31
0.0
  0
LINE
  5
19F
330
2F5
100
AcDbEntity
  8
1
100
AcDbLine
 10
54.54369
 20
-0.9762799999999998
 30
0.0
 11
54.564948
 21
-0.9818889999999999
 31
0.0
  0
LINE
  5
1A0
330
2F5
100
AcDbEntity
  8
1
100
AcDbLine
 10
54.564948
 20
-0.9818889999999999
 30
0.0
 11
54.585195
 21
-0.9882049999999999
 31
0.0
  0
LINE
  5
1A1
330
2F5
100
AcDbEntity
  8
1
100
AcDbLine
 10
54.585195
 20
-0.9882049999999999
 30
0.0
 11
54.604456
 21
-0.995124
 31
0.0
  0
LINE
  5
1A2
330
2F5
100
AcDbEntity
  8
1
100
AcDbLine
 10
54.604456
 20
-0.995124
 30
0.0
 11
54.62273199999999
 21
-1.00265
 31
0.0
  0
LINE
  5
1A3
330
2F5
100
AcDbEntity
  8
1
100
AcDbLine
 10
54.62273199999999
 20
-1.00265
 30
0.0
 11
54.640021
 21
-1.010779
 31
0.0
  0
LINE
  5
1A4
330
2F5
100
AcDbEntity
  8
1
100
AcDbLine
 10
54.640021
 20
-1.010779
 30
0.0
 11
54.656336
 21
-1.019395999999999
 31
0.0
  0
LINE
  5
1A5
330
2F5
100
AcDbEntity
  8
1
100
AcDbLine
 10
54.656336
 20
-1.019395999999999
 30
0.0
 11
54.671674
 21
-1.028507
 31
0.0
  0
LINE
  5
1A6
330
2F5
100
AcDbEntity
  8
1
100
AcDbLine
 10
54.671674
 20
-1.028507
 30
0.0
 11
54.686038
 21
-1.038108
 31
0.0
  0
LINE
  5
1A7
330
2F5
100
AcDbEntity
  8
1
100
AcDbLine
 10
54.686038
 20
-1.038108
 30
0.0
 11
54.699451
 21
-1.048061
 31
0.0
  0
LINE
  5
1A8
330
2F5
100
AcDbEntity
  8
1
100
AcDbLine
 10
54.699451
 20
-1.048061
 30
0.0
 11
54.71189999999999
 21
-1.05837
 31
0.0
  0
LINE
  5
1A9
330
2F5
100
AcDbEntity
  8
1
100
AcDbLine
 10
54.71189999999999
 20
-1.05837
 30
0.0
 11
54.723399
 21
-1.069031999999999
 31
0.0
  0
LINE
  5
1AA
330
2F5
100
AcDbEntity
  8
1
100
AcDbLine
 10
54.723399
 20
-1.069031999999999
 30
0.0
 11
54.734007
 21
-1.079911999999999
 31
0.0
  0
LINE
  5
1AB
330
2F5
100
AcDbEntity
  8
1
100
AcDbLine
 10
54.734007
 20
-1.079911999999999
 30
0.0
 11
54.743703
 21
-1.090983999999999
 31
0.0
  0
LINE
  5
1AC
330
2F5
100
AcDbEntity
  8
1
100
AcDbLine
 10
54.743703
 20
-1.090983999999999
 30
0.0
 11
54.75250899999999
 21
-1.102271
 31
0.0
  0
LINE
  5
1AD
330
2F5
100
AcDbEntity
  8
1
100
AcDbLine
 10
54.75250899999999
 20
-1.102271
 30
0.0
 11
54.76055
 21
-1.113725
 31
0.0
  0
LINE
  5
1AE
330
2F5
100
AcDbEntity
  8
1
100
AcDbLine
 10
54.76055
 20
-1.113725
 30
0.0
 11
54.76782700000001
 21
-1.125310999999999
 31
0.0
  0
LINE
  5
1AF
330
2F5
100
AcDbEntity
  8
1
100
AcDbLine
 10
54.76782700000001
 20
-1.125310999999999
 30
0.0
 11
54.77434
 21
-1.137062
 31
0.0
  0
LINE
  5
1B0
330
2F5
100
AcDbEntity
  8
1
100
AcDbLine
 10
54.77434
 20
-1.137062
 30
0.0
 11
54.780206
 21
-1.149020999999999
 31
0.0
  0
LINE
  5
1B1
330
2F5
100
AcDbEntity
  8
1
100
AcDbLine
 10
54.780206
 20
-1.149020999999999
 30
0.0
 11
54.785447
 21
-1.161173999999999
 31
0.0
  0
LINE
  5
1B2
330
2F5
100
AcDbEntity
  8
1
100
AcDbLine
 10
54.785447
 20
-1.161173999999999
 30
0.0
 11
54.790041
 21
-1.173534
 31
0.0
  0
LINE
  5
1B3
330
2F5
100
AcDbEntity
  8
1
100
AcDbLine
 10
54.790041
 20
-1.173534
 30
0.0
 11
54.794043
 21
-1.186179
 31
0.0
  0
LINE
  5
1B4
330
2F5
100
AcDbEntity
  8
1
100
AcDbLine
 10
54.794043
 20
-1.186179
 30
0.0
 11
54.797474
 21
-1.199098999999999
 31
0.0
  0
LINE
  5
1B5
330
2F5
100
AcDbEntity
  8
1
100
AcDbLine
 10
54.797474
 20
-1.199098999999999
 30
0.0
 11
54.800314
 21
-1.212303
 31
0.0
  0
LINE
  5
1B6
330
2F5
100
AcDbEntity
  8
1
100
AcDbLine
 10
54.800314
 20
-1.212303
 30
0.0
 11
54.802552
 21
-1.225894
 31
0.0
  0
LINE
  5
1B7
330
2F5
100
AcDbEntity
  8
1
100
AcDbLine
 10
54.802552
 20
-1.225894
 30
0.0
 11
54.804211
 21
-1.239861
 31
0.0
  0
LINE
  5
1B8
330
2F5
100
AcDbEntity
  8
1
100
AcDbLine
 10
54.804211
 20
-1.239861
 30
0.0
 11
54.805269
 21
-1.254214999999999
 31
0.0
  0
LINE
  5
1B9
330
2F5
100
AcDbEntity
  8
1
100
AcDbLine
 10
54.805269
 20
-1.254214999999999
 30
0.0
 11
54.80565099999999
 21
-1.269087
 31
0.0
  0
LINE
  5
1BA
330
2F5
100
AcDbEntity
  8
1
100
AcDbLine
 10
54.80565099999999
 20
-1.269087
 30
0.0
 11
54.805376
 21
-1.284499999999999
 31
0.0
  0
LINE
  5
1BB
330
2F5
100
AcDbEntity
  8
1
100
AcDbLine
 10
54.805376
 20
-1.284499999999999
 30
0.0
 11
54.804424
 21
-1.300432
 31
0.0
  0
LINE
  5
1BC
330
2F5
100
AcDbEntity
  8
1
100
AcDbLine
 10
54.804424
 20
-1.300432
 30
0.0
 11
54.802664
 21
-1.316954999999999
 31
0.0
  0
LINE
  5
1BD
330
2F5
100
AcDbEntity
  8
1
100
AcDbLine
 10
54.802664
 20
-1.316954999999999
 30
0.0
 11
54.800091
 21
-1.334114999999999
 31
0.0
  0
LINE
  5
1BE
330
2F5
100
AcDbEntity
  8
1
100
AcDbLine
 10
54.800091
 20
-1.334114999999999
 30
0.0
 11
54.79670999999999
 21
-1.351866
 31
0.0
  0
LINE
  5
1BF
330
2F5
100
AcDbEntity
  8
1
100
AcDbLine
 10
54.79670999999999
 20
-1.351866
 30
0.0
 11
54.792403
 21
-1.370129999999999
 31
0.0
  0
LINE
  5
1C0
330
2F5
100
AcDbEntity
  8
1
100
AcDbLine
 10
54.792403
 20
-1.370129999999999
 30
0.0
 11
54.78715799999999
 21
-1.388913999999999
 31
0.0
  0
LINE
  5
1C1
330
2F5
100
AcDbEntity
  8
1
100
AcDbLine
 10
54.78715799999999
 20
-1.388913999999999
 30
0.0
 11
54.780987
 21
-1.408211999999999
 31
0.0
  0
LINE
  5
1C2
330
2F5
100
AcDbEntity
  8
1
100
AcDbLine
 10
54.780987
 20
-1.408211999999999
 30
0.0
 11
54.773803
 21
-1.427936
 31
0.0
  0
LINE
  5
1C3
330
2F5
100
AcDbEntity
  8
1
100
AcDbLine
 10
54.773803
 20
-1.427936
 30
0.0
 11
54.765601
 21
-1.448081999999999
 31
0.0
  0
LINE
  5
1C4
330
2F5
100
AcDbEntity
  8
1
100
AcDbLine
 10
54.765601
 20
-1.448081999999999
 30
0.0
 11
54.756387
 21
-1.468654999999999
 31
0.0
  0
LINE
  5
1C5
330
2F5
100
AcDbEntity
  8
1
100
AcDbLine
 10
54.756387
 20
-1.468654999999999
 30
0.0
 11
54.746089
 21
-1.489577
 31
0.0
  0
LINE
  5
1C6
330
2F5
100
AcDbEntity
  8
1
100
AcDbLine
 10
54.746089
 20
-1.489577
 30
0.0
 11
54.734683
 21
-1.510825999999999
 31
0.0
  0
LINE
  5
1C7
330
2F5
100
AcDbEntity
  8
1
100
AcDbLine
 10
54.734683
 20
-1.510825999999999
 30
0.0
 11
54.722193
 21
-1.532426
 31
0.0
  0
LINE
  5
1C8
330
2F5
100
AcDbEntity
  8
1
100
AcDbLine
 10
54.722193
 20
-1.532426
 30
0.0
 11
54.70861899999999
 21
-1.554375999999999
 31
0.0
  0
LINE
  5
1C9
330
2F5
100
AcDbEntity
  8
1
100
AcDbLine
 10
54.28895799999999
 20
5.477179
 30
0.0
 11
54.08894100000001
 21
5.496369999999999
 31
0.0
  0
LINE
  5
1CA
330
2F5
100
AcDbEntity
  8
1
100
AcDbLine
 10
54.08894100000001
 20
5.496369999999999
 30
0.0
 11
53.60666099999999
 21
5.535308
 31
0.0
  0
LINE
  5
1CB
330
2F5
100
AcDbEntity
  8
1
100
AcDbLine
 10
53.60666099999999
 20
5.535308
 30
0.0
 11
53.119049
 21
5.567492999999999
 31
0.0
  0
LINE
  5
1CC
330
2F5
100
AcDbEntity
  8
1
100
AcDbLine
 10
53.119049
 20
5.567492999999999
 30
0.0
 11
52.628724
 21
5.592588
 31
0.0
  0
LINE
  5
1CD
330
2F5
100
AcDbEntity
  8
1
100
AcDbLine
 10
52.628724
 20
5.592588
 30
0.0
 11
52.136559
 21
5.610481
 31
0.0
  0
LINE
  5
1CE
330
2F5
100
AcDbEntity
  8
1
100
AcDbLine
 10
52.136559
 20
5.610481
 30
0.0
 11
51.641681
 21
5.621284999999999
 31
0.0
  0
LINE
  5
1CF
330
2F5
100
AcDbEntity
  8
1
100
AcDbLine
 10
51.641681
 20
5.621284999999999
 30
0.0
 11
51.144089
 21
5.625
 31
0.0
  0
LINE
  5
1D0
330
2F5
100
AcDbEntity
  8
1
100
AcDbLine
 10
51.144089
 20
5.625
 30
0.0
 11
50.953026
 21
5.624462999999999
 31
0.0
  0
LINE
  5
1D1
330
2F5
100
AcDbEntity
  8
1
100
AcDbLine
 10
50.953026
 20
5.624462999999999
 30
0.0
 11
50.762144
 21
5.622859
 31
0.0
  0
LINE
  5
1D2
330
2F5
100
AcDbEntity
  8
1
100
AcDbLine
 10
50.762144
 20
5.622859
 30
0.0
 11
50.571445
 21
5.62019
 31
0.0
  0
LINE
  5
1D3
330
2F5
100
AcDbEntity
  8
1
100
AcDbLine
 10
50.571445
 20
5.62019
 30
0.0
 11
50.38092800000001
 21
5.616455
 31
0.0
  0
LINE
  5
1D4
330
2F5
100
AcDbEntity
  8
1
100
AcDbLine
 10
50.38092800000001
 20
5.616455
 30
0.0
 11
50.19059399999999
 21
5.611655
 31
0.0
  0
LINE
  5
1D5
330
2F5
100
AcDbEntity
  8
1
100
AcDbLine
 10
50.19059399999999
 20
5.611655
 30
0.0
 11
50.000441
 21
5.605788999999999
 31
0.0
  0
LINE
  5
1D6
330
2F5
100
AcDbEntity
  8
1
100
AcDbLine
 10
54.62631700000001
 20
5.772484999999999
 30
0.0
 11
54.600337
 21
5.765886
 31
0.0
  0
LINE
  5
1D7
330
2F5
100
AcDbEntity
  8
1
100
AcDbLine
 10
54.600337
 20
5.765886
 30
0.0
 11
54.53808399999999
 21
5.743028999999999
 31
0.0
  0
LINE
  5
1D8
330
2F5
100
AcDbEntity
  8
1
100
AcDbLine
 10
54.53808399999999
 20
5.743028999999999
 30
0.0
 11
54.47625600000001
 21
5.710373999999999
 31
0.0
  0
LINE
  5
1D9
330
2F5
100
AcDbEntity
  8
1
100
AcDbLine
 10
54.47625600000001
 20
5.710373999999999
 30
0.0
 11
54.414965
 21
5.667968
 31
0.0
  0
LINE
  5
1DA
330
2F5
100
AcDbEntity
  8
1
100
AcDbLine
 10
54.414965
 20
5.667968
 30
0.0
 11
54.3541
 21
5.615765
 31
0.0
  0
LINE
  5
1DB
330
2F5
100
AcDbEntity
  8
1
100
AcDbLine
 10
54.3541
 20
5.615765
 30
0.0
 11
54.293661
 21
5.553764
 31
0.0
  0
LINE
  5
1DC
330
2F5
100
AcDbEntity
  8
1
100
AcDbLine
 10
60.0
 20
5.191709999999999
 30
0.0
 11
58.6
 21
6.0
 31
0.0
  0
LINE
  5
1DD
330
2F5
100
AcDbEntity
  8
1
100
AcDbLine
 10
60.0
 20
1.498712999999999
 30
0.0
 11
60.0
 21
4.835393999999999
 31
0.0
  0
LINE
  5
1DE
330
2F5
100
AcDbEntity
  8
1
100
AcDbLine
 10
60.0
 20
4.835393999999999
 30
0.0
 11
60.0
 21
5.191709999999999
 31
0.0
  0
LINE
  5
1DF
330
2F5
100
AcDbEntity
  8
1
100
AcDbLine
 10
59.5
 20
4.269052999999999
 30
0.0
 11
59.5
 21
3.731630999999999
 31
0.0
  0
LINE
  5
1E0
330
2F5
100
AcDbEntity
  8
1
100
AcDbLine
 10
58.517079
 20
1.570810999999999
 30
0.0
 11
58.47360699999999
 21
1.773722999999999
 31
0.0
  0
LINE
  5
1E1
330
2F5
100
AcDbEntity
  8
1
100
AcDbLine
 10
58.47360699999999
 20
1.773722999999999
 30
0.0
 11
58.43145699999999
 21
1.973658999999999
 31
0.0
  0
LINE
  5
1E2
330
2F5
100
AcDbEntity
  8
1
100
AcDbLine
 10
58.43145699999999
 20
1.973658999999999
 30
0.0
 11
58.390628
 21
2.170615999999999
 31
0.0
  0
LINE
  5
1E3
330
2F5
100
AcDbEntity
  8
1
100
AcDbLine
 10
58.390628
 20
2.170615999999999
 30
0.0
 11
58.351097
 21
2.364603999999999
 31
0.0
  0
LINE
  5
1E4
330
2F5
100
AcDbEntity
  8
1
100
AcDbLine
 10
58.351097
 20
2.364603999999999
 30
0.0
 11
58.312889
 21
2.555614999999999
 31
0.0
  0
LINE
  5
1E5
330
2F5
100
AcDbEntity
  8
1
100
AcDbLine
 10
58.312889
 20
2.555614999999999
 30
0.0
 11
58.276074
 21
2.743634
 31
0.0
  0
LINE
  5
1E6
330
2F5
100
AcDbEntity
  8
1
100
AcDbLine
 10
58.276074
 20
2.743634
 30
0.0
 11
58.240677
 21
2.928655
 31
0.0
  0
LINE
  5
1E7
330
2F5
100
AcDbEntity
  8
1
100
AcDbLine
 10
58.240677
 20
2.928655
 30
0.0
 11
58.20667499999999
 21
3.110682
 31
0.0
  0
LINE
  5
1E8
330
2F5
100
AcDbEntity
  8
1
100
AcDbLine
 10
58.20667499999999
 20
3.110682
 30
0.0
 11
58.174067
 21
3.289719
 31
0.0
  0
LINE
  5
1E9
330
2F5
100
AcDbEntity
  8
1
100
AcDbLine
 10
58.51922099999999
 20
1.567509999999999
 30
0.0
 11
58.533507
 21
1.506
 31
0.0
  0
LINE
  5
1EA
330
2F5
100
AcDbEntity
  8
1
100
AcDbLine
 10
58.533507
 20
1.506
 30
0.0
 11
58.548986
 21
1.443848
 31
0.0
  0
LINE
  5
1EB
330
2F5
100
AcDbEntity
  8
1
100
AcDbLine
 10
58.548986
 20
1.443848
 30
0.0
 11
58.56565899999999
 21
1.381051
 31
0.0
  0
LINE
  5
1EC
330
2F5
100
AcDbEntity
  8
1
100
AcDbLine
 10
58.56565899999999
 20
1.381051
 30
0.0
 11
58.58352599999999
 21
1.317609999999999
 31
0.0
  0
LINE
  5
1ED
330
2F5
100
AcDbEntity
  8
1
100
AcDbLine
 10
58.58352599999999
 20
1.317609999999999
 30
0.0
 11
58.602587
 21
1.253525999999999
 31
0.0
  0
LINE
  5
1EE
330
2F5
100
AcDbEntity
  8
1
100
AcDbLine
 10
58.602587
 20
1.253525999999999
 30
0.0
 11
58.62284200000001
 21
1.188798
 31
0.0
  0
LINE
  5
1EF
330
2F5
100
AcDbEntity
  8
1
100
AcDbLine
 10
58.1
 20
4.819861
 30
0.0
 11
58.1
 21
3.261139
 31
0.0
  0
LINE
  5
1F0
330
2F5
100
AcDbEntity
  8
1
100
AcDbLine
 10
58.517079
 20
1.570810999999999
 30
0.0
 11
58.51922099999999
 21
1.567509999999999
 31
0.0
  0
LINE
  5
1F1
330
2F5
100
AcDbEntity
  8
1
100
AcDbLine
 10
59.5
 20
4.269052999999999
 30
0.0
 11
59.36483299999999
 21
4.326427999999999
 31
0.0
  0
LINE
  5
1F2
330
2F5
100
AcDbEntity
  8
1
100
AcDbLine
 10
59.36483299999999
 20
4.326427999999999
 30
0.0
 11
59.22467
 21
4.384732999999999
 31
0.0
  0
LINE
  5
1F3
330
2F5
100
AcDbEntity
  8
1
100
AcDbLine
 10
59.22467
 20
4.384732999999999
 30
0.0
 11
59.079512
 21
4.443966
 31
0.0
  0
LINE
  5
1F4
330
2F5
100
AcDbEntity
  8
1
100
AcDbLine
 10
59.079512
 20
4.443966
 30
0.0
 11
58.929495
 21
4.504094
 31
0.0
  0
LINE
  5
1F5
330
2F5
100
AcDbEntity
  8
1
100
AcDbLine
 10
58.929495
 20
4.504094
 30
0.0
 11
58.774483
 21
4.56515
 31
0.0
  0
LINE
  5
1F6
330
2F5
100
AcDbEntity
  8
1
100
AcDbLine
 10
58.774483
 20
4.56515
 30
0.0
 11
58.61406800000001
 21
4.627244
 31
0.0
  0
LINE
  5
1F7
330
2F5
100
AcDbEntity
  8
1
100
AcDbLine
 10
58.61406800000001
 20
4.627244
 30
0.0
 11
58.44811400000001
 21
4.690412
 31
0.0
  0
LINE
  5
1F8
330
2F5
100
AcDbEntity
  8
1
100
AcDbLine
 10
58.44811400000001
 20
4.690412
 30
0.0
 11
58.27675799999999
 21
4.754616999999999
 31
0.0
  0
LINE
  5
1F9
330
2F5
100
AcDbEntity
  8
1
100
AcDbLine
 10
58.27675799999999
 20
4.754616999999999
 30
0.0
 11
58.1
 21
4.819861
 31
0.0
  0
LINE
  5
1FA
330
2F5
100
AcDbEntity
  8
1
100
AcDbLine
 10
59.5
 20
-1.29641
 30
0.0
 11
60.0
 21
-1.498712
 31
0.0
  0
LINE
  5
1FB
330
2F5
100
AcDbEntity
  8
1
100
AcDbLine
 10
58.62284200000001
 20
1.188798
 30
0.0
 11
58.292972
 21
1.056494999999999
 31
0.0
  0
LINE
  5
1FC
330
2F5
100
AcDbEntity
  8
1
100
AcDbLine
 10
58.292972
 20
1.056494999999999
 30
0.0
 11
57.63260999999999
 21
0.7908490000000001
 31
0.0
  0
LINE
  5
1FD
330
2F5
100
AcDbEntity
  8
1
100
AcDbLine
 10
60.0
 20
3.898273999999999
 30
0.0
 11
58.174067
 21
3.289719
 31
0.0
  0
LINE
  5
1FE
330
2F5
100
AcDbEntity
  8
1
100
AcDbLine
 10
58.51922099999999
 20
1.567509999999999
 30
0.0
 11
60.0
 21
2.06103
 31
0.0
  0
LINE
  5
1FF
330
2F5
100
AcDbEntity
  8
1
100
AcDbLine
 10
60.0
 20
1.647783
 30
0.0
 11
58.62284200000001
 21
1.188798
 31
0.0
  0
LINE
  5
200
330
2F5
100
AcDbEntity
  8
1
100
AcDbLine
 10
55.659073
 20
6.0
 30
0.0
 11
58.576811
 21
6.0
 31
0.0
  0
LINE
  5
201
330
2F5
100
AcDbEntity
  8
1
100
AcDbLine
 10
58.576811
 20
6.0
 30
0.0
 11
58.6
 21
6.0
 31
0.0
  0
LINE
  5
202
330
2F5
100
AcDbEntity
  8
1
100
AcDbLine
 10
55.658494
 20
-6.0
 30
0.0
 11
58.576811
 21
-6.0
 31
0.0
  0
LINE
  5
203
330
2F5
100
AcDbEntity
  8
1
100
AcDbLine
 10
54.662679
 20
5.778808
 30
0.0
 11
55.659073
 21
6.0
 31
0.0
  0
LINE
  5
204
330
2F5
100
AcDbEntity
  8
1
100
AcDbLine
 10
54.662679
 20
5.778808
 30
0.0
 11
54.62631700000001
 21
5.772484999999999
 31
0.0
  0
LINE
  5
205
330
2F5
100
AcDbEntity
  8
1
100
AcDbLine
 10
58.174067
 20
-5.109948999999999
 30
0.0
 11
58.576811
 21
-6.0
 31
0.0
  0
LINE
  5
206
330
2F5
100
AcDbEntity
  8
4
100
AcDbLine
 10
62.034196
 20
0.0
 30
0.0
 11
0.0
 21
0.0
 31
0.0
  0
LINE
  5
207
330
2F5
100
AcDbEntity
  8
SK1
100
AcDbLine
 10
-8.349999999999999
 20
5.444175
 30
0.0
 11
0.0
 21
6.174173999999999
 31
0.0
  0
LINE
  5
208
330
2F5
100
AcDbEntity
  8
SK1
100
AcDbLine
 10
-8.349999999999999
 20
-5.444173999999999
 30
0.0
 11
0.0
 21
-6.174173999999999
 31
0.0
  0
LINE
  5
209
330
2F5
100
AcDbEntity
  8
SK1
100
AcDbLine
 10
-8.349999999999999
 20
5.444175
 30
0.0
 11
-8.349999999999999
 21
-5.444173999999999
 31
0.0
  0
LINE
  5
20A
330
2F5
100
AcDbEntity
  8
SK1
100
AcDbLine
 10
-11.35
 20
4.944175
 30
0.0
 11
-11.35
 21
-4.944173999999999
 31
0.0
  0
LINE
  5
20B
330
2F5
100
AcDbEntity
  8
SK1
100
AcDbLine
 10
-11.35
 20
-4.944173999999999
 30
0.0
 11
-8.349999999999999
 21
-4.944173999999999
 31
0.0
  0
LINE
  5
20C
330
2F5
100
AcDbEntity
  8
SK1
100
AcDbLine
 10
-11.35
 20
4.944175
 30
0.0
 11
-8.349999999999999
 21
4.944175
 31
0.0
  0
LINE
  5
20D
330
2F5
100
AcDbEntity
  8
1
100
AcDbLine
 10
8.0
 20
5.625
 30
0.0
 11
8.0
 21
-5.625
 31
0.0
  0
LINE
  5
20E
330
2F5
100
AcDbEntity
  8
1
100
AcDbLine
 10
5.0
 20
8.9
 30
0.0
 11
5.0
 21
-8.9
 31
0.0
  0
LINE
  5
20F
330
2F5
100
AcDbEntity
  8
1
100
AcDbLine
 10
0.0
 20
8.9
 30
0.0
 11
0.0
 21
-8.9
 31
0.0
  0
LINE
  5
210
330
2F5
100
AcDbEntity
  8
1
100
AcDbLine
 10
0.0
 20
-8.9
 30
0.0
 11
5.0
 21
-8.9
 31
0.0
  0
LINE
  5
211
330
2F5
100
AcDbEntity
  8
1
100
AcDbLine
 10
5.0
 20
-8.9
 30
0.0
 11
8.0
 21
-5.625
 31
0.0
  0
LINE
  5
212
330
2F5
100
AcDbEntity
  8
1
100
AcDbLine
 10
0.0
 20
8.9
 30
0.0
 11
5.0
 21
8.9
 31
0.0
  0
LINE
  5
213
330
2F5
100
AcDbEntity
  8
1
100
AcDbLine
 10
5.0
 20
8.9
 30
0.0
 11
8.0
 21
5.625
 31
0.0
  0
LINE
  5
214
330
2F5
100
AcDbEntity
  8
80
100
AcDbLine
 10
0.0
 20
0.0
 30
0.0
 11
-11.35
 21
0.0
 31
0.0
  0
LINE
  5
215
330
2F5
100
AcDbEntity
  8
81
100
AcDbLine
 10
60.0
 20
0.0
 30
0.0
 11
67.516535
 21
0.0
 31
0.0
  0
LINE
  5
216
330
2F5
100
AcDbEntity
  8
SK4
100
AcDbLine
 10
-11.35
 20
0.0
 30
0.0
 11
61.664262
 21
0.0
 31
0.0
  0
POINT
  5
217
330
2F5
100
AcDbEntity
  8
80
100
AcDbPoint
 10
0.0
 20
0.0
 30
0.0
  0
POINT
  5
218
330
2F5
100
AcDbEntity
  8
81
100
AcDbPoint
 10
60.0
 20
6.0
 30
0.0
  0
TEXT
  5
219
330
2F5
100
AcDbEntity
  8
SK6
100
AcDbText
 10
-14.166709
 20
11.219902
 30
0.0
 40
3.5
  1
HFS12
 41
0.7922612000000005
  7
SANDVIK_STYLE
 72
     5
 11
-2.282791
 21
11.219902
 31
0.0
100
AcDbText
  0
TEXT
  5
21A
330
2F5
100
AcDbEntity
  8
SK6
100
AcDbText
 10
-13.940532
 20
-21.675389
 30
0.0
 40
3.5
  1
830B-E06D1200H7S12
 41
0.7986998873239434
  7
SANDVIK_STYLE
 72
     5
 11
33.31587800000001
 21
-21.675389
 31
0.0
100
AcDbText
  0
TEXT
  5
21B
330
2F5
100
AcDbEntity
  8
2
100
AcDbText
 10
31.06215300000001
 20
34.48275000000001
 30
0.0
 40
3.5
  1
60 
100
AcDbText
  0
INSERT
  5
21C
330
2F5
100
AcDbEntity
  8
2
100
AcDbBlockReference
  2
*D0
 10
0.0
 20
0.0
 30
0.0
  0
TEXT
  5
21D
330
2F5
100
AcDbEntity
  8
2
100
AcDbText
 10
75.967939
 20
0.0
 30
0.0
 40
3.5
  1
%%c12H7
 50
90.0
100
AcDbText
  0
INSERT
  5
21E
330
2F5
100
AcDbEntity
  8
2
100
AcDbBlockReference
  2
*D1
 10
0.0
 20
0.0
 30
0.0
  0
TEXT
  5
21F
330
2F5
100
AcDbEntity
  8
2
100
AcDbText
 10
39.743403
 20
24.48275
 30
0.0
 40
3.5
  1
L=45 
100
AcDbText
  0
INSERT
  5
220
330
2F5
100
AcDbEntity
  8
2
100
AcDbBlockReference
  2
*D2
 10
0.0
 20
0.0
 30
0.0
  0
ENDSEC
  0
SECTION
  2
OBJECTS
  0
DICTIONARY
  5
291
330
0
100
AcDbDictionary
281
     1
  3
ACAD_CIP_PREVIOUS_PRODUCT_INFO
350
329
  3
ACAD_COLOR
350
2E7
  3
ACAD_DETAILVIEWSTYLE
350
2EF
  3
ACAD_GROUP
350
292
  3
ACAD_LAYOUT
350
2E6
  3
ACAD_MATERIAL
350
295
  3
ACAD_MLEADERSTYLE
350
2EA
  3
ACAD_MLINESTYLE
350
2E3
  3
ACAD_PLOTSETTINGS
350
2E5
  3
ACAD_PLOTSTYLENAME
350
293
  3
ACAD_SCALELIST
350
2C7
  3
ACAD_SECTIONVIEWSTYLE
350
2EC
  3
ACAD_TABLESTYLE
350
2E8
  3
ACAD_VISUALSTYLE
350
2AE
  3
ACDB_RECOMPOSE_DATA
350
385
  3
AcDbVariableDictionary
350
378
  3
DWGPROPS
350
386
  0
DICTIONARY
  5
32C
330
2D9
100
AcDbDictionary
280
     1
281
     1
  3
ADSK_XREC_LAYER_RECONCILED
360
32D
  0
DICTIONARY
  5
32E
330
2F9
100
AcDbDictionary
280
     1
281
     1
  3
ADSK_XREC_LAYER_RECONCILED
360
32F
  0
DICTIONARY
  5
330
330
2FD
100
AcDbDictionary
280
     1
281
     1
  3
ADSK_XREC_LAYER_RECONCILED
360
331
  0
DICTIONARY
  5
332
330
2FE
100
AcDbDictionary
280
     1
281
     1
  3
ADSK_XREC_LAYER_RECONCILED
360
333
  0
DICTIONARY
  5
334
330
2FF
100
AcDbDictionary
280
     1
281
     1
  3
ADSK_XREC_LAYER_RECONCILED
360
335
  0
DICTIONARY
  5
336
330
300
100
AcDbDictionary
280
     1
281
     1
  3
ADSK_XREC_LAYER_RECONCILED
360
337
  0
DICTIONARY
  5
338
330
301
100
AcDbDictionary
280
     1
281
     1
  3
ADSK_XREC_LAYER_RECONCILED
360
339
  0
DICTIONARY
  5
33A
330
302
100
AcDbDictionary
280
     1
281
     1
  3
ADSK_XREC_LAYER_RECONCILED
360
33B
  0
DICTIONARY
  5
33C
330
303
100
AcDbDictionary
280
     1
281
     1
  3
ADSK_XREC_LAYER_RECONCILED
360
33D
  0
DICTIONARY
  5
33E
330
304
100
AcDbDictionary
280
     1
281
     1
  3
ADSK_XREC_LAYER_RECONCILED
360
33F
  0
DICTIONARY
  5
340
330
305
100
AcDbDictionary
280
     1
281
     1
  3
ADSK_XREC_LAYER_RECONCILED
360
341
  0
DICTIONARY
  5
342
330
306
100
AcDbDictionary
280
     1
281
     1
  3
ADSK_XREC_LAYER_RECONCILED
360
343
  0
DICTIONARY
  5
344
330
307
100
AcDbDictionary
280
     1
281
     1
  3
ADSK_XREC_LAYER_RECONCILED
360
345
  0
DICTIONARY
  5
346
330
308
100
AcDbDictionary
280
     1
281
     1
  3
ADSK_XREC_LAYER_RECONCILED
360
347
  0
DICTIONARY
  5
348
330
309
100
AcDbDictionary
280
     1
281
     1
  3
ADSK_XREC_LAYER_RECONCILED
360
349
  0
DICTIONARY
  5
34A
330
30A
100
AcDbDictionary
280
     1
281
     1
  3
ADSK_XREC_LAYER_RECONCILED
360
34B
  0
DICTIONARY
  5
34C
330
30B
100
AcDbDictionary
280
     1
281
     1
  3
ADSK_XREC_LAYER_RECONCILED
360
34D
  0
DICTIONARY
  5
34E
330
30C
100
AcDbDictionary
280
     1
281
     1
  3
ADSK_XREC_LAYER_RECONCILED
360
34F
  0
DICTIONARY
  5
350
330
30D
100
AcDbDictionary
280
     1
281
     1
  3
ADSK_XREC_LAYER_RECONCILED
360
351
  0
DICTIONARY
  5
352
330
30E
100
AcDbDictionary
280
     1
281
     1
  3
ADSK_XREC_LAYER_RECONCILED
360
353
  0
DICTIONARY
  5
354
330
30F
100
AcDbDictionary
280
     1
281
     1
  3
ADSK_XREC_LAYER_RECONCILED
360
355
  0
DICTIONARY
  5
356
330
310
100
AcDbDictionary
280
     1
281
     1
  3
ADSK_XREC_LAYER_RECONCILED
360
357
  0
DICTIONARY
  5
358
330
311
100
AcDbDictionary
280
     1
281
     1
  3
ADSK_XREC_LAYER_RECONCILED
360
359
  0
DICTIONARY
  5
35A
330
312
100
AcDbDictionary
280
     1
281
     1
  3
ADSK_XREC_LAYER_RECONCILED
360
35B
  0
DICTIONARY
  5
35C
330
313
100
AcDbDictionary
280
     1
281
     1
  3
ADSK_XREC_LAYER_RECONCILED
360
35D
  0
DICTIONARY
  5
35E
330
314
100
AcDbDictionary
280
     1
281
     1
  3
ADSK_XREC_LAYER_RECONCILED
360
35F
  0
DICTIONARY
  5
360
330
315
100
AcDbDictionary
280
     1
281
     1
  3
ADSK_XREC_LAYER_RECONCILED
360
361
  0
DICTIONARY
  5
362
330
316
100
AcDbDictionary
280
     1
281
     1
  3
ADSK_XREC_LAYER_RECONCILED
360
363
  0
DICTIONARY
  5
364
330
317
100
AcDbDictionary
280
     1
281
     1
  3
ADSK_XREC_LAYER_RECONCILED
360
365
  0
DICTIONARY
  5
366
330
318
100
AcDbDictionary
280
     1
281
     1
  3
ADSK_XREC_LAYER_RECONCILED
360
367
  0
DICTIONARY
  5
368
330
319
100
AcDbDictionary
280
     1
281
     1
  3
ADSK_XREC_LAYER_RECONCILED
360
369
  0
DICTIONARY
  5
36A
330
31A
100
AcDbDictionary
280
     1
281
     1
  3
ADSK_XREC_LAYER_RECONCILED
360
36B
  0
DICTIONARY
  5
36C
330
31B
100
AcDbDictionary
280
     1
281
     1
  3
ADSK_XREC_LAYER_RECONCILED
360
36D
  0
DICTIONARY
  5
36E
330
31C
100
AcDbDictionary
280
     1
281
     1
  3
ADSK_XREC_LAYER_RECONCILED
360
36F
  0
DICTIONARY
  5
370
330
31D
100
AcDbDictionary
280
     1
281
     1
  3
ADSK_XREC_LAYER_RECONCILED
360
371
  0
DICTIONARY
  5
372
330
31E
100
AcDbDictionary
280
     1
281
     1
  3
ADSK_XREC_LAYER_RECONCILED
360
373
  0
DICTIONARY
  5
374
330
31F
100
AcDbDictionary
280
     1
281
     1
  3
ADSK_XREC_LAYER_RECONCILED
360
375
  0
DICTIONARY
  5
376
330
320
100
AcDbDictionary
280
     1
281
     1
  3
ADSK_XREC_LAYER_RECONCILED
360
377
  0
XRECORD
  5
329
102
{ACAD_REACTORS
330
291
102
}
330
291
100
AcDbXrecord
280
     1
300
AMECH_PP
300
2013
300
PDSU_F_S
  0
DICTIONARY
  5
2E7
102
{ACAD_REACTORS
330
291
102
}
330
291
100
AcDbDictionary
281
     1
  0
DICTIONARY
  5
2EF
102
{ACAD_REACTORS
330
291
102
}
330
291
100
AcDbDictionary
281
     1
  3
Imperial24
350
2F0
  0
DICTIONARY
  5
292
102
{ACAD_REACTORS
330
291
102
}
330
291
100
AcDbDictionary
281
     1
  0
DICTIONARY
  5
2E6
102
{ACAD_REACTORS
330
291
102
}
330
291
100
AcDbDictionary
281
     1
  3
Layout1
350
2F4
  3
Model
350
2F8
  0
DICTIONARY
  5
295
102
{ACAD_REACTORS
330
291
102
}
330
291
100
AcDbDictionary
281
     1
  3
ByBlock
350
29E
  3
ByLayer
350
296
  3
Global
350
2A6
  0
DICTIONARY
  5
2EA
102
{ACAD_REACTORS
330
291
102
}
330
291
100
AcDbDictionary
281
     1
  3
Standard
350
2EB
  0
DICTIONARY
  5
2E3
102
{ACAD_REACTORS
330
291
102
}
330
291
100
AcDbDictionary
281
     1
  3
Standard
350
2E4
  0
DICTIONARY
  5
2E5
102
{ACAD_REACTORS
330
291
102
}
330
291
100
AcDbDictionary
281
     1
  0
ACDBDICTIONARYWDFLT
  5
293
102
{ACAD_REACTORS
330
291
102
}
330
291
100
AcDbDictionary
281
     1
  3
Normal
350
294
100
AcDbDictionaryWithDefault
340
294
  0
DICTIONARY
  5
2C7
102
{ACAD_REACTORS
330
291
102
}
330
291
100
AcDbDictionary
281
     1
  3
A0
350
2C8
  3
A1
350
2C9
  3
A2
350
2CA
  3
A3
350
2CB
  3
A4
350
2CC
  3
A5
350
2CD
  3
A6
350
2CE
  3
A7
350
2CF
  3
A8
350
2D0
  3
A9
350
2D1
  3
B0
350
2D2
  3
B1
350
2D3
  3
B2
350
2D4
  3
B3
350
2D5
  3
B4
350
2D6
  3
B5
350
2D7
  3
B6
350
2D8
  0
DICTIONARY
  5
2EC
102
{ACAD_REACTORS
330
291
102
}
330
291
100
AcDbDictionary
281
     1
  3
Imperial24
350
2EE
  0
DICTIONARY
  5
2E8
102
{ACAD_REACTORS
330
291
102
}
330
291
100
AcDbDictionary
281
     1
  3
Standard
350
2E9
  0
DICTIONARY
  5
2AE
102
{ACAD_REACTORS
330
291
102
}
330
291
100
AcDbDictionary
281
     1
  3
2dWireframe
350
2B4
  3
Basic
350
2B3
  3
Brighten
350
2BA
  3
ColorChange
350
2BE
  3
Conceptual
350
2B7
  3
Dim
350
2B9
  3
EdgeColorOff
350
2C6
  3
Facepattern
350
2BD
  3
Flat
350
2AF
  3
FlatWithEdges
350
2B0
  3
Gouraud
350
2B1
  3
GouraudWithEdges
350
2B2
  3
Hidden
350
2B6
  3
JitterOff
350
2C4
  3
Linepattern
350
2BC
  3
OverhangOff
350
2C5
  3
Realistic
350
2B8
  3
Shaded
350
2C3
  3
Shaded with edges
350
2C2
  3
Shades of Gray
350
2BF
  3
Sketchy
350
2C0
  3
Thicken
350
2BB
  3
Wireframe
350
2B5
  3
X-Ray
350
2C1
  0
XRECORD
  5
385
102
{ACAD_REACTORS
330
291
102
}
330
291
100
AcDbXrecord
280
     1
 90
        1
330
2E9
  0
DICTIONARY
  5
378
102
{ACAD_REACTORS
330
291
102
}
330
291
100
AcDbDictionary
281
     1
  3
CANNOSCALE
350
37D
  3
CMLEADERSTYLE
350
37A
  3
CTABLESTYLE
350
379
  3
CVIEWDETAILSTYLE
350
37B
  3
CVIEWSECTIONSTYLE
350
37C
  3
DIMASSOC
350
380
  3
INDEXCTL
350
37F
  3
SORTENTS
350
37E
  3
XCLIPFRAME
350
381
  0
XRECORD
  5
386
102
{ACAD_REACTORS
330
291
102
}
330
291
100
AcDbXrecord
280
     1
  1
DWGPROPS COOKIE
  2

  3

  4

  6

  7

  8
Micke
  9

300
=
301
=
302
=
303
=
304
=
305
=
306
=
307
=
308
=
309
=
 40
0.0000040277777778
 41
2456818.319609248
 42
2456818.319613206
  1

 90
        0
  0
XRECORD
  5
32D
102
{ACAD_REACTORS
330
32C
102
}
330
32C
100
AcDbXrecord
280
     1
290
     1
  0
XRECORD
  5
32F
102
{ACAD_REACTORS
330
32E
102
}
330
32E
100
AcDbXrecord
280
     1
290
     1
  0
XRECORD
  5
331
102
{ACAD_REACTORS
330
330
102
}
330
330
100
AcDbXrecord
280
     1
290
     1
  0
XRECORD
  5
333
102
{ACAD_REACTORS
330
332
102
}
330
332
100
AcDbXrecord
280
     1
290
     1
  0
XRECORD
  5
335
102
{ACAD_REACTORS
330
334
102
}
330
334
100
AcDbXrecord
280
     1
290
     1
  0
XRECORD
  5
337
102
{ACAD_REACTORS
330
336
102
}
330
336
100
AcDbXrecord
280
     1
290
     1
  0
XRECORD
  5
339
102
{ACAD_REACTORS
330
338
102
}
330
338
100
AcDbXrecord
280
     1
290
     1
  0
XRECORD
  5
33B
102
{ACAD_REACTORS
330
33A
102
}
330
33A
100
AcDbXrecord
280
     1
290
     1
  0
XRECORD
  5
33D
102
{ACAD_REACTORS
330
33C
102
}
330
33C
100
AcDbXrecord
280
     1
290
     1
  0
XRECORD
  5
33F
102
{ACAD_REACTORS
330
33E
102
}
330
33E
100
AcDbXrecord
280
     1
290
     1
  0
XRECORD
  5
341
102
{ACAD_REACTORS
330
340
102
}
330
340
100
AcDbXrecord
280
     1
290
     1
  0
XRECORD
  5
343
102
{ACAD_REACTORS
330
342
102
}
330
342
100
AcDbXrecord
280
     1
290
     1
  0
XRECORD
  5
345
102
{ACAD_REACTORS
330
344
102
}
330
344
100
AcDbXrecord
280
     1
290
     1
  0
XRECORD
  5
347
102
{ACAD_REACTORS
330
346
102
}
330
346
100
AcDbXrecord
280
     1
290
     1
  0
XRECORD
  5
349
102
{ACAD_REACTORS
330
348
102
}
330
348
100
AcDbXrecord
280
     1
290
     1
  0
XRECORD
  5
34B
102
{ACAD_REACTORS
330
34A
102
}
330
34A
100
AcDbXrecord
280
     1
290
     1
  0
XRECORD
  5
34D
102
{ACAD_REACTORS
330
34C
102
}
330
34C
100
AcDbXrecord
280
     1
290
     1
  0
XRECORD
  5
34F
102
{ACAD_REACTORS
330
34E
102
}
330
34E
100
AcDbXrecord
280
     1
290
     1
  0
XRECORD
  5
351
102
{ACAD_REACTORS
330
350
102
}
330
350
100
AcDbXrecord
280
     1
290
     1
  0
XRECORD
  5
353
102
{ACAD_REACTORS
330
352
102
}
330
352
100
AcDbXrecord
280
     1
290
     1
  0
XRECORD
  5
355
102
{ACAD_REACTORS
330
354
102
}
330
354
100
AcDbXrecord
280
     1
290
     1
  0
XRECORD
  5
357
102
{ACAD_REACTORS
330
356
102
}
330
356
100
AcDbXrecord
280
     1
290
     1
  0
XRECORD
  5
359
102
{ACAD_REACTORS
330
358
102
}
330
358
100
AcDbXrecord
280
     1
290
     1
  0
XRECORD
  5
35B
102
{ACAD_REACTORS
330
35A
102
}
330
35A
100
AcDbXrecord
280
     1
290
     1
  0
XRECORD
  5
35D
102
{ACAD_REACTORS
330
35C
102
}
330
35C
100
AcDbXrecord
280
     1
290
     1
  0
XRECORD
  5
35F
102
{ACAD_REACTORS
330
35E
102
}
330
35E
100
AcDbXrecord
280
     1
290
     1
  0
XRECORD
  5
361
102
{ACAD_REACTORS
330
360
102
}
330
360
100
AcDbXrecord
280
     1
290
     1
  0
XRECORD
  5
363
102
{ACAD_REACTORS
330
362
102
}
330
362
100
AcDbXrecord
280
     1
290
     1
  0
XRECORD
  5
365
102
{ACAD_REACTORS
330
364
102
}
330
364
100
AcDbXrecord
280
     1
290
     1
  0
XRECORD
  5
367
102
{ACAD_REACTORS
330
366
102
}
330
366
100
AcDbXrecord
280
     1
290
     1
  0
XRECORD
  5
369
102
{ACAD_REACTORS
330
368
102
}
330
368
100
AcDbXrecord
280
     1
290
     1
  0
XRECORD
  5
36B
102
{ACAD_REACTORS
330
36A
102
}
330
36A
100
AcDbXrecord
280
     1
290
     1
  0
XRECORD
  5
36D
102
{ACAD_REACTORS
330
36C
102
}
330
36C
100
AcDbXrecord
280
     1
290
     1
  0
XRECORD
  5
36F
102
{ACAD_REACTORS
330
36E
102
}
330
36E
100
AcDbXrecord
280
     1
290
     1
  0
XRECORD
  5
371
102
{ACAD_REACTORS
330
370
102
}
330
370
100
AcDbXrecord
280
     1
290
     1
  0
XRECORD
  5
373
102
{ACAD_REACTORS
330
372
102
}
330
372
100
AcDbXrecord
280
     1
290
     1
  0
XRECORD
  5
375
102
{ACAD_REACTORS
330
374
102
}
330
374
100
AcDbXrecord
280
     1
290
     1
  0
XRECORD
  5
377
102
{ACAD_REACTORS
330
376
102
}
330
376
100
AcDbXrecord
280
     1
290
     1
  0
ACDBDETAILVIEWSTYLE
  5
2F0
102
{ACAD_REACTORS
330
2EF
102
}
330
2EF
100
AcDbModelDocViewStyle
 70
     0
  3
Imperial24
290
     0
100
AcDbDetailViewStyle
 70
     0
 71
     0
 90
        3
 71
     1
340
2DA
 40
0.24
340
0
 40
0.24
300

 40
0.36
280
     3
 71
     2
340
2E1
 90
       25
 71
     3
340
2DA
 40
0.24
 90
        1
 40
0.75
 90
        1
300
%<\AcVar ViewType \f "%tc1">% %<\AcVar ViewDetailId>%\PSCALE %<\AcVar ViewScale \f "%sn">%
 71
     4
340
2E1
 90
       25
340
2E1
 90
       25
280
     0
  0
LAYOUT
  5
2F4
102
{ACAD_XDICTIONARY
360
3BC
102
}
102
{ACAD_REACTORS
330
2E6
102
}
330
2E6
100
AcDbPlotSettings
  1

  2
Brother DCP-9020CDW Printer
  4

  6

 40
0.0
 41
0.0
 42
0.0
 43
0.0
 44
0.0
 45
0.0
 46
0.0
 47
0.0
 48
0.0
 49
0.0
140
0.0
141
0.0
142
1.0
143
1.0
 70
   688
 72
     0
 73
     0
 74
     5
  7

 75
    16
147
1.0
148
0.0
149
0.0
100
AcDbLayout
  1
Layout1
 70
     1
 71
     1
 10
0.0
 20
0.0
 11
12.0
 21
9.0
 12
0.0
 22
0.0
 32
0.0
 14
1.000000000000000E+20
 24
1.000000000000000E+20
 34
1.000000000000000E+20
 15
-1.000000000000000E+20
 25
-1.000000000000000E+20
 35
-1.000000000000000E+20
146
0.0
 13
0.0
 23
0.0
 33
0.0
 16
1.0
 26
0.0
 36
0.0
 17
0.0
 27
1.0
 37
0.0
 76
     0
330
2F1
  0
LAYOUT
  5
2F8
102
{ACAD_XDICTIONARY
360
3BE
102
}
102
{ACAD_REACTORS
330
2E6
102
}
330
2E6
100
AcDbPlotSettings
  1

  2
Brother DCP-9020CDW Printer
  4

  6

 40
0.0
 41
0.0
 42
0.0
 43
0.0
 44
0.0
 45
0.0
 46
0.0
 47
0.0
 48
0.0
 49
0.0
140
0.0
141
0.0
142
1.0
143
1.0
 70
  1712
 72
     0
 73
     0
 74
     0
  7

 75
     0
147
1.0
148
0.0
149
0.0
100
AcDbLayout
  1
Model
 70
     1
 71
     0
 10
0.0
 20
0.0
 11
12.0
 21
9.0
 12
0.0
 22
0.0
 32
0.0
 14
0.0
 24
0.0
 34
0.0
 15
0.0
 25
0.0
 35
0.0
146
0.0
 13
0.0
 23
0.0
 33
0.0
 16
1.0
 26
0.0
 36
0.0
 17
0.0
 27
1.0
 37
0.0
 76
     0
330
2F5
331
324
  0
MATERIAL
  5
29E
102
{ACAD_XDICTIONARY
360
29F
102
}
102
{ACAD_REACTORS
330
295
102
}
330
295
100
AcDbMaterial
  1
ByBlock
 72
     0
 43
0.0208333333333333
 43
0.0
 43
0.0
 43
0.0
 43
0.0
 43
0.0208333333333333
 43
0.0
 43
0.0
 43
0.0
 43
0.0
 43
1.0
 43
0.0
 43
0.0
 43
0.0
 43
0.0
 43
1.0
 77
     0
 47
0.0208333333333333
 47
0.0
 47
0.0
 47
0.0
 47
0.0
 47
0.0208333333333333
 47
0.0
 47
0.0
 47
0.0
 47
0.0
 47
1.0
 47
0.0
 47
0.0
 47
0.0
 47
0.0
 47
1.0
171
     0
 49
0.0208333333333333
 49
0.0
 49
0.0
 49
0.0
 49
0.0
 49
0.0208333333333333
 49
0.0
 49
0.0
 49
0.0
 49
0.0
 49
1.0
 49
0.0
 49
0.0
 49
0.0
 49
0.0
 49
1.0
175
     0
142
0.0208333333333333
142
0.0
142
0.0
142
0.0
142
0.0
142
0.0208333333333333
142
0.0
142
0.0
142
0.0
142
0.0
142
1.0
142
0.0
142
0.0
142
0.0
142
0.0
142
1.0
179
     0
144
0.0208333333333333
144
0.0
144
0.0
144
0.0
144
0.0
144
0.0208333333333333
144
0.0
144
0.0
144
0.0
144
0.0
144
1.0
144
0.0
144
0.0
144
0.0
144
0.0
144
1.0
147
0.0208333333333333
147
0.0
147
0.0
147
0.0
147
0.0
147
0.0208333333333333
147
0.0
147
0.0
147
0.0
147
0.0
147
1.0
147
0.0
147
0.0
147
0.0
147
0.0
147
1.0
  0
MATERIAL
  5
296
102
{ACAD_XDICTIONARY
360
297
102
}
102
{ACAD_REACTORS
330
295
102
}
330
295
100
AcDbMaterial
  1
ByLayer
 72
     0
 43
0.0208333333333333
 43
0.0
 43
0.0
 43
0.0
 43
0.0
 43
0.0208333333333333
 43
0.0
 43
0.0
 43
0.0
 43
0.0
 43
1.0
 43
0.0
 43
0.0
 43
0.0
 43
0.0
 43
1.0
 77
     0
 47
0.0208333333333333
 47
0.0
 47
0.0
 47
0.0
 47
0.0
 47
0.0208333333333333
 47
0.0
 47
0.0
 47
0.0
 47
0.0
 47
1.0
 47
0.0
 47
0.0
 47
0.0
 47
0.0
 47
1.0
171
     0
 49
0.0208333333333333
 49
0.0
 49
0.0
 49
0.0
 49
0.0
 49
0.0208333333333333
 49
0.0
 49
0.0
 49
0.0
 49
0.0
 49
1.0
 49
0.0
 49
0.0
 49
0.0
 49
0.0
 49
1.0
175
     0
142
0.0208333333333333
142
0.0
142
0.0
142
0.0
142
0.0
142
0.0208333333333333
142
0.0
142
0.0
142
0.0
142
0.0
142
1.0
142
0.0
142
0.0
142
0.0
142
0.0
142
1.0
179
     0
144
0.0208333333333333
144
0.0
144
0.0
144
0.0
144
0.0
144
0.0208333333333333
144
0.0
144
0.0
144
0.0
144
0.0
144
1.0
144
0.0
144
0.0
144
0.0
144
0.0
144
1.0
147
0.0208333333333333
147
0.0
147
0.0
147
0.0
147
0.0
147
0.0208333333333333
147
0.0
147
0.0
147
0.0
147
0.0
147
1.0
147
0.0
147
0.0
147
0.0
147
0.0
147
1.0
  0
MATERIAL
  5
2A6
102
{ACAD_XDICTIONARY
360
2A7
102
}
102
{ACAD_REACTORS
330
295
102
}
330
295
100
AcDbMaterial
  1
Global
 72
     0
 43
0.0208333333333333
 43
0.0
 43
0.0
 43
0.0
 43
0.0
 43
0.0208333333333333
 43
0.0
 43
0.0
 43
0.0
 43
0.0
 43
1.0
 43
0.0
 43
0.0
 43
0.0
 43
0.0
 43
1.0
 77
     0
 47
0.0208333333333333
 47
0.0
 47
0.0
 47
0.0
 47
0.0
 47
0.0208333333333333
 47
0.0
 47
0.0
 47
0.0
 47
0.0
 47
1.0
 47
0.0
 47
0.0
 47
0.0
 47
0.0
 47
1.0
171
     0
 49
0.0208333333333333
 49
0.0
 49
0.0
 49
0.0
 49
0.0
 49
0.0208333333333333
 49
0.0
 49
0.0
 49
0.0
 49
0.0
 49
1.0
 49
0.0
 49
0.0
 49
0.0
 49
0.0
 49
1.0
175
     0
142
0.0208333333333333
142
0.0
142
0.0
142
0.0
142
0.0
142
0.0208333333333333
142
0.0
142
0.0
142
0.0
142
0.0
142
1.0
142
0.0
142
0.0
142
0.0
142
0.0
142
1.0
179
     0
144
0.0208333333333333
144
0.0
144
0.0
144
0.0
144
0.0
144
0.0208333333333333
144
0.0
144
0.0
144
0.0
144
0.0
144
1.0
144
0.0
144
0.0
144
0.0
144
0.0
144
1.0
147
0.0208333333333333
147
0.0
147
0.0
147
0.0
147
0.0
147
0.0208333333333333
147
0.0
147
0.0
147
0.0
147
0.0
147
1.0
147
0.0
147
0.0
147
0.0
147
0.0
147
1.0
  0
MLEADERSTYLE
  5
2EB
102
{ACAD_REACTORS
330
2EA
102
}
330
2EA
100
AcDbMLeaderStyle
170
     2
171
     1
172
     0
 90
        2
 40
0.0
 41
0.0
173
     1
 91
-1056964608
340
2DF
 92
       -2
290
     1
 42
0.09
291
     1
 43
0.36
  3
Standard
 44
0.18
300

342
2DA
174
     1
178
     6
175
     1
176
     0
 93
-1056964608
 45
0.18
292
     0
297
     0
 46
0.18
 94
-1056964608
 47
1.0
 49
1.0
140
1.0
293
     1
141
0.0
294
     1
177
     0
142
1.0
295
     0
296
     0
143
0.125
1001
ACAD_MLEADERVER
1070
     2
  0
MLINESTYLE
  5
2E4
102
{ACAD_REACTORS
330
2E3
102
}
330
2E3
100
AcDbMlineStyle
  2
STANDARD
 70
     0
  3

 62
   256
 51
90.0
 52
90.0
 71
     2
 49
0.5
 62
   256
  6
BYLAYER
 49
-0.5
 62
   256
  6
BYLAYER
  0
ACDBPLACEHOLDER
  5
294
102
{ACAD_REACTORS
330
293
102
}
330
293
  0
SCALE
  5
2C8
102
{ACAD_REACTORS
330
2C7
102
}
330
2C7
100
AcDbScale
 70
     0
300
1:1
140
1.0
141
1.0
290
     1
  0
SCALE
  5
2C9
102
{ACAD_REACTORS
330
2C7
102
}
330
2C7
100
AcDbScale
 70
     0
300
1/128" = 1'-0"
140
0.0078125
141
12.0
290
     0
  0
SCALE
  5
2CA
102
{ACAD_REACTORS
330
2C7
102
}
330
2C7
100
AcDbScale
 70
     0
300
1/64" = 1'-0"
140
0.015625
141
12.0
290
     0
  0
SCALE
  5
2CB
102
{ACAD_REACTORS
330
2C7
102
}
330
2C7
100
AcDbScale
 70
     0
300
1/32" = 1'-0"
140
0.03125
141
12.0
290
     0
  0
SCALE
  5
2CC
102
{ACAD_REACTORS
330
2C7
102
}
330
2C7
100
AcDbScale
 70
     0
300
1/16" = 1'-0"
140
0.0625
141
12.0
290
     0
  0
SCALE
  5
2CD
102
{ACAD_REACTORS
330
2C7
102
}
330
2C7
100
AcDbScale
 70
     0
300
3/32" = 1'-0"
140
0.09375
141
12.0
290
     0
  0
SCALE
  5
2CE
102
{ACAD_REACTORS
330
2C7
102
}
330
2C7
100
AcDbScale
 70
     0
300
1/8" = 1'-0"
140
0.125
141
12.0
290
     0
  0
SCALE
  5
2CF
102
{ACAD_REACTORS
330
2C7
102
}
330
2C7
100
AcDbScale
 70
     0
300
3/16" = 1'-0"
140
0.1875
141
12.0
290
     0
  0
SCALE
  5
2D0
102
{ACAD_REACTORS
330
2C7
102
}
330
2C7
100
AcDbScale
 70
     0
300
1/4" = 1'-0"
140
0.25
141
12.0
290
     0
  0
SCALE
  5
2D1
102
{ACAD_REACTORS
330
2C7
102
}
330
2C7
100
AcDbScale
 70
     0
300
3/8" = 1'-0"
140
0.375
141
12.0
290
     0
  0
SCALE
  5
2D2
102
{ACAD_REACTORS
330
2C7
102
}
330
2C7
100
AcDbScale
 70
     0
300
1/2" = 1'-0"
140
0.5
141
12.0
290
     0
  0
SCALE
  5
2D3
102
{ACAD_REACTORS
330
2C7
102
}
330
2C7
100
AcDbScale
 70
     0
300
3/4" = 1'-0"
140
0.75
141
12.0
290
     0
  0
SCALE
  5
2D4
102
{ACAD_REACTORS
330
2C7
102
}
330
2C7
100
AcDbScale
 70
     0
300
1" = 1'-0"
140
1.0
141
12.0
290
     0
  0
SCALE
  5
2D5
102
{ACAD_REACTORS
330
2C7
102
}
330
2C7
100
AcDbScale
 70
     0
300
1-1/2" = 1'-0"
140
1.5
141
12.0
290
     0
  0
SCALE
  5
2D6
102
{ACAD_REACTORS
330
2C7
102
}
330
2C7
100
AcDbScale
 70
     0
300
3" = 1'-0"
140
3.0
141
12.0
290
     0
  0
SCALE
  5
2D7
102
{ACAD_REACTORS
330
2C7
102
}
330
2C7
100
AcDbScale
 70
     0
300
6" = 1'-0"
140
6.0
141
12.0
290
     0
  0
SCALE
  5
2D8
102
{ACAD_REACTORS
330
2C7
102
}
330
2C7
100
AcDbScale
 70
     0
300
1'-0" = 1'-0"
140
12.0
141
12.0
290
     0
  0
ACDBSECTIONVIEWSTYLE
  5
2EE
102
{ACAD_REACTORS
330
2EC
102
}
330
2EC
100
AcDbModelDocViewStyle
 70
     0
  3
Imperial24
290
     0
100
AcDbSectionViewStyle
 70
     0
 71
     0
 90
       78
 71
     1
340
2DA
 40
0.24
340
0
340
0
 40
0.24
300
I, O, Q, S, X, Z
 40
0.48
 90
        3
 40
0.18
 90
        1
 71
     2
340
2ED
 90
       25
340
2E1
 90
       50
 40
0.24
 40
0.0
 40
0.24
 71
     3
340
2DA
 40
0.24
 90
        1
 40
0.75
 90
        1
300
%<\AcVar ViewType \f "%tc1">% %<\AcVar ViewSectionStartId>%-%<\AcVar ViewSectionEndId>%\PSCALE %<\AcVar ViewScale \f "%sn">%
 71
     4
300
ANSI31
 40
1.0
 90
        0
290
     0
290
     0
 90
        6
 40
0.0
 40
1.570796326794896
 40
0.2617993877991494
 40
1.308996938995747
 40
-0.2617993877991494
 40
1.832595714594046
  0
TABLESTYLE
  5
2E9
102
{ACAD_XDICTIONARY
360
383
102
}
102
{ACAD_REACTORS
330
2E8
102
}
330
2E8
100
AcDbTableStyle
  3
Standard
 70
     0
 71
     0
 40
0.06
 41
0.06
280
     0
281
     0
  7
STANDARD
140
0.18
170
     2
 62
     0
 63
     7
283
     0
274
    -2
284
     1
 64
     0
275
    -2
285
     1
 65
     0
276
    -2
286
     1
 66
     0
277
    -2
287
     1
 67
     0
278
    -2
288
     1
 68
     0
279
    -2
289
     1
 69
     0
  7
STANDARD
140
0.25
170
     5
 62
     0
 63
     7
283
     0
274
    -2
284
     1
 64
     0
275
    -2
285
     1
 65
     0
276
    -2
286
     1
 66
     0
277
    -2
287
     1
 67
     0
278
    -2
288
     1
 68
     0
279
    -2
289
     1
 69
     0
  7
STANDARD
140
0.18
170
     5
 62
     0
 63
     7
283
     0
274
    -2
284
     1
 64
     0
275
    -2
285
     1
 65
     0
276
    -2
286
     1
 66
     0
277
    -2
287
     1
 67
     0
278
    -2
288
     1
 68
     0
279
    -2
289
     1
 69
     0
  0
VISUALSTYLE
  5
2B4
102
{ACAD_XDICTIONARY
360
394
102
}
102
{ACAD_REACTORS
330
2AE
102
}
330
2AE
100
AcDbVisualStyle
  2
2dWireframe
 70
     4
 71
     0
 72
     2
 73
     0
 90
        0
 40
-0.6
 41
-30.0
 62
     5
 63
     7
 74
     1
 91
        4
 64
     7
 65
   257
 75
     1
175
     1
 42
1.0
 92
        0
 66
   257
 43
1.0
 76
     1
 77
     6
 78
     2
 67
     7
 79
     5
170
     0
171
     0
290
     0
174
     0
 93
        1
 44
0.0
173
     0
291
     0
 45
0.0
1001
ACAD
1000
AcDbSavedByObjectVersion
1070
     0
  0
VISUALSTYLE
  5
2B3
102
{ACAD_XDICTIONARY
360
392
102
}
102
{ACAD_REACTORS
330
2AE
102
}
330
2AE
100
AcDbVisualStyle
  2
Basic
 70
     7
 71
     1
 72
     0
 73
     1
 90
        0
 40
-0.6
 41
-30.0
 62
     5
 63
     7
 74
     0
 91
        4
 64
     7
 65
   257
 75
     1
175
     1
 42
1.0
 92
        8
 66
     7
 43
1.0
 76
     1
 77
     6
 78
     2
 67
     7
 79
     5
170
     0
171
     0
290
     0
174
     0
 93
        1
 44
0.0
173
     0
291
     1
 45
0.0
1001
ACAD
1000
AcDbSavedByObjectVersion
1070
     0
  0
VISUALSTYLE
  5
2BA
102
{ACAD_XDICTIONARY
360
3A0
102
}
102
{ACAD_REACTORS
330
2AE
102
}
330
2AE
100
AcDbVisualStyle
  2
Brighten
 70
    12
 71
     2
 72
     2
 73
     0
 90
        0
 40
-0.6
 41
-30.0
 62
     5
 63
     7
 74
     1
 91
        4
 64
     7
 65
   257
 75
     1
175
     1
 42
1.0
 92
        8
 66
     7
 43
1.0
 76
     1
 77
     6
 78
     2
 67
     7
 79
     5
170
     0
171
     0
290
     0
174
     0
 93
        1
 44
50.0
173
     0
291
     1
 45
0.0
1001
ACAD
1000
AcDbSavedByObjectVersion
1070
     0
  0
VISUALSTYLE
  5
2BE
102
{ACAD_XDICTIONARY
360
3A8
102
}
102
{ACAD_REACTORS
330
2AE
102
}
330
2AE
100
AcDbVisualStyle
  2
ColorChange
 70
    16
 71
     2
 72
     2
 73
     3
 90
        0
 40
-0.6
 41
-30.0
 62
     5
 63
     8
 74
     1
 91
        4
 64
     7
 65
   257
 75
     1
175
     1
 42
1.0
 92
        8
 66
     8
 43
1.0
 76
     1
 77
     6
 78
     2
 67
     7
 79
     5
170
     0
171
     0
290
     0
174
     0
 93
        1
 44
0.0
173
     0
291
     1
 45
0.0
1001
ACAD
1000
AcDbSavedByObjectVersion
1070
     0
  0
VISUALSTYLE
  5
2B7
102
{ACAD_XDICTIONARY
360
39A
102
}
102
{ACAD_REACTORS
330
2AE
102
}
330
2AE
100
AcDbVisualStyle
  2
Conceptual
 70
     9
 71
     3
 72
     2
 73
     0
 90
        0
 40
-0.6
 41
-30.0
 62
     5
 63
     7
 74
     2
 91
        2
 64
     7
 65
   257
 75
     1
175
     1
 42
179.0
 92
        8
 66
     7
 43
1.0
 76
     1
 77
     6
 78
     2
 67
     7
 79
     3
170
     0
171
     0
290
     0
174
     0
 93
        1
 44
0.0
173
     0
291
     0
 45
0.0
1001
ACAD
1000
AcDbSavedByObjectVersion
1070
     0
  0
VISUALSTYLE
  5
2B9
102
{ACAD_XDICTIONARY
360
39E
102
}
102
{ACAD_REACTORS
330
2AE
102
}
330
2AE
100
AcDbVisualStyle
  2
Dim
 70
    11
 71
     2
 72
     2
 73
     0
 90
        0
 40
-0.6
 41
-30.0
 62
     5
 63
     7
 74
     1
 91
        4
 64
     7
 65
   257
 75
     1
175
     1
 42
1.0
 92
        8
 66
     7
 43
1.0
 76
     1
 77
     6
 78
     2
 67
     7
 79
     5
170
     0
171
     0
290
     0
174
     0
 93
        1
 44
-50.0
173
     0
291
     1
 45
0.0
1001
ACAD
1000
AcDbSavedByObjectVersion
1070
     0
  0
VISUALSTYLE
  5
2C6
102
{ACAD_XDICTIONARY
360
3B8
102
}
102
{ACAD_REACTORS
330
2AE
102
}
330
2AE
100
AcDbVisualStyle
  2
EdgeColorOff
 70
    22
 71
     2
 72
     2
 73
     0
 90
        0
 40
-0.6
 41
-30.0
 62
     5
 63
     7
 74
     1
 91
        4
 64
     7
 65
   257
 75
     1
175
     1
 42
1.0
 92
        8
 66
     7
 43
1.0
 76
     1
 77
     6
 78
     2
 67
     7
 79
     5
170
     0
171
     0
290
     0
174
     0
 93
        1
 44
0.0
173
     0
291
     1
 45
0.0
1001
ACAD
1000
AcDbSavedByObjectVersion
1070
     0
  0
VISUALSTYLE
  5
2BD
102
{ACAD_XDICTIONARY
360
3A6
102
}
102
{ACAD_REACTORS
330
2AE
102
}
330
2AE
100
AcDbVisualStyle
  2
Facepattern
 70
    15
 71
     2
 72
     2
 73
     0
 90
        0
 40
-0.6
 41
-30.0
 62
     5
 63
     7
 74
     1
 91
        4
 64
     7
 65
   257
 75
     1
175
     1
 42
1.0
 92
        8
 66
     7
 43
1.0
 76
     1
 77
     6
 78
     2
 67
     7
 79
     5
170
     0
171
     0
290
     0
174
     0
 93
        1
 44
0.0
173
     0
291
     1
 45
0.0
1001
ACAD
1000
AcDbSavedByObjectVersion
1070
     0
  0
VISUALSTYLE
  5
2AF
102
{ACAD_XDICTIONARY
360
38A
102
}
102
{ACAD_REACTORS
330
2AE
102
}
330
2AE
100
AcDbVisualStyle
  2
Flat
 70
     0
 71
     2
 72
     1
 73
     1
 90
        2
 40
-0.6
 41
30.0
 62
     5
 63
     7
 74
     0
 91
        0
 64
     7
 65
   257
 75
     1
175
     1
 42
1.0
 92
        8
 66
     7
 43
1.0
 76
     1
 77
     6
 78
     2
 67
     7
 79
     5
170
     0
171
     0
290
     0
174
     0
 93
       13
 44
0.0
173
     0
291
     1
 45
0.0
1001
ACAD
1000
AcDbSavedByObjectVersion
1070
     0
  0
VISUALSTYLE
  5
2B0
102
{ACAD_XDICTIONARY
360
38C
102
}
102
{ACAD_REACTORS
330
2AE
102
}
330
2AE
100
AcDbVisualStyle
  2
FlatWithEdges
 70
     1
 71
     2
 72
     1
 73
     1
 90
        2
 40
-0.6
 41
30.0
 62
     5
 63
     7
 74
     1
 91
        0
 64
     7
 65
   257
 75
     1
175
     1
 42
1.0
 92
        0
 66
   257
 43
1.0
 76
     1
 77
     6
 78
     2
 67
     7
 79
     5
170
     0
171
     0
290
     0
174
     0
 93
       13
 44
0.0
173
     0
291
     1
 45
0.0
1001
ACAD
1000
AcDbSavedByObjectVersion
1070
     0
  0
VISUALSTYLE
  5
2B1
102
{ACAD_XDICTIONARY
360
38E
102
}
102
{ACAD_REACTORS
330
2AE
102
}
330
2AE
100
AcDbVisualStyle
  2
Gouraud
 70
     2
 71
     2
 72
     2
 73
     1
 90
        2
 40
-0.6
 41
30.0
 62
     5
 63
     7
 74
     0
 91
        0
 64
     7
 65
   257
 75
     1
175
     1
 42
1.0
 92
        0
 66
     7
 43
1.0
 76
     1
 77
     6
 78
     2
 67
     7
 79
     5
170
     0
171
     0
290
     0
174
     0
 93
       13
 44
0.0
173
     0
291
     1
 45
0.0
1001
ACAD
1000
AcDbSavedByObjectVersion
1070
     0
  0
VISUALSTYLE
  5
2B2
102
{ACAD_XDICTIONARY
360
390
102
}
102
{ACAD_REACTORS
330
2AE
102
}
330
2AE
100
AcDbVisualStyle
  2
GouraudWithEdges
 70
     3
 71
     2
 72
     2
 73
     1
 90
        2
 40
-0.6
 41
30.0
 62
     5
 63
     7
 74
     1
 91
        0
 64
     7
 65
   257
 75
     1
175
     1
 42
1.0
 92
        0
 66
   257
 43
1.0
 76
     1
 77
     6
 78
     2
 67
     7
 79
     5
170
     0
171
     0
290
     0
174
     0
 93
       13
 44
0.0
173
     0
291
     1
 45
0.0
1001
ACAD
1000
AcDbSavedByObjectVersion
1070
     0
  0
VISUALSTYLE
  5
2B6
102
{ACAD_XDICTIONARY
360
398
102
}
102
{ACAD_REACTORS
330
2AE
102
}
330
2AE
100
AcDbVisualStyle
  2
Hidden
 70
     6
 71
     1
 72
     2
 73
     2
 90
        0
 40
-0.6
 41
-30.0
 62
     5
 63
     7
 74
     2
 91
        2
 64
     7
 65
   257
 75
     2
175
     1
 42
40.0
 92
        0
 66
   257
 43
1.0
 76
     1
 77
     6
 78
     2
 67
     7
 79
     3
170
     0
171
     0
290
     0
174
     0
 93
        1
 44
0.0
173
     0
291
     0
 45
0.0
1001
ACAD
1000
AcDbSavedByObjectVersion
1070
     0
  0
VISUALSTYLE
  5
2C4
102
{ACAD_XDICTIONARY
360
3B4
102
}
102
{ACAD_REACTORS
330
2AE
102
}
330
2AE
100
AcDbVisualStyle
  2
JitterOff
 70
    20
 71
     2
 72
     2
 73
     0
 90
        0
 40
-0.6
 41
-30.0
 62
     5
 63
     7
 74
     1
 91
        4
 64
     7
 65
   257
 75
     1
175
     1
 42
1.0
 92
       10
 66
     7
 43
1.0
 76
     1
 77
     6
 78
     2
 67
     7
 79
     5
170
     0
171
     0
290
     0
174
     0
 93
        1
 44
0.0
173
     0
291
     1
 45
0.0
1001
ACAD
1000
AcDbSavedByObjectVersion
1070
     0
  0
VISUALSTYLE
  5
2BC
102
{ACAD_XDICTIONARY
360
3A4
102
}
102
{ACAD_REACTORS
330
2AE
102
}
330
2AE
100
AcDbVisualStyle
  2
Linepattern
 70
    14
 71
     2
 72
     2
 73
     0
 90
        0
 40
-0.6
 41
-30.0
 62
     5
 63
     7
 74
     1
 91
        4
 64
     7
 65
   257
 75
     7
175
     7
 42
1.0
 92
        8
 66
     7
 43
1.0
 76
     1
 77
     6
 78
     2
 67
     7
 79
     5
170
     0
171
     0
290
     0
174
     0
 93
        1
 44
0.0
173
     0
291
     1
 45
0.0
1001
ACAD
1000
AcDbSavedByObjectVersion
1070
     0
  0
VISUALSTYLE
  5
2C5
102
{ACAD_XDICTIONARY
360
3B6
102
}
102
{ACAD_REACTORS
330
2AE
102
}
330
2AE
100
AcDbVisualStyle
  2
OverhangOff
 70
    21
 71
     2
 72
     2
 73
     0
 90
        0
 40
-0.6
 41
-30.0
 62
     5
 63
     7
 74
     1
 91
        4
 64
     7
 65
   257
 75
     1
175
     1
 42
1.0
 92
        9
 66
     7
 43
1.0
 76
     1
 77
     6
 78
     2
 67
     7
 79
     5
170
     0
171
     0
290
     0
174
     0
 93
        1
 44
0.0
173
     0
291
     1
 45
0.0
1001
ACAD
1000
AcDbSavedByObjectVersion
1070
     0
  0
VISUALSTYLE
  5
2B8
102
{ACAD_XDICTIONARY
360
39C
102
}
102
{ACAD_REACTORS
330
2AE
102
}
330
2AE
100
AcDbVisualStyle
  2
Realistic
 70
     8
 71
     2
 72
     3
 73
     0
 90
        2
 40
-0.6
 41
30.0
 62
     5
 63
     7
 74
     0
 91
        0
 64
     7
 65
   257
 75
     1
175
     1
 42
1.0
 92
        8
 66
   257
 43
1.0
 76
     1
 77
     6
 78
     2
 67
     7
 79
     3
170
     0
171
     0
290
     0
174
     0
 93
       13
 44
0.0
173
     0
291
     0
 45
0.0
1001
ACAD
1000
AcDbSavedByObjectVersion
1070
     0
  0
VISUALSTYLE
  5
2C3
102
{ACAD_XDICTIONARY
360
3B2
102
}
102
{ACAD_REACTORS
330
2AE
102
}
330
2AE
100
AcDbVisualStyle
  2
Shaded
 70
    27
 71
     2
 72
     2
 73
     1
 90
        2
 40
-0.6
 41
30.0
 62
     5
 63
     7
 74
     0
 91
        4
 64
     7
 65
   257
 75
     1
175
     1
 42
1.0
 92
        8
 66
   257
 43
1.0
 76
     1
 77
     6
 78
     2
 67
     8
 79
     3
170
     0
171
     0
290
     0
174
     0
 93
        5
 44
0.0
173
     0
291
     0
 45
0.0
1001
ACAD
1000
AcDbSavedByObjectVersion
1070
     0
  0
VISUALSTYLE
  5
2C2
102
{ACAD_XDICTIONARY
360
3B0
102
}
102
{ACAD_REACTORS
330
2AE
102
}
330
2AE
100
AcDbVisualStyle
  2
Shaded with edges
 70
    26
 71
     2
 72
     2
 73
     1
 90
        2
 40
-0.6
 41
30.0
 62
     5
 63
     7
 74
     1
 91
       10
 64
     7
 65
   257
 75
     2
175
     1
 42
1.0
 92
        8
 66
   257
 43
1.0
 76
     1
 77
     6
 78
     2
 67
     7
 79
     3
170
     0
171
     0
290
     0
174
     0
 93
        5
 44
0.0
173
     0
291
     0
 45
0.0
1001
ACAD
1000
AcDbSavedByObjectVersion
1070
     0
  0
VISUALSTYLE
  5
2BF
102
{ACAD_XDICTIONARY
360
3AA
102
}
102
{ACAD_REACTORS
330
2AE
102
}
330
2AE
100
AcDbVisualStyle
  2
Shades of Gray
 70
    23
 71
     2
 72
     2
 73
     3
 90
        0
 40
-0.6
 41
-30.0
 62
     5
 63
     7
 74
     2
 91
        2
 64
     7
 65
     7
 75
     1
175
     1
 42
40.0
 92
        8
 66
     7
 43
1.0
 76
     1
 77
     6
 78
     2
 67
     7
 79
     3
170
     0
171
     0
290
     0
174
     0
 93
        1
 44
0.0
173
     0
291
     0
 45
0.0
1001
ACAD
1000
AcDbSavedByObjectVersion
1070
     0
  0
VISUALSTYLE
  5
2C0
102
{ACAD_XDICTIONARY
360
3AC
102
}
102
{ACAD_REACTORS
330
2AE
102
}
330
2AE
100
AcDbVisualStyle
  2
Sketchy
 70
    24
 71
     1
 72
     2
 73
     2
 90
        0
 40
-0.6
 41
-30.0
 62
     5
 63
     7
 74
     2
 91
        2
 64
     7
 65
     7
 75
     1
175
     1
 42
40.0
 92
       11
 66
     7
 43
1.0
 76
     1
 77
     6
 78
     2
 67
     7
 79
     6
170
     0
171
     0
290
     0
174
     0
 93
        1
 44
0.0
173
     0
291
     0
 45
0.0
1001
ACAD
1000
AcDbSavedByObjectVersion
1070
     0
  0
VISUALSTYLE
  5
2BB
102
{ACAD_XDICTIONARY
360
3A2
102
}
102
{ACAD_REACTORS
330
2AE
102
}
330
2AE
100
AcDbVisualStyle
  2
Thicken
 70
    13
 71
     2
 72
     2
 73
     0
 90
        0
 40
-0.6
 41
-30.0
 62
     5
 63
     7
 74
     1
 91
        4
 64
     7
 65
   257
 75
     1
175
     1
 42
1.0
 92
       12
 66
     7
 43
1.0
 76
     1
 77
     6
 78
     2
 67
     7
 79
     5
170
     0
171
     0
290
     0
174
     0
 93
        1
 44
0.0
173
     0
291
     1
 45
0.0
1001
ACAD
1000
AcDbSavedByObjectVersion
1070
     0
  0
VISUALSTYLE
  5
2B5
102
{ACAD_XDICTIONARY
360
396
102
}
102
{ACAD_REACTORS
330
2AE
102
}
330
2AE
100
AcDbVisualStyle
  2
Wireframe
 70
     5
 71
     0
 72
     2
 73
     0
 90
        0
 40
-0.6
 41
-30.0
 62
     5
 63
     7
 74
     1
 91
        4
 64
     7
 65
   257
 75
     1
175
     1
 42
1.0
 92
        0
 66
   257
 43
1.0
 76
     1
 77
     6
 78
     2
 67
     7
 79
     3
170
     0
171
     0
290
     0
174
     0
 93
        1
 44
0.0
173
     0
291
     0
 45
0.0
1001
ACAD
1000
AcDbSavedByObjectVersion
1070
     0
  0
VISUALSTYLE
  5
2C1
102
{ACAD_XDICTIONARY
360
3AE
102
}
102
{ACAD_REACTORS
330
2AE
102
}
330
2AE
100
AcDbVisualStyle
  2
X-Ray
 70
    25
 71
     2
 72
     2
 73
     1
 90
        1
 40
0.5
 41
-30.0
 62
     5
 63
     7
 74
     1
 91
        0
 64
     7
 65
   257
 75
     1
175
     1
 42
1.0
 92
        8
 66
     7
 43
1.0
 76
     1
 77
     6
 78
     2
 67
     7
 79
     3
170
     0
171
     0
290
     0
174
     0
 93
       13
 44
0.0
173
     0
291
     0
 45
0.0
1001
ACAD
1000
AcDbSavedByObjectVersion
1070
     0
  0
DICTIONARYVAR
  5
37D
102
{ACAD_REACTORS
330
378
102
}
330
378
100
DictionaryVariables
280
     0
  1
1:1
  0
DICTIONARYVAR
  5
37A
102
{ACAD_REACTORS
330
378
102
}
330
378
100
DictionaryVariables
280
     0
  1
STANDARD
  0
DICTIONARYVAR
  5
379
102
{ACAD_REACTORS
330
378
102
}
330
378
100
DictionaryVariables
280
     0
  1
STANDARD
  0
DICTIONARYVAR
  5
37B
102
{ACAD_REACTORS
330
378
102
}
330
378
100
DictionaryVariables
280
     0
  1
Imperial24
  0
DICTIONARYVAR
  5
37C
102
{ACAD_REACTORS
330
378
102
}
330
378
100
DictionaryVariables
280
     0
  1
Imperial24
  0
DICTIONARYVAR
  5
380
102
{ACAD_REACTORS
330
378
102
}
330
378
100
DictionaryVariables
280
     0
  1
1
  0
DICTIONARYVAR
  5
37F
102
{ACAD_REACTORS
330
378
102
}
330
378
100
DictionaryVariables
280
     0
  1
0
  0
DICTIONARYVAR
  5
37E
102
{ACAD_REACTORS
330
378
102
}
330
378
100
DictionaryVariables
280
     0
  1
127
  0
DICTIONARYVAR
  5
381
102
{ACAD_REACTORS
330
378
102
}
330
378
100
DictionaryVariables
280
     0
  1
2
  0
DICTIONARY
  5
3BC
330
2F4
100
AcDbDictionary
280
     1
281
     1
  3
ACAD_XREC_ROUNDTRIP
360
3BD
  0
DICTIONARY
  5
3BE
330
2F8
100
AcDbDictionary
280
     1
281
     1
  3
ACAD_XREC_ROUNDTRIP
360
3BF
  0
DICTIONARY
  5
29F
330
29E
100
AcDbDictionary
280
     1
281
     1
  3
ACAD_XREC_ROUNDTRIP
360
388
  3
BUMPTILE
360
2A1
  3
DIFFUSETILE
360
2A0
  3
OPACITYTILE
360
2A4
  3
REFLECTIONTILE
360
2A3
  3
REFRACTIONTILE
360
2A5
  3
SPECULARTILE
360
2A2
  0
DICTIONARY
  5
297
330
296
100
AcDbDictionary
280
     1
281
     1
  3
ACAD_XREC_ROUNDTRIP
360
387
  3
BUMPTILE
360
299
  3
DIFFUSETILE
360
298
  3
OPACITYTILE
360
29C
  3
REFLECTIONTILE
360
29B
  3
REFRACTIONTILE
360
29D
  3
SPECULARTILE
360
29A
  0
DICTIONARY
  5
2A7
330
2A6
100
AcDbDictionary
280
     1
281
     1
  3
ACAD_XREC_ROUNDTRIP
360
389
  3
BUMPTILE
360
2A9
  3
DIFFUSETILE
360
2A8
  3
OPACITYTILE
360
2AC
  3
REFLECTIONTILE
360
2AB
  3
REFRACTIONTILE
360
2AD
  3
SPECULARTILE
360
2AA
  0
DICTIONARY
  5
383
330
2E9
100
AcDbDictionary
280
     1
281
     1
  3
ACAD_ROUNDTRIP_2008_TABLESTYLE_CELLSTYLEMAP
360
384
  3
ACAD_XREC_ROUNDTRIP
360
3BA
  0
DICTIONARY
  5
394
330
2B4
100
AcDbDictionary
280
     1
281
     1
  3
ACAD_XREC_ROUNDTRIP
360
395
  0
DICTIONARY
  5
392
330
2B3
100
AcDbDictionary
280
     1
281
     1
  3
ACAD_XREC_ROUNDTRIP
360
393
  0
DICTIONARY
  5
3A0
330
2BA
100
AcDbDictionary
280
     1
281
     1
  3
ACAD_XREC_ROUNDTRIP
360
3A1
  0
DICTIONARY
  5
3A8
330
2BE
100
AcDbDictionary
280
     1
281
     1
  3
ACAD_XREC_ROUNDTRIP
360
3A9
  0
DICTIONARY
  5
39A
330
2B7
100
AcDbDictionary
280
     1
281
     1
  3
ACAD_XREC_ROUNDTRIP
360
39B
  0
DICTIONARY
  5
39E
330
2B9
100
AcDbDictionary
280
     1
281
     1
  3
ACAD_XREC_ROUNDTRIP
360
39F
  0
DICTIONARY
  5
3B8
330
2C6
100
AcDbDictionary
280
     1
281
     1
  3
ACAD_XREC_ROUNDTRIP
360
3B9
  0
DICTIONARY
  5
3A6
330
2BD
100
AcDbDictionary
280
     1
281
     1
  3
ACAD_XREC_ROUNDTRIP
360
3A7
  0
DICTIONARY
  5
38A
330
2AF
100
AcDbDictionary
280
     1
281
     1
  3
ACAD_XREC_ROUNDTRIP
360
38B
  0
DICTIONARY
  5
38C
330
2B0
100
AcDbDictionary
280
     1
281
     1
  3
ACAD_XREC_ROUNDTRIP
360
38D
  0
DICTIONARY
  5
38E
330
2B1
100
AcDbDictionary
280
     1
281
     1
  3
ACAD_XREC_ROUNDTRIP
360
38F
  0
DICTIONARY
  5
390
330
2B2
100
AcDbDictionary
280
     1
281
     1
  3
ACAD_XREC_ROUNDTRIP
360
391
  0
DICTIONARY
  5
398
330
2B6
100
AcDbDictionary
280
     1
281
     1
  3
ACAD_XREC_ROUNDTRIP
360
399
  0
DICTIONARY
  5
3B4
330
2C4
100
AcDbDictionary
280
     1
281
     1
  3
ACAD_XREC_ROUNDTRIP
360
3B5
  0
DICTIONARY
  5
3A4
330
2BC
100
AcDbDictionary
280
     1
281
     1
  3
ACAD_XREC_ROUNDTRIP
360
3A5
  0
DICTIONARY
  5
3B6
330
2C5
100
AcDbDictionary
280
     1
281
     1
  3
ACAD_XREC_ROUNDTRIP
360
3B7
  0
DICTIONARY
  5
39C
330
2B8
100
AcDbDictionary
280
     1
281
     1
  3
ACAD_XREC_ROUNDTRIP
360
39D
  0
DICTIONARY
  5
3B2
330
2C3
100
AcDbDictionary
280
     1
281
     1
  3
ACAD_XREC_ROUNDTRIP
360
3B3
  0
DICTIONARY
  5
3B0
330
2C2
100
AcDbDictionary
280
     1
281
     1
  3
ACAD_XREC_ROUNDTRIP
360
3B1
  0
DICTIONARY
  5
3AA
330
2BF
100
AcDbDictionary
280
     1
281
     1
  3
ACAD_XREC_ROUNDTRIP
360
3AB
  0
DICTIONARY
  5
3AC
330
2C0
100
AcDbDictionary
280
     1
281
     1
  3
ACAD_XREC_ROUNDTRIP
360
3AD
  0
DICTIONARY
  5
3A2
330
2BB
100
AcDbDictionary
280
     1
281
     1
  3
ACAD_XREC_ROUNDTRIP
360
3A3
  0
DICTIONARY
  5
396
330
2B5
100
AcDbDictionary
280
     1
281
     1
  3
ACAD_XREC_ROUNDTRIP
360
397
  0
DICTIONARY
  5
3AE
330
2C1
100
AcDbDictionary
280
     1
281
     1
  3
ACAD_XREC_ROUNDTRIP
360
3AF
  0
XRECORD
  5
3BD
102
{ACAD_REACTORS
330
3BC
102
}
330
3BC
100
AcDbXrecord
280
     1
102
SHADEPLOT
 70
     0
102
SHADEPLOTRESLEVEL
 70
     2
102
SHADEPLOTCUSTOMDPI
 70
   300
  0
XRECORD
  5
3BF
102
{ACAD_REACTORS
330
3BE
102
}
330
3BE
100
AcDbXrecord
280
     1
102
SHADEPLOT
 70
     0
102
SHADEPLOTRESLEVEL
 70
     2
102
SHADEPLOTCUSTOMDPI
 70
   300
  0
XRECORD
  5
388
102
{ACAD_REACTORS
330
29F
102
}
330
29F
100
AcDbXrecord
280
     1
102
MATERIAL
148
0.0
149
0.0
149
0.0
 93
        0
 94
      127
282
     0
 72
     0
 77
     0
171
     0
175
     0
179
     0
273
     0
  0
XRECORD
  5
2A1
102
{ACAD_REACTORS
330
29F
102
}
330
29F
100
AcDbXrecord
280
     1
270
     1
271
     1
  0
XRECORD
  5
2A0
102
{ACAD_REACTORS
330
29F
102
}
330
29F
100
AcDbXrecord
280
     1
270
     1
271
     1
  0
XRECORD
  5
2A4
102
{ACAD_REACTORS
330
29F
102
}
330
29F
100
AcDbXrecord
280
     1
270
     1
271
     1
  0
XRECORD
  5
2A3
102
{ACAD_REACTORS
330
29F
102
}
330
29F
100
AcDbXrecord
280
     1
270
     1
271
     1
  0
XRECORD
  5
2A5
102
{ACAD_REACTORS
330
29F
102
}
330
29F
100
AcDbXrecord
280
     1
270
     1
271
     1
  0
XRECORD
  5
2A2
102
{ACAD_REACTORS
330
29F
102
}
330
29F
100
AcDbXrecord
280
     1
270
     1
271
     1
  0
XRECORD
  5
387
102
{ACAD_REACTORS
330
297
102
}
330
297
100
AcDbXrecord
280
     1
102
MATERIAL
148
0.0
149
0.0
149
0.0
 93
        0
 94
      127
282
     0
 72
     0
 77
     0
171
     0
175
     0
179
     0
273
     0
  0
XRECORD
  5
299
102
{ACAD_REACTORS
330
297
102
}
330
297
100
AcDbXrecord
280
     1
270
     1
271
     1
  0
XRECORD
  5
298
102
{ACAD_REACTORS
330
297
102
}
330
297
100
AcDbXrecord
280
     1
270
     1
271
     1
  0
XRECORD
  5
29C
102
{ACAD_REACTORS
330
297
102
}
330
297
100
AcDbXrecord
280
     1
270
     1
271
     1
  0
XRECORD
  5
29B
102
{ACAD_REACTORS
330
297
102
}
330
297
100
AcDbXrecord
280
     1
270
     1
271
     1
  0
XRECORD
  5
29D
102
{ACAD_REACTORS
330
297
102
}
330
297
100
AcDbXrecord
280
     1
270
     1
271
     1
  0
XRECORD
  5
29A
102
{ACAD_REACTORS
330
297
102
}
330
297
100
AcDbXrecord
280
     1
270
     1
271
     1
  0
XRECORD
  5
389
102
{ACAD_REACTORS
330
2A7
102
}
330
2A7
100
AcDbXrecord
280
     1
102
MATERIAL
148
0.0
149
0.0
149
0.0
 93
        0
 94
      127
282
     0
 72
     0
 77
     0
171
     0
175
     0
179
     0
273
     0
  0
XRECORD
  5
2A9
102
{ACAD_REACTORS
330
2A7
102
}
330
2A7
100
AcDbXrecord
280
     1
270
     1
271
     1
  0
XRECORD
  5
2A8
102
{ACAD_REACTORS
330
2A7
102
}
330
2A7
100
AcDbXrecord
280
     1
270
     1
271
     1
  0
XRECORD
  5
2AC
102
{ACAD_REACTORS
330
2A7
102
}
330
2A7
100
AcDbXrecord
280
     1
270
     1
271
     1
  0
XRECORD
  5
2AB
102
{ACAD_REACTORS
330
2A7
102
}
330
2A7
100
AcDbXrecord
280
     1
270
     1
271
     1
  0
XRECORD
  5
2AD
102
{ACAD_REACTORS
330
2A7
102
}
330
2A7
100
AcDbXrecord
280
     1
270
     1
271
     1
  0
XRECORD
  5
2AA
102
{ACAD_REACTORS
330
2A7
102
}
330
2A7
100
AcDbXrecord
280
     1
270
     1
271
     1
  0
CELLSTYLEMAP
  5
384
102
{ACAD_REACTORS
330
383
102
}
330
383
100
AcDbCellStyleMap
 90
        3
300
CELLSTYLE
  1
TABLEFORMAT_BEGIN
 90
        5
170
     1
 91
        0
 92
    32768
 62
   257
 93
        1
300
CONTENTFORMAT
  1
CONTENTFORMAT_BEGIN
 90
        0
 91
        0
 92
      512
 93
        0
300

 40
0.0
140
1.0
 94
        5
 62
     0
340
2DA
144
0.25
309
CONTENTFORMAT_END
171
     0
 94
        0
309
TABLEFORMAT_END
  1
CELLSTYLE_BEGIN
 90
        1
 91
        1
300
_TITLE
309
CELLSTYLE_END
300
CELLSTYLE
  1
TABLEFORMAT_BEGIN
 90
        5
170
     1
 91
        0
 92
        0
 62
   257
 93
        1
300
CONTENTFORMAT
  1
CONTENTFORMAT_BEGIN
 90
        0
 91
        0
 92
      512
 93
        0
300

 40
0.0
140
1.0
 94
        5
 62
     0
340
2DA
144
0.18
309
CONTENTFORMAT_END
171
     0
 94
        0
309
TABLEFORMAT_END
  1
CELLSTYLE_BEGIN
 90
        2
 91
        1
300
_HEADER
309
CELLSTYLE_END
300
CELLSTYLE
  1
TABLEFORMAT_BEGIN
 90
        5
170
     1
 91
        0
 92
        0
 62
   257
 93
        1
300
CONTENTFORMAT
  1
CONTENTFORMAT_BEGIN
 90
        0
 91
        0
 92
      512
 93
        0
300

 40
0.0
140
1.0
 94
        2
 62
     0
340
2DA
144
0.18
309
CONTENTFORMAT_END
171
     0
 94
        0
309
TABLEFORMAT_END
  1
CELLSTYLE_BEGIN
 90
        3
 91
        2
300
_DATA
309
CELLSTYLE_END
  0
XRECORD
  5
3BA
102
{ACAD_REACTORS
330
383
102
}
330
383
100
AcDbXrecord
280
     1
102
ACAD_ROUNDTRIP_PRE2007_TABLESTYLE
 90
      512
 91
        0
  1

 92
      512
 93
        0
  2

 94
      512
 95
        0
  3

  0
XRECORD
  5
395
102
{ACAD_REACTORS
330
394
102
}
330
394
100
AcDbXrecord
280
     1
102
RTVSPost2010Prop28
280
     1
102
RTVSPost2010PropOp28
 70
     1
102
RTVSPost2010Prop29
280
     1
102
RTVSPost2010PropOp29
 70
     1
102
RTVSPost2010Prop30
280
     0
102
RTVSPost2010PropOp30
 70
     1
102
RTVSPost2010Prop31
280
     0
102
RTVSPost2010PropOp31
 70
     1
102
RTVSPost2010Prop32
280
     0
102
RTVSPost2010PropOp32
 70
     1
102
RTVSPost2010Prop33
280
     0
102
RTVSPost2010PropOp33
 70
     1
102
RTVSPost2010Prop34
280
     0
102
RTVSPost2010PropOp34
 70
     1
102
RTVSPost2010Prop35
280
     0
102
RTVSPost2010PropOp35
 70
     1
102
RTVSPost2010Prop36
280
     0
102
RTVSPost2010PropOp36
 70
     1
102
RTVSPost2010Prop37
 90
       50
102
RTVSPost2010PropOp37
 70
     1
102
RTVSPost2010Prop38
140
0.0
102
RTVSPost2010PropOp38
 70
     1
102
RTVSPost2010Prop39
140
1.0
102
RTVSPost2010PropOp39
 70
     1
102
RTVSPost2010Prop40
 90
        0
102
RTVSPost2010PropOp40
 70
     1
102
RTVSPost2010Prop41ColorIndex
 90
       18
102
RTVSPost2010Prop41ColorRGB
 90
        0
102
RTVSPost2010PropOp41
 70
     1
102
RTVSPost2010Prop42
 90
       50
102
RTVSPost2010PropOp42
 70
     1
102
RTVSPost2010Prop43
 90
        3
102
RTVSPost2010PropOp43
 70
     1
102
RTVSPost2010Prop44ColorIndex
 90
        5
102
RTVSPost2010Prop44ColorRGB
 90
      255
102
RTVSPost2010PropOp44
 70
     1
102
RTVSPost2010Prop45
280
     0
102
RTVSPost2010PropOp45
 70
     1
102
RTVSPost2010Prop46
 90
       50
102
RTVSPost2010PropOp46
 70
     1
102
RTVSPost2010Prop47
 90
       50
102
RTVSPost2010PropOp47
 70
     1
102
RTVSPost2010Prop48
 90
       50
102
RTVSPost2010PropOp48
 70
     1
102
RTVSPost2010Prop49
280
     0
102
RTVSPost2010PropOp49
 70
     1
102
RTVSPost2010Prop50
 90
       50
102
RTVSPost2010PropOp50
 70
     1
102
RTVSPost2010Prop51ColorIndex
 90
      256
102
RTVSPost2010Prop51ColorRGB
 90
-16777216
102
RTVSPost2010PropOp51
 70
     0
102
RTVSPost2010Prop52
140
1.0
102
RTVSPost2010PropOp52
 70
     0
102
RTVSPost2010Prop53
 90
        2
102
RTVSPost2010PropOp53
 70
     1
102
RTVSPost2010Prop54
  1
strokes_ogs.tif
102
RTVSPost2010PropOp54
 70
     1
102
RTVSPost2010Prop55
280
     0
102
RTVSPost2010PropOp55
 70
     1
102
RTVSPost2010Prop56
140
1.0
102
RTVSPost2010PropOp56
 70
     1
102
RTVSPost2010Prop57
140
1.0
102
RTVSPost2010PropOp57
 70
     1
102
RTVSPropertyOp0
 70
     1
102
RTVSPropertyOp1
 70
     1
102
RTVSPropertyOp2
 70
     1
102
RTVSPropertyOp3
 70
     1
102
RTVSPropertyOp4
 70
     1
102
RTVSPropertyOp5
 70
     1
102
RTVSPropertyOp6
 70
     1
102
RTVSPropertyOp7
 70
     1
102
RTVSPropertyOp8
 70
     1
102
RTVSPropertyOp9
 70
     1
102
RTVSPropertyOp10
 70
     1
102
RTVSPropertyOp11
 70
     1
102
RTVSPropertyOp12
 70
     1
102
RTVSPropertyOp13
 70
     1
102
RTVSPropertyOp14
 70
     1
102
RTVSPropertyOp15
 70
     1
102
RTVSPropertyOp16
 70
     1
102
RTVSPropertyOp17
 70
     1
102
RTVSPropertyOp18
 70
     1
102
RTVSPropertyOp19
 70
     1
102
RTVSPropertyOp20
 70
     1
102
RTVSPropertyOp21
 70
     1
102
RTVSPropertyOp22
 70
     1
102
RTVSPropertyOp23
 70
     1
102
RTVSPropertyOp24
 70
     1
102
RTVSPropertyOp25
 70
     1
102
RTVSPropertyOp26
 70
     1
102
RTVSPropertyOp27
 70
     1
102
RTVSPropertyOp28
 70
     1
102
RTVSPropertyOp29
 70
     1
102
RTVSPropertyOp30
 70
     1
102
RTVSPropertyOp31
 70
     1
102
RTVSPropertyOp32
 70
     1
102
RTVSPropertyOp33
 70
     1
102
RTVSPropertyOp34
 70
     1
102
RTVSPropertyOp35
 70
     1
102
RTVSPropertyOp36
 70
     1
102
RTVSPropertyOp37
 70
     1
102
RTVSPropertyOp38
 70
     1
102
RTVSPropertyOp39
 70
     1
102
RTVSPropertyOp40
 70
     1
102
RTVSPropertyOp41
 70
     1
102
RTVSPropertyOp42
 70
     1
102
RTVSPropertyOp43
 70
     1
102
RTVSPropertyOp44
 70
     1
102
RTVSPropertyOp45
 70
     1
102
RTVSPropertyOp46
 70
     1
102
RTVSPropertyOp47
 70
     1
102
RTVSPropertyOp48
 70
     1
102
RTVSPropertyOp49
 70
     1
102
RTVSPropertyOp50
 70
     1
102
RTVSPropertyOp51
 70
     0
102
RTVSPropertyOp52
 70
     0
102
RTVSPropertyOp53
 70
     1
102
RTVSPropertyOp54
 70
     1
102
RTVSPropertyOp55
 70
     1
102
RTVSPropertyOp56
 70
     1
102
RTVSPropertyOp57
 70
     1
102
RTVSPropertyOp58
 70
     1
102
RTVSPropertyOp59
 70
     1
102
RTVSPropertyOp60
 70
     1
102
RTVSPropertyOp61
 70
     1
102
RTVSPropertyOp62
 70
     1
  0
XRECORD
  5
393
102
{ACAD_REACTORS
330
392
102
}
330
392
100
AcDbXrecord
280
     1
102
RTVSPost2010Prop28
280
     0
102
RTVSPost2010PropOp28
 70
     1
102
RTVSPost2010Prop29
280
     1
102
RTVSPost2010PropOp29
 70
     1
102
RTVSPost2010Prop30
280
     1
102
RTVSPost2010PropOp30
 70
     1
102
RTVSPost2010Prop31
280
     0
102
RTVSPost2010PropOp31
 70
     1
102
RTVSPost2010Prop32
280
     0
102
RTVSPost2010PropOp32
 70
     1
102
RTVSPost2010Prop33
280
     0
102
RTVSPost2010PropOp33
 70
     1
102
RTVSPost2010Prop34
280
     0
102
RTVSPost2010PropOp34
 70
     1
102
RTVSPost2010Prop35
280
     0
102
RTVSPost2010PropOp35
 70
     1
102
RTVSPost2010Prop36
280
     0
102
RTVSPost2010PropOp36
 70
     1
102
RTVSPost2010Prop37
 90
       50
102
RTVSPost2010PropOp37
 70
     1
102
RTVSPost2010Prop38
140
0.0
102
RTVSPost2010PropOp38
 70
     1
102
RTVSPost2010Prop39
140
1.0
102
RTVSPost2010PropOp39
 70
     1
102
RTVSPost2010Prop40
 90
        0
102
RTVSPost2010PropOp40
 70
     1
102
RTVSPost2010Prop41ColorIndex
 90
       18
102
RTVSPost2010Prop41ColorRGB
 90
        0
102
RTVSPost2010PropOp41
 70
     1
102
RTVSPost2010Prop42
 90
       50
102
RTVSPost2010PropOp42
 70
     1
102
RTVSPost2010Prop43
 90
        3
102
RTVSPost2010PropOp43
 70
     1
102
RTVSPost2010Prop44ColorIndex
 90
        5
102
RTVSPost2010Prop44ColorRGB
 90
      255
102
RTVSPost2010PropOp44
 70
     1
102
RTVSPost2010Prop45
280
     0
102
RTVSPost2010PropOp45
 70
     1
102
RTVSPost2010Prop46
 90
       50
102
RTVSPost2010PropOp46
 70
     1
102
RTVSPost2010Prop47
 90
       50
102
RTVSPost2010PropOp47
 70
     1
102
RTVSPost2010Prop48
 90
       50
102
RTVSPost2010PropOp48
 70
     1
102
RTVSPost2010Prop49
280
     0
102
RTVSPost2010PropOp49
 70
     1
102
RTVSPost2010Prop50
 90
       50
102
RTVSPost2010PropOp50
 70
     1
102
RTVSPost2010Prop51ColorIndex
 90
      256
102
RTVSPost2010Prop51ColorRGB
 90
-16777216
102
RTVSPost2010PropOp51
 70
     0
102
RTVSPost2010Prop52
140
1.0
102
RTVSPost2010PropOp52
 70
     0
102
RTVSPost2010Prop53
 90
        2
102
RTVSPost2010PropOp53
 70
     1
102
RTVSPost2010Prop54
  1
strokes_ogs.tif
102
RTVSPost2010PropOp54
 70
     1
102
RTVSPost2010Prop55
280
     0
102
RTVSPost2010PropOp55
 70
     1
102
RTVSPost2010Prop56
140
1.0
102
RTVSPost2010PropOp56
 70
     1
102
RTVSPost2010Prop57
140
1.0
102
RTVSPost2010PropOp57
 70
     1
102
RTVSPropertyOp0
 70
     1
102
RTVSPropertyOp1
 70
     1
102
RTVSPropertyOp2
 70
     1
102
RTVSPropertyOp3
 70
     1
102
RTVSPropertyOp4
 70
     1
102
RTVSPropertyOp5
 70
     1
102
RTVSPropertyOp6
 70
     1
102
RTVSPropertyOp7
 70
     1
102
RTVSPropertyOp8
 70
     1
102
RTVSPropertyOp9
 70
     1
102
RTVSPropertyOp10
 70
     1
102
RTVSPropertyOp11
 70
     1
102
RTVSPropertyOp12
 70
     1
102
RTVSPropertyOp13
 70
     1
102
RTVSPropertyOp14
 70
     1
102
RTVSPropertyOp15
 70
     1
102
RTVSPropertyOp16
 70
     1
102
RTVSPropertyOp17
 70
     1
102
RTVSPropertyOp18
 70
     1
102
RTVSPropertyOp19
 70
     1
102
RTVSPropertyOp20
 70
     1
102
RTVSPropertyOp21
 70
     1
102
RTVSPropertyOp22
 70
     1
102
RTVSPropertyOp23
 70
     1
102
RTVSPropertyOp24
 70
     1
102
RTVSPropertyOp25
 70
     1
102
RTVSPropertyOp26
 70
     1
102
RTVSPropertyOp27
 70
     1
102
RTVSPropertyOp28
 70
     1
102
RTVSPropertyOp29
 70
     1
102
RTVSPropertyOp30
 70
     1
102
RTVSPropertyOp31
 70
     1
102
RTVSPropertyOp32
 70
     1
102
RTVSPropertyOp33
 70
     1
102
RTVSPropertyOp34
 70
     1
102
RTVSPropertyOp35
 70
     1
102
RTVSPropertyOp36
 70
     1
102
RTVSPropertyOp37
 70
     1
102
RTVSPropertyOp38
 70
     1
102
RTVSPropertyOp39
 70
     1
102
RTVSPropertyOp40
 70
     1
102
RTVSPropertyOp41
 70
     1
102
RTVSPropertyOp42
 70
     1
102
RTVSPropertyOp43
 70
     1
102
RTVSPropertyOp44
 70
     1
102
RTVSPropertyOp45
 70
     1
102
RTVSPropertyOp46
 70
     1
102
RTVSPropertyOp47
 70
     1
102
RTVSPropertyOp48
 70
     1
102
RTVSPropertyOp49
 70
     1
102
RTVSPropertyOp50
 70
     1
102
RTVSPropertyOp51
 70
     0
102
RTVSPropertyOp52
 70
     0
102
RTVSPropertyOp53
 70
     1
102
RTVSPropertyOp54
 70
     1
102
RTVSPropertyOp55
 70
     1
102
RTVSPropertyOp56
 70
     1
102
RTVSPropertyOp57
 70
     1
102
RTVSPropertyOp58
 70
     1
102
RTVSPropertyOp59
 70
     1
102
RTVSPropertyOp60
 70
     1
102
RTVSPropertyOp61
 70
     1
102
RTVSPropertyOp62
 70
     1
  0
XRECORD
  5
3A1
102
{ACAD_REACTORS
330
3A0
102
}
330
3A0
100
AcDbXrecord
280
     1
102
RTVSPost2010Prop28
280
     0
102
RTVSPost2010PropOp28
 70
     1
102
RTVSPost2010Prop29
280
     1
102
RTVSPost2010PropOp29
 70
     1
102
RTVSPost2010Prop30
280
     1
102
RTVSPost2010PropOp30
 70
     1
102
RTVSPost2010Prop31
280
     0
102
RTVSPost2010PropOp31
 70
     1
102
RTVSPost2010Prop32
280
     0
102
RTVSPost2010PropOp32
 70
     1
102
RTVSPost2010Prop33
280
     0
102
RTVSPost2010PropOp33
 70
     1
102
RTVSPost2010Prop34
280
     0
102
RTVSPost2010PropOp34
 70
     1
102
RTVSPost2010Prop35
280
     0
102
RTVSPost2010PropOp35
 70
     1
102
RTVSPost2010Prop36
280
     0
102
RTVSPost2010PropOp36
 70
     1
102
RTVSPost2010Prop37
 90
       50
102
RTVSPost2010PropOp37
 70
     1
102
RTVSPost2010Prop38
140
0.0
102
RTVSPost2010PropOp38
 70
     1
102
RTVSPost2010Prop39
140
1.0
102
RTVSPost2010PropOp39
 70
     1
102
RTVSPost2010Prop40
 90
        0
102
RTVSPost2010PropOp40
 70
     1
102
RTVSPost2010Prop41ColorIndex
 90
       18
102
RTVSPost2010Prop41ColorRGB
 90
        0
102
RTVSPost2010PropOp41
 70
     1
102
RTVSPost2010Prop42
 90
       50
102
RTVSPost2010PropOp42
 70
     1
102
RTVSPost2010Prop43
 90
        3
102
RTVSPost2010PropOp43
 70
     1
102
RTVSPost2010Prop44ColorIndex
 90
        5
102
RTVSPost2010Prop44ColorRGB
 90
      255
102
RTVSPost2010PropOp44
 70
     1
102
RTVSPost2010Prop45
280
     0
102
RTVSPost2010PropOp45
 70
     1
102
RTVSPost2010Prop46
 90
       50
102
RTVSPost2010PropOp46
 70
     1
102
RTVSPost2010Prop47
 90
       50
102
RTVSPost2010PropOp47
 70
     1
102
RTVSPost2010Prop48
 90
       50
102
RTVSPost2010PropOp48
 70
     1
102
RTVSPost2010Prop49
280
     0
102
RTVSPost2010PropOp49
 70
     1
102
RTVSPost2010Prop50
 90
       50
102
RTVSPost2010PropOp50
 70
     1
102
RTVSPost2010Prop51ColorIndex
 90
      256
102
RTVSPost2010Prop51ColorRGB
 90
-16777216
102
RTVSPost2010PropOp51
 70
     0
102
RTVSPost2010Prop52
140
1.0
102
RTVSPost2010PropOp52
 70
     0
102
RTVSPost2010Prop53
 90
        2
102
RTVSPost2010PropOp53
 70
     1
102
RTVSPost2010Prop54
  1
strokes_ogs.tif
102
RTVSPost2010PropOp54
 70
     1
102
RTVSPost2010Prop55
280
     0
102
RTVSPost2010PropOp55
 70
     1
102
RTVSPost2010Prop56
140
1.0
102
RTVSPost2010PropOp56
 70
     1
102
RTVSPost2010Prop57
140
1.0
102
RTVSPost2010PropOp57
 70
     1
102
RTVSPropertyOp0
 70
     1
102
RTVSPropertyOp1
 70
     1
102
RTVSPropertyOp2
 70
     1
102
RTVSPropertyOp3
 70
     1
102
RTVSPropertyOp4
 70
     1
102
RTVSPropertyOp5
 70
     1
102
RTVSPropertyOp6
 70
     1
102
RTVSPropertyOp7
 70
     1
102
RTVSPropertyOp8
 70
     1
102
RTVSPropertyOp9
 70
     1
102
RTVSPropertyOp10
 70
     1
102
RTVSPropertyOp11
 70
     1
102
RTVSPropertyOp12
 70
     1
102
RTVSPropertyOp13
 70
     1
102
RTVSPropertyOp14
 70
     1
102
RTVSPropertyOp15
 70
     1
102
RTVSPropertyOp16
 70
     1
102
RTVSPropertyOp17
 70
     1
102
RTVSPropertyOp18
 70
     1
102
RTVSPropertyOp19
 70
     1
102
RTVSPropertyOp20
 70
     1
102
RTVSPropertyOp21
 70
     1
102
RTVSPropertyOp22
 70
     1
102
RTVSPropertyOp23
 70
     1
102
RTVSPropertyOp24
 70
     1
102
RTVSPropertyOp25
 70
     1
102
RTVSPropertyOp26
 70
     1
102
RTVSPropertyOp27
 70
     1
102
RTVSPropertyOp28
 70
     1
102
RTVSPropertyOp29
 70
     1
102
RTVSPropertyOp30
 70
     1
102
RTVSPropertyOp31
 70
     1
102
RTVSPropertyOp32
 70
     1
102
RTVSPropertyOp33
 70
     1
102
RTVSPropertyOp34
 70
     1
102
RTVSPropertyOp35
 70
     1
102
RTVSPropertyOp36
 70
     1
102
RTVSPropertyOp37
 70
     1
102
RTVSPropertyOp38
 70
     1
102
RTVSPropertyOp39
 70
     1
102
RTVSPropertyOp40
 70
     1
102
RTVSPropertyOp41
 70
     1
102
RTVSPropertyOp42
 70
     1
102
RTVSPropertyOp43
 70
     1
102
RTVSPropertyOp44
 70
     1
102
RTVSPropertyOp45
 70
     1
102
RTVSPropertyOp46
 70
     1
102
RTVSPropertyOp47
 70
     1
102
RTVSPropertyOp48
 70
     1
102
RTVSPropertyOp49
 70
     1
102
RTVSPropertyOp50
 70
     1
102
RTVSPropertyOp51
 70
     0
102
RTVSPropertyOp52
 70
     0
102
RTVSPropertyOp53
 70
     1
102
RTVSPropertyOp54
 70
     1
102
RTVSPropertyOp55
 70
     1
102
RTVSPropertyOp56
 70
     1
102
RTVSPropertyOp57
 70
     1
102
RTVSPropertyOp58
 70
     1
102
RTVSPropertyOp59
 70
     1
102
RTVSPropertyOp60
 70
     1
102
RTVSPropertyOp61
 70
     1
102
RTVSPropertyOp62
 70
     1
  0
XRECORD
  5
3A9
102
{ACAD_REACTORS
330
3A8
102
}
330
3A8
100
AcDbXrecord
280
     1
102
RTVSPost2010Prop28
280
     0
102
RTVSPost2010PropOp28
 70
     1
102
RTVSPost2010Prop29
280
     1
102
RTVSPost2010PropOp29
 70
     1
102
RTVSPost2010Prop30
280
     1
102
RTVSPost2010PropOp30
 70
     1
102
RTVSPost2010Prop31
280
     0
102
RTVSPost2010PropOp31
 70
     1
102
RTVSPost2010Prop32
280
     0
102
RTVSPost2010PropOp32
 70
     1
102
RTVSPost2010Prop33
280
     0
102
RTVSPost2010PropOp33
 70
     1
102
RTVSPost2010Prop34
280
     0
102
RTVSPost2010PropOp34
 70
     1
102
RTVSPost2010Prop35
280
     0
102
RTVSPost2010PropOp35
 70
     1
102
RTVSPost2010Prop36
280
     0
102
RTVSPost2010PropOp36
 70
     1
102
RTVSPost2010Prop37
 90
       50
102
RTVSPost2010PropOp37
 70
     1
102
RTVSPost2010Prop38
140
0.0
102
RTVSPost2010PropOp38
 70
     1
102
RTVSPost2010Prop39
140
1.0
102
RTVSPost2010PropOp39
 70
     1
102
RTVSPost2010Prop40
 90
        0
102
RTVSPost2010PropOp40
 70
     1
102
RTVSPost2010Prop41ColorIndex
 90
       18
102
RTVSPost2010Prop41ColorRGB
 90
        0
102
RTVSPost2010PropOp41
 70
     1
102
RTVSPost2010Prop42
 90
       50
102
RTVSPost2010PropOp42
 70
     1
102
RTVSPost2010Prop43
 90
        3
102
RTVSPost2010PropOp43
 70
     1
102
RTVSPost2010Prop44ColorIndex
 90
        5
102
RTVSPost2010Prop44ColorRGB
 90
      255
102
RTVSPost2010PropOp44
 70
     1
102
RTVSPost2010Prop45
280
     0
102
RTVSPost2010PropOp45
 70
     1
102
RTVSPost2010Prop46
 90
       50
102
RTVSPost2010PropOp46
 70
     1
102
RTVSPost2010Prop47
 90
       50
102
RTVSPost2010PropOp47
 70
     1
102
RTVSPost2010Prop48
 90
       50
102
RTVSPost2010PropOp48
 70
     1
102
RTVSPost2010Prop49
280
     0
102
RTVSPost2010PropOp49
 70
     1
102
RTVSPost2010Prop50
 90
       50
102
RTVSPost2010PropOp50
 70
     1
102
RTVSPost2010Prop51ColorIndex
 90
      256
102
RTVSPost2010Prop51ColorRGB
 90
-16777216
102
RTVSPost2010PropOp51
 70
     0
102
RTVSPost2010Prop52
140
1.0
102
RTVSPost2010PropOp52
 70
     0
102
RTVSPost2010Prop53
 90
        2
102
RTVSPost2010PropOp53
 70
     1
102
RTVSPost2010Prop54
  1
strokes_ogs.tif
102
RTVSPost2010PropOp54
 70
     1
102
RTVSPost2010Prop55
280
     0
102
RTVSPost2010PropOp55
 70
     1
102
RTVSPost2010Prop56
140
1.0
102
RTVSPost2010PropOp56
 70
     1
102
RTVSPost2010Prop57
140
1.0
102
RTVSPost2010PropOp57
 70
     1
102
RTVSPropertyOp0
 70
     1
102
RTVSPropertyOp1
 70
     1
102
RTVSPropertyOp2
 70
     1
102
RTVSPropertyOp3
 70
     1
102
RTVSPropertyOp4
 70
     1
102
RTVSPropertyOp5
 70
     1
102
RTVSPropertyOp6
 70
     1
102
RTVSPropertyOp7
 70
     1
102
RTVSPropertyOp8
 70
     1
102
RTVSPropertyOp9
 70
     1
102
RTVSPropertyOp10
 70
     1
102
RTVSPropertyOp11
 70
     1
102
RTVSPropertyOp12
 70
     1
102
RTVSPropertyOp13
 70
     1
102
RTVSPropertyOp14
 70
     1
102
RTVSPropertyOp15
 70
     1
102
RTVSPropertyOp16
 70
     1
102
RTVSPropertyOp17
 70
     1
102
RTVSPropertyOp18
 70
     1
102
RTVSPropertyOp19
 70
     1
102
RTVSPropertyOp20
 70
     1
102
RTVSPropertyOp21
 70
     1
102
RTVSPropertyOp22
 70
     1
102
RTVSPropertyOp23
 70
     1
102
RTVSPropertyOp24
 70
     1
102
RTVSPropertyOp25
 70
     1
102
RTVSPropertyOp26
 70
     1
102
RTVSPropertyOp27
 70
     1
102
RTVSPropertyOp28
 70
     1
102
RTVSPropertyOp29
 70
     1
102
RTVSPropertyOp30
 70
     1
102
RTVSPropertyOp31
 70
     1
102
RTVSPropertyOp32
 70
     1
102
RTVSPropertyOp33
 70
     1
102
RTVSPropertyOp34
 70
     1
102
RTVSPropertyOp35
 70
     1
102
RTVSPropertyOp36
 70
     1
102
RTVSPropertyOp37
 70
     1
102
RTVSPropertyOp38
 70
     1
102
RTVSPropertyOp39
 70
     1
102
RTVSPropertyOp40
 70
     1
102
RTVSPropertyOp41
 70
     1
102
RTVSPropertyOp42
 70
     1
102
RTVSPropertyOp43
 70
     1
102
RTVSPropertyOp44
 70
     1
102
RTVSPropertyOp45
 70
     1
102
RTVSPropertyOp46
 70
     1
102
RTVSPropertyOp47
 70
     1
102
RTVSPropertyOp48
 70
     1
102
RTVSPropertyOp49
 70
     1
102
RTVSPropertyOp50
 70
     1
102
RTVSPropertyOp51
 70
     0
102
RTVSPropertyOp52
 70
     0
102
RTVSPropertyOp53
 70
     1
102
RTVSPropertyOp54
 70
     1
102
RTVSPropertyOp55
 70
     1
102
RTVSPropertyOp56
 70
     1
102
RTVSPropertyOp57
 70
     1
102
RTVSPropertyOp58
 70
     1
102
RTVSPropertyOp59
 70
     1
102
RTVSPropertyOp60
 70
     1
102
RTVSPropertyOp61
 70
     1
102
RTVSPropertyOp62
 70
     1
  0
XRECORD
  5
39B
102
{ACAD_REACTORS
330
39A
102
}
330
39A
100
AcDbXrecord
280
     1
102
RTVSPost2010Prop28
280
     0
102
RTVSPost2010PropOp28
 70
     1
102
RTVSPost2010Prop29
280
     1
102
RTVSPost2010PropOp29
 70
     1
102
RTVSPost2010Prop30
280
     1
102
RTVSPost2010PropOp30
 70
     1
102
RTVSPost2010Prop31
280
     0
102
RTVSPost2010PropOp31
 70
     1
102
RTVSPost2010Prop32
280
     0
102
RTVSPost2010PropOp32
 70
     1
102
RTVSPost2010Prop33
280
     0
102
RTVSPost2010PropOp33
 70
     1
102
RTVSPost2010Prop34
280
     0
102
RTVSPost2010PropOp34
 70
     1
102
RTVSPost2010Prop35
280
     0
102
RTVSPost2010PropOp35
 70
     1
102
RTVSPost2010Prop36
280
     0
102
RTVSPost2010PropOp36
 70
     1
102
RTVSPost2010Prop37
 90
       50
102
RTVSPost2010PropOp37
 70
     1
102
RTVSPost2010Prop38
140
0.0
102
RTVSPost2010PropOp38
 70
     1
102
RTVSPost2010Prop39
140
1.0
102
RTVSPost2010PropOp39
 70
     1
102
RTVSPost2010Prop40
 90
        0
102
RTVSPost2010PropOp40
 70
     1
102
RTVSPost2010Prop41ColorIndex
 90
       18
102
RTVSPost2010Prop41ColorRGB
 90
        0
102
RTVSPost2010PropOp41
 70
     1
102
RTVSPost2010Prop42
 90
       50
102
RTVSPost2010PropOp42
 70
     1
102
RTVSPost2010Prop43
 90
        3
102
RTVSPost2010PropOp43
 70
     1
102
RTVSPost2010Prop44ColorIndex
 90
        5
102
RTVSPost2010Prop44ColorRGB
 90
      255
102
RTVSPost2010PropOp44
 70
     1
102
RTVSPost2010Prop45
280
     0
102
RTVSPost2010PropOp45
 70
     1
102
RTVSPost2010Prop46
 90
       50
102
RTVSPost2010PropOp46
 70
     1
102
RTVSPost2010Prop47
 90
       50
102
RTVSPost2010PropOp47
 70
     1
102
RTVSPost2010Prop48
 90
       50
102
RTVSPost2010PropOp48
 70
     1
102
RTVSPost2010Prop49
280
     0
102
RTVSPost2010PropOp49
 70
     1
102
RTVSPost2010Prop50
 90
       50
102
RTVSPost2010PropOp50
 70
     1
102
RTVSPost2010Prop51ColorIndex
 90
      256
102
RTVSPost2010Prop51ColorRGB
 90
-16777216
102
RTVSPost2010PropOp51
 70
     0
102
RTVSPost2010Prop52
140
1.0
102
RTVSPost2010PropOp52
 70
     0
102
RTVSPost2010Prop53
 90
        2
102
RTVSPost2010PropOp53
 70
     1
102
RTVSPost2010Prop54
  1
strokes_ogs.tif
102
RTVSPost2010PropOp54
 70
     1
102
RTVSPost2010Prop55
280
     0
102
RTVSPost2010PropOp55
 70
     1
102
RTVSPost2010Prop56
140
1.0
102
RTVSPost2010PropOp56
 70
     1
102
RTVSPost2010Prop57
140
1.0
102
RTVSPost2010PropOp57
 70
     1
102
RTVSPropertyOp0
 70
     1
102
RTVSPropertyOp1
 70
     1
102
RTVSPropertyOp2
 70
     1
102
RTVSPropertyOp3
 70
     1
102
RTVSPropertyOp4
 70
     1
102
RTVSPropertyOp5
 70
     1
102
RTVSPropertyOp6
 70
     1
102
RTVSPropertyOp7
 70
     1
102
RTVSPropertyOp8
 70
     1
102
RTVSPropertyOp9
 70
     1
102
RTVSPropertyOp10
 70
     1
102
RTVSPropertyOp11
 70
     1
102
RTVSPropertyOp12
 70
     1
102
RTVSPropertyOp13
 70
     1
102
RTVSPropertyOp14
 70
     1
102
RTVSPropertyOp15
 70
     1
102
RTVSPropertyOp16
 70
     1
102
RTVSPropertyOp17
 70
     1
102
RTVSPropertyOp18
 70
     1
102
RTVSPropertyOp19
 70
     1
102
RTVSPropertyOp20
 70
     1
102
RTVSPropertyOp21
 70
     1
102
RTVSPropertyOp22
 70
     1
102
RTVSPropertyOp23
 70
     1
102
RTVSPropertyOp24
 70
     1
102
RTVSPropertyOp25
 70
     1
102
RTVSPropertyOp26
 70
     1
102
RTVSPropertyOp27
 70
     1
102
RTVSPropertyOp28
 70
     1
102
RTVSPropertyOp29
 70
     1
102
RTVSPropertyOp30
 70
     1
102
RTVSPropertyOp31
 70
     1
102
RTVSPropertyOp32
 70
     1
102
RTVSPropertyOp33
 70
     1
102
RTVSPropertyOp34
 70
     1
102
RTVSPropertyOp35
 70
     1
102
RTVSPropertyOp36
 70
     1
102
RTVSPropertyOp37
 70
     1
102
RTVSPropertyOp38
 70
     1
102
RTVSPropertyOp39
 70
     1
102
RTVSPropertyOp40
 70
     1
102
RTVSPropertyOp41
 70
     1
102
RTVSPropertyOp42
 70
     1
102
RTVSPropertyOp43
 70
     1
102
RTVSPropertyOp44
 70
     1
102
RTVSPropertyOp45
 70
     1
102
RTVSPropertyOp46
 70
     1
102
RTVSPropertyOp47
 70
     1
102
RTVSPropertyOp48
 70
     1
102
RTVSPropertyOp49
 70
     1
102
RTVSPropertyOp50
 70
     1
102
RTVSPropertyOp51
 70
     0
102
RTVSPropertyOp52
 70
     0
102
RTVSPropertyOp53
 70
     1
102
RTVSPropertyOp54
 70
     1
102
RTVSPropertyOp55
 70
     1
102
RTVSPropertyOp56
 70
     1
102
RTVSPropertyOp57
 70
     1
102
RTVSPropertyOp58
 70
     1
102
RTVSPropertyOp59
 70
     1
102
RTVSPropertyOp60
 70
     1
102
RTVSPropertyOp61
 70
     1
102
RTVSPropertyOp62
 70
     1
  0
XRECORD
  5
39F
102
{ACAD_REACTORS
330
39E
102
}
330
39E
100
AcDbXrecord
280
     1
102
RTVSPost2010Prop28
280
     0
102
RTVSPost2010PropOp28
 70
     1
102
RTVSPost2010Prop29
280
     1
102
RTVSPost2010PropOp29
 70
     1
102
RTVSPost2010Prop30
280
     1
102
RTVSPost2010PropOp30
 70
     1
102
RTVSPost2010Prop31
280
     0
102
RTVSPost2010PropOp31
 70
     1
102
RTVSPost2010Prop32
280
     0
102
RTVSPost2010PropOp32
 70
     1
102
RTVSPost2010Prop33
280
     0
102
RTVSPost2010PropOp33
 70
     1
102
RTVSPost2010Prop34
280
     0
102
RTVSPost2010PropOp34
 70
     1
102
RTVSPost2010Prop35
280
     0
102
RTVSPost2010PropOp35
 70
     1
102
RTVSPost2010Prop36
280
     0
102
RTVSPost2010PropOp36
 70
     1
102
RTVSPost2010Prop37
 90
       50
102
RTVSPost2010PropOp37
 70
     1
102
RTVSPost2010Prop38
140
0.0
102
RTVSPost2010PropOp38
 70
     1
102
RTVSPost2010Prop39
140
1.0
102
RTVSPost2010PropOp39
 70
     1
102
RTVSPost2010Prop40
 90
        0
102
RTVSPost2010PropOp40
 70
     1
102
RTVSPost2010Prop41ColorIndex
 90
       18
102
RTVSPost2010Prop41ColorRGB
 90
        0
102
RTVSPost2010PropOp41
 70
     1
102
RTVSPost2010Prop42
 90
       50
102
RTVSPost2010PropOp42
 70
     1
102
RTVSPost2010Prop43
 90
        3
102
RTVSPost2010PropOp43
 70
     1
102
RTVSPost2010Prop44ColorIndex
 90
        5
102
RTVSPost2010Prop44ColorRGB
 90
      255
102
RTVSPost2010PropOp44
 70
     1
102
RTVSPost2010Prop45
280
     0
102
RTVSPost2010PropOp45
 70
     1
102
RTVSPost2010Prop46
 90
       50
102
RTVSPost2010PropOp46
 70
     1
102
RTVSPost2010Prop47
 90
       50
102
RTVSPost2010PropOp47
 70
     1
102
RTVSPost2010Prop48
 90
       50
102
RTVSPost2010PropOp48
 70
     1
102
RTVSPost2010Prop49
280
     0
102
RTVSPost2010PropOp49
 70
     1
102
RTVSPost2010Prop50
 90
       50
102
RTVSPost2010PropOp50
 70
     1
102
RTVSPost2010Prop51ColorIndex
 90
      256
102
RTVSPost2010Prop51ColorRGB
 90
-16777216
102
RTVSPost2010PropOp51
 70
     0
102
RTVSPost2010Prop52
140
1.0
102
RTVSPost2010PropOp52
 70
     0
102
RTVSPost2010Prop53
 90
        2
102
RTVSPost2010PropOp53
 70
     1
102
RTVSPost2010Prop54
  1
strokes_ogs.tif
102
RTVSPost2010PropOp54
 70
     1
102
RTVSPost2010Prop55
280
     0
102
RTVSPost2010PropOp55
 70
     1
102
RTVSPost2010Prop56
140
1.0
102
RTVSPost2010PropOp56
 70
     1
102
RTVSPost2010Prop57
140
1.0
102
RTVSPost2010PropOp57
 70
     1
102
RTVSPropertyOp0
 70
     1
102
RTVSPropertyOp1
 70
     1
102
RTVSPropertyOp2
 70
     1
102
RTVSPropertyOp3
 70
     1
102
RTVSPropertyOp4
 70
     1
102
RTVSPropertyOp5
 70
     1
102
RTVSPropertyOp6
 70
     1
102
RTVSPropertyOp7
 70
     1
102
RTVSPropertyOp8
 70
     1
102
RTVSPropertyOp9
 70
     1
102
RTVSPropertyOp10
 70
     1
102
RTVSPropertyOp11
 70
     1
102
RTVSPropertyOp12
 70
     1
102
RTVSPropertyOp13
 70
     1
102
RTVSPropertyOp14
 70
     1
102
RTVSPropertyOp15
 70
     1
102
RTVSPropertyOp16
 70
     1
102
RTVSPropertyOp17
 70
     1
102
RTVSPropertyOp18
 70
     1
102
RTVSPropertyOp19
 70
     1
102
RTVSPropertyOp20
 70
     1
102
RTVSPropertyOp21
 70
     1
102
RTVSPropertyOp22
 70
     1
102
RTVSPropertyOp23
 70
     1
102
RTVSPropertyOp24
 70
     1
102
RTVSPropertyOp25
 70
     1
102
RTVSPropertyOp26
 70
     1
102
RTVSPropertyOp27
 70
     1
102
RTVSPropertyOp28
 70
     1
102
RTVSPropertyOp29
 70
     1
102
RTVSPropertyOp30
 70
     1
102
RTVSPropertyOp31
 70
     1
102
RTVSPropertyOp32
 70
     1
102
RTVSPropertyOp33
 70
     1
102
RTVSPropertyOp34
 70
     1
102
RTVSPropertyOp35
 70
     1
102
RTVSPropertyOp36
 70
     1
102
RTVSPropertyOp37
 70
     1
102
RTVSPropertyOp38
 70
     1
102
RTVSPropertyOp39
 70
     1
102
RTVSPropertyOp40
 70
     1
102
RTVSPropertyOp41
 70
     1
102
RTVSPropertyOp42
 70
     1
102
RTVSPropertyOp43
 70
     1
102
RTVSPropertyOp44
 70
     1
102
RTVSPropertyOp45
 70
     1
102
RTVSPropertyOp46
 70
     1
102
RTVSPropertyOp47
 70
     1
102
RTVSPropertyOp48
 70
     1
102
RTVSPropertyOp49
 70
     1
102
RTVSPropertyOp50
 70
     1
102
RTVSPropertyOp51
 70
     0
102
RTVSPropertyOp52
 70
     0
102
RTVSPropertyOp53
 70
     1
102
RTVSPropertyOp54
 70
     1
102
RTVSPropertyOp55
 70
     1
102
RTVSPropertyOp56
 70
     1
102
RTVSPropertyOp57
 70
     1
102
RTVSPropertyOp58
 70
     1
102
RTVSPropertyOp59
 70
     1
102
RTVSPropertyOp60
 70
     1
102
RTVSPropertyOp61
 70
     1
102
RTVSPropertyOp62
 70
     1
  0
XRECORD
  5
3B9
102
{ACAD_REACTORS
330
3B8
102
}
330
3B8
100
AcDbXrecord
280
     1
102
RTVSPost2010Prop28
280
     0
102
RTVSPost2010PropOp28
 70
     1
102
RTVSPost2010Prop29
280
     1
102
RTVSPost2010PropOp29
 70
     1
102
RTVSPost2010Prop30
280
     1
102
RTVSPost2010PropOp30
 70
     1
102
RTVSPost2010Prop31
280
     0
102
RTVSPost2010PropOp31
 70
     1
102
RTVSPost2010Prop32
280
     0
102
RTVSPost2010PropOp32
 70
     1
102
RTVSPost2010Prop33
280
     0
102
RTVSPost2010PropOp33
 70
     1
102
RTVSPost2010Prop34
280
     0
102
RTVSPost2010PropOp34
 70
     1
102
RTVSPost2010Prop35
280
     0
102
RTVSPost2010PropOp35
 70
     1
102
RTVSPost2010Prop36
280
     0
102
RTVSPost2010PropOp36
 70
     1
102
RTVSPost2010Prop37
 90
       50
102
RTVSPost2010PropOp37
 70
     0
102
RTVSPost2010Prop38
140
0.0
102
RTVSPost2010PropOp38
 70
     0
102
RTVSPost2010Prop39
140
1.0
102
RTVSPost2010PropOp39
 70
     0
102
RTVSPost2010Prop40
 90
        0
102
RTVSPost2010PropOp40
 70
     0
102
RTVSPost2010Prop41ColorIndex
 90
       18
102
RTVSPost2010Prop41ColorRGB
 90
        0
102
RTVSPost2010PropOp41
 70
     0
102
RTVSPost2010Prop42
 90
       50
102
RTVSPost2010PropOp42
 70
     0
102
RTVSPost2010Prop43
 90
        3
102
RTVSPost2010PropOp43
 70
     0
102
RTVSPost2010Prop44ColorIndex
 90
        5
102
RTVSPost2010Prop44ColorRGB
 90
      255
102
RTVSPost2010PropOp44
 70
     0
102
RTVSPost2010Prop45
280
     0
102
RTVSPost2010PropOp45
 70
     1
102
RTVSPost2010Prop46
 90
       50
102
RTVSPost2010PropOp46
 70
     0
102
RTVSPost2010Prop47
 90
       50
102
RTVSPost2010PropOp47
 70
     0
102
RTVSPost2010Prop48
 90
       50
102
RTVSPost2010PropOp48
 70
     0
102
RTVSPost2010Prop49
280
     0
102
RTVSPost2010PropOp49
 70
     1
102
RTVSPost2010Prop50
 90
       50
102
RTVSPost2010PropOp50
 70
     0
102
RTVSPost2010Prop51ColorIndex
 90
      256
102
RTVSPost2010Prop51ColorRGB
 90
-16777216
102
RTVSPost2010PropOp51
 70
     0
102
RTVSPost2010Prop52
140
1.0
102
RTVSPost2010PropOp52
 70
     0
102
RTVSPost2010Prop53
 90
        2
102
RTVSPost2010PropOp53
 70
     0
102
RTVSPost2010Prop54
  1
strokes_ogs.tif
102
RTVSPost2010PropOp54
 70
     0
102
RTVSPost2010Prop55
280
     0
102
RTVSPost2010PropOp55
 70
     1
102
RTVSPost2010Prop56
140
1.0
102
RTVSPost2010PropOp56
 70
     0
102
RTVSPost2010Prop57
140
1.0
102
RTVSPost2010PropOp57
 70
     0
102
RTVSPropertyOp0
 70
     0
102
RTVSPropertyOp1
 70
     0
102
RTVSPropertyOp2
 70
     0
102
RTVSPropertyOp3
 70
     0
102
RTVSPropertyOp4
 70
     0
102
RTVSPropertyOp5
 70
     0
102
RTVSPropertyOp6
 70
     0
102
RTVSPropertyOp7
 70
     0
102
RTVSPropertyOp8
 70
     0
102
RTVSPropertyOp9
 70
     0
102
RTVSPropertyOp10
 70
     0
102
RTVSPropertyOp11
 70
     0
102
RTVSPropertyOp12
 70
     0
102
RTVSPropertyOp13
 70
     0
102
RTVSPropertyOp14
 70
     2
102
RTVSPropertyOp15
 70
     0
102
RTVSPropertyOp16
 70
     0
102
RTVSPropertyOp17
 70
     0
102
RTVSPropertyOp18
 70
     0
102
RTVSPropertyOp19
 70
     0
102
RTVSPropertyOp20
 70
     0
102
RTVSPropertyOp21
 70
     0
102
RTVSPropertyOp22
 70
     0
102
RTVSPropertyOp23
 70
     0
102
RTVSPropertyOp24
 70
     0
102
RTVSPropertyOp25
 70
     0
102
RTVSPropertyOp26
 70
     0
102
RTVSPropertyOp27
 70
     0
102
RTVSPropertyOp28
 70
     1
102
RTVSPropertyOp29
 70
     1
102
RTVSPropertyOp30
 70
     1
102
RTVSPropertyOp31
 70
     1
102
RTVSPropertyOp32
 70
     1
102
RTVSPropertyOp33
 70
     1
102
RTVSPropertyOp34
 70
     1
102
RTVSPropertyOp35
 70
     1
102
RTVSPropertyOp36
 70
     1
102
RTVSPropertyOp37
 70
     0
102
RTVSPropertyOp38
 70
     0
102
RTVSPropertyOp39
 70
     0
102
RTVSPropertyOp40
 70
     0
102
RTVSPropertyOp41
 70
     0
102
RTVSPropertyOp42
 70
     0
102
RTVSPropertyOp43
 70
     0
102
RTVSPropertyOp44
 70
     0
102
RTVSPropertyOp45
 70
     1
102
RTVSPropertyOp46
 70
     0
102
RTVSPropertyOp47
 70
     0
102
RTVSPropertyOp48
 70
     0
102
RTVSPropertyOp49
 70
     1
102
RTVSPropertyOp50
 70
     0
102
RTVSPropertyOp51
 70
     0
102
RTVSPropertyOp52
 70
     0
102
RTVSPropertyOp53
 70
     0
102
RTVSPropertyOp54
 70
     0
102
RTVSPropertyOp55
 70
     1
102
RTVSPropertyOp56
 70
     0
102
RTVSPropertyOp57
 70
     0
102
RTVSPropertyOp58
 70
     0
102
RTVSPropertyOp59
 70
     0
102
RTVSPropertyOp60
 70
     0
102
RTVSPropertyOp61
 70
     0
102
RTVSPropertyOp62
 70
     0
  0
XRECORD
  5
3A7
102
{ACAD_REACTORS
330
3A6
102
}
330
3A6
100
AcDbXrecord
280
     1
102
RTVSPost2010Prop28
280
     0
102
RTVSPost2010PropOp28
 70
     1
102
RTVSPost2010Prop29
280
     1
102
RTVSPost2010PropOp29
 70
     1
102
RTVSPost2010Prop30
280
     1
102
RTVSPost2010PropOp30
 70
     1
102
RTVSPost2010Prop31
280
     0
102
RTVSPost2010PropOp31
 70
     1
102
RTVSPost2010Prop32
280
     0
102
RTVSPost2010PropOp32
 70
     1
102
RTVSPost2010Prop33
280
     0
102
RTVSPost2010PropOp33
 70
     1
102
RTVSPost2010Prop34
280
     0
102
RTVSPost2010PropOp34
 70
     1
102
RTVSPost2010Prop35
280
     0
102
RTVSPost2010PropOp35
 70
     1
102
RTVSPost2010Prop36
280
     0
102
RTVSPost2010PropOp36
 70
     1
102
RTVSPost2010Prop37
 90
       50
102
RTVSPost2010PropOp37
 70
     1
102
RTVSPost2010Prop38
140
0.0
102
RTVSPost2010PropOp38
 70
     1
102
RTVSPost2010Prop39
140
1.0
102
RTVSPost2010PropOp39
 70
     1
102
RTVSPost2010Prop40
 90
        0
102
RTVSPost2010PropOp40
 70
     1
102
RTVSPost2010Prop41ColorIndex
 90
       18
102
RTVSPost2010Prop41ColorRGB
 90
        0
102
RTVSPost2010PropOp41
 70
     1
102
RTVSPost2010Prop42
 90
       50
102
RTVSPost2010PropOp42
 70
     1
102
RTVSPost2010Prop43
 90
        3
102
RTVSPost2010PropOp43
 70
     1
102
RTVSPost2010Prop44ColorIndex
 90
        5
102
RTVSPost2010Prop44ColorRGB
 90
      255
102
RTVSPost2010PropOp44
 70
     1
102
RTVSPost2010Prop45
280
     0
102
RTVSPost2010PropOp45
 70
     1
102
RTVSPost2010Prop46
 90
       50
102
RTVSPost2010PropOp46
 70
     1
102
RTVSPost2010Prop47
 90
       50
102
RTVSPost2010PropOp47
 70
     1
102
RTVSPost2010Prop48
 90
       50
102
RTVSPost2010PropOp48
 70
     1
102
RTVSPost2010Prop49
280
     0
102
RTVSPost2010PropOp49
 70
     1
102
RTVSPost2010Prop50
 90
       50
102
RTVSPost2010PropOp50
 70
     1
102
RTVSPost2010Prop51ColorIndex
 90
      256
102
RTVSPost2010Prop51ColorRGB
 90
-16777216
102
RTVSPost2010PropOp51
 70
     0
102
RTVSPost2010Prop52
140
1.0
102
RTVSPost2010PropOp52
 70
     0
102
RTVSPost2010Prop53
 90
        2
102
RTVSPost2010PropOp53
 70
     1
102
RTVSPost2010Prop54
  1
strokes_ogs.tif
102
RTVSPost2010PropOp54
 70
     1
102
RTVSPost2010Prop55
280
     0
102
RTVSPost2010PropOp55
 70
     1
102
RTVSPost2010Prop56
140
1.0
102
RTVSPost2010PropOp56
 70
     1
102
RTVSPost2010Prop57
140
1.0
102
RTVSPost2010PropOp57
 70
     1
102
RTVSPropertyOp0
 70
     1
102
RTVSPropertyOp1
 70
     1
102
RTVSPropertyOp2
 70
     1
102
RTVSPropertyOp3
 70
     1
102
RTVSPropertyOp4
 70
     1
102
RTVSPropertyOp5
 70
     1
102
RTVSPropertyOp6
 70
     1
102
RTVSPropertyOp7
 70
     1
102
RTVSPropertyOp8
 70
     1
102
RTVSPropertyOp9
 70
     1
102
RTVSPropertyOp10
 70
     1
102
RTVSPropertyOp11
 70
     1
102
RTVSPropertyOp12
 70
     1
102
RTVSPropertyOp13
 70
     1
102
RTVSPropertyOp14
 70
     1
102
RTVSPropertyOp15
 70
     1
102
RTVSPropertyOp16
 70
     1
102
RTVSPropertyOp17
 70
     1
102
RTVSPropertyOp18
 70
     1
102
RTVSPropertyOp19
 70
     1
102
RTVSPropertyOp20
 70
     1
102
RTVSPropertyOp21
 70
     1
102
RTVSPropertyOp22
 70
     1
102
RTVSPropertyOp23
 70
     1
102
RTVSPropertyOp24
 70
     1
102
RTVSPropertyOp25
 70
     1
102
RTVSPropertyOp26
 70
     1
102
RTVSPropertyOp27
 70
     1
102
RTVSPropertyOp28
 70
     1
102
RTVSPropertyOp29
 70
     1
102
RTVSPropertyOp30
 70
     1
102
RTVSPropertyOp31
 70
     1
102
RTVSPropertyOp32
 70
     1
102
RTVSPropertyOp33
 70
     1
102
RTVSPropertyOp34
 70
     1
102
RTVSPropertyOp35
 70
     1
102
RTVSPropertyOp36
 70
     1
102
RTVSPropertyOp37
 70
     1
102
RTVSPropertyOp38
 70
     1
102
RTVSPropertyOp39
 70
     1
102
RTVSPropertyOp40
 70
     1
102
RTVSPropertyOp41
 70
     1
102
RTVSPropertyOp42
 70
     1
102
RTVSPropertyOp43
 70
     1
102
RTVSPropertyOp44
 70
     1
102
RTVSPropertyOp45
 70
     1
102
RTVSPropertyOp46
 70
     1
102
RTVSPropertyOp47
 70
     1
102
RTVSPropertyOp48
 70
     1
102
RTVSPropertyOp49
 70
     1
102
RTVSPropertyOp50
 70
     1
102
RTVSPropertyOp51
 70
     0
102
RTVSPropertyOp52
 70
     0
102
RTVSPropertyOp53
 70
     1
102
RTVSPropertyOp54
 70
     1
102
RTVSPropertyOp55
 70
     1
102
RTVSPropertyOp56
 70
     1
102
RTVSPropertyOp57
 70
     1
102
RTVSPropertyOp58
 70
     1
102
RTVSPropertyOp59
 70
     1
102
RTVSPropertyOp60
 70
     1
102
RTVSPropertyOp61
 70
     1
102
RTVSPropertyOp62
 70
     1
  0
XRECORD
  5
38B
102
{ACAD_REACTORS
330
38A
102
}
330
38A
100
AcDbXrecord
280
     1
102
RTVSPost2010Prop28
280
     0
102
RTVSPost2010PropOp28
 70
     1
102
RTVSPost2010Prop29
280
     1
102
RTVSPost2010PropOp29
 70
     1
102
RTVSPost2010Prop30
280
     1
102
RTVSPost2010PropOp30
 70
     1
102
RTVSPost2010Prop31
280
     0
102
RTVSPost2010PropOp31
 70
     1
102
RTVSPost2010Prop32
280
     0
102
RTVSPost2010PropOp32
 70
     1
102
RTVSPost2010Prop33
280
     0
102
RTVSPost2010PropOp33
 70
     1
102
RTVSPost2010Prop34
280
     0
102
RTVSPost2010PropOp34
 70
     1
102
RTVSPost2010Prop35
280
     0
102
RTVSPost2010PropOp35
 70
     1
102
RTVSPost2010Prop36
280
     0
102
RTVSPost2010PropOp36
 70
     1
102
RTVSPost2010Prop37
 90
       50
102
RTVSPost2010PropOp37
 70
     1
102
RTVSPost2010Prop38
140
0.0
102
RTVSPost2010PropOp38
 70
     1
102
RTVSPost2010Prop39
140
1.0
102
RTVSPost2010PropOp39
 70
     1
102
RTVSPost2010Prop40
 90
        0
102
RTVSPost2010PropOp40
 70
     1
102
RTVSPost2010Prop41ColorIndex
 90
       18
102
RTVSPost2010Prop41ColorRGB
 90
        0
102
RTVSPost2010PropOp41
 70
     1
102
RTVSPost2010Prop42
 90
       50
102
RTVSPost2010PropOp42
 70
     1
102
RTVSPost2010Prop43
 90
        3
102
RTVSPost2010PropOp43
 70
     1
102
RTVSPost2010Prop44ColorIndex
 90
        5
102
RTVSPost2010Prop44ColorRGB
 90
      255
102
RTVSPost2010PropOp44
 70
     1
102
RTVSPost2010Prop45
280
     0
102
RTVSPost2010PropOp45
 70
     1
102
RTVSPost2010Prop46
 90
       50
102
RTVSPost2010PropOp46
 70
     1
102
RTVSPost2010Prop47
 90
       50
102
RTVSPost2010PropOp47
 70
     1
102
RTVSPost2010Prop48
 90
       50
102
RTVSPost2010PropOp48
 70
     1
102
RTVSPost2010Prop49
280
     0
102
RTVSPost2010PropOp49
 70
     1
102
RTVSPost2010Prop50
 90
       50
102
RTVSPost2010PropOp50
 70
     1
102
RTVSPost2010Prop51ColorIndex
 90
      256
102
RTVSPost2010Prop51ColorRGB
 90
-16777216
102
RTVSPost2010PropOp51
 70
     0
102
RTVSPost2010Prop52
140
1.0
102
RTVSPost2010PropOp52
 70
     0
102
RTVSPost2010Prop53
 90
        2
102
RTVSPost2010PropOp53
 70
     1
102
RTVSPost2010Prop54
  1
strokes_ogs.tif
102
RTVSPost2010PropOp54
 70
     1
102
RTVSPost2010Prop55
280
     0
102
RTVSPost2010PropOp55
 70
     1
102
RTVSPost2010Prop56
140
1.0
102
RTVSPost2010PropOp56
 70
     1
102
RTVSPost2010Prop57
140
1.0
102
RTVSPost2010PropOp57
 70
     1
102
RTVSPropertyOp0
 70
     1
102
RTVSPropertyOp1
 70
     1
102
RTVSPropertyOp2
 70
     1
102
RTVSPropertyOp3
 70
     1
102
RTVSPropertyOp4
 70
     1
102
RTVSPropertyOp5
 70
     1
102
RTVSPropertyOp6
 70
     1
102
RTVSPropertyOp7
 70
     1
102
RTVSPropertyOp8
 70
     1
102
RTVSPropertyOp9
 70
     1
102
RTVSPropertyOp10
 70
     1
102
RTVSPropertyOp11
 70
     1
102
RTVSPropertyOp12
 70
     1
102
RTVSPropertyOp13
 70
     1
102
RTVSPropertyOp14
 70
     1
102
RTVSPropertyOp15
 70
     1
102
RTVSPropertyOp16
 70
     1
102
RTVSPropertyOp17
 70
     1
102
RTVSPropertyOp18
 70
     1
102
RTVSPropertyOp19
 70
     1
102
RTVSPropertyOp20
 70
     1
102
RTVSPropertyOp21
 70
     1
102
RTVSPropertyOp22
 70
     1
102
RTVSPropertyOp23
 70
     1
102
RTVSPropertyOp24
 70
     1
102
RTVSPropertyOp25
 70
     1
102
RTVSPropertyOp26
 70
     1
102
RTVSPropertyOp27
 70
     1
102
RTVSPropertyOp28
 70
     1
102
RTVSPropertyOp29
 70
     1
102
RTVSPropertyOp30
 70
     1
102
RTVSPropertyOp31
 70
     1
102
RTVSPropertyOp32
 70
     1
102
RTVSPropertyOp33
 70
     1
102
RTVSPropertyOp34
 70
     1
102
RTVSPropertyOp35
 70
     1
102
RTVSPropertyOp36
 70
     1
102
RTVSPropertyOp37
 70
     1
102
RTVSPropertyOp38
 70
     1
102
RTVSPropertyOp39
 70
     1
102
RTVSPropertyOp40
 70
     1
102
RTVSPropertyOp41
 70
     1
102
RTVSPropertyOp42
 70
     1
102
RTVSPropertyOp43
 70
     1
102
RTVSPropertyOp44
 70
     1
102
RTVSPropertyOp45
 70
     1
102
RTVSPropertyOp46
 70
     1
102
RTVSPropertyOp47
 70
     1
102
RTVSPropertyOp48
 70
     1
102
RTVSPropertyOp49
 70
     1
102
RTVSPropertyOp50
 70
     1
102
RTVSPropertyOp51
 70
     0
102
RTVSPropertyOp52
 70
     0
102
RTVSPropertyOp53
 70
     1
102
RTVSPropertyOp54
 70
     1
102
RTVSPropertyOp55
 70
     1
102
RTVSPropertyOp56
 70
     1
102
RTVSPropertyOp57
 70
     1
102
RTVSPropertyOp58
 70
     1
102
RTVSPropertyOp59
 70
     1
102
RTVSPropertyOp60
 70
     1
102
RTVSPropertyOp61
 70
     1
102
RTVSPropertyOp62
 70
     1
  0
XRECORD
  5
38D
102
{ACAD_REACTORS
330
38C
102
}
330
38C
100
AcDbXrecord
280
     1
102
RTVSPost2010Prop28
280
     0
102
RTVSPost2010PropOp28
 70
     1
102
RTVSPost2010Prop29
280
     1
102
RTVSPost2010PropOp29
 70
     1
102
RTVSPost2010Prop30
280
     1
102
RTVSPost2010PropOp30
 70
     1
102
RTVSPost2010Prop31
280
     0
102
RTVSPost2010PropOp31
 70
     1
102
RTVSPost2010Prop32
280
     0
102
RTVSPost2010PropOp32
 70
     1
102
RTVSPost2010Prop33
280
     0
102
RTVSPost2010PropOp33
 70
     1
102
RTVSPost2010Prop34
280
     0
102
RTVSPost2010PropOp34
 70
     1
102
RTVSPost2010Prop35
280
     0
102
RTVSPost2010PropOp35
 70
     1
102
RTVSPost2010Prop36
280
     0
102
RTVSPost2010PropOp36
 70
     1
102
RTVSPost2010Prop37
 90
       50
102
RTVSPost2010PropOp37
 70
     1
102
RTVSPost2010Prop38
140
0.0
102
RTVSPost2010PropOp38
 70
     1
102
RTVSPost2010Prop39
140
1.0
102
RTVSPost2010PropOp39
 70
     1
102
RTVSPost2010Prop40
 90
        0
102
RTVSPost2010PropOp40
 70
     1
102
RTVSPost2010Prop41ColorIndex
 90
       18
102
RTVSPost2010Prop41ColorRGB
 90
        0
102
RTVSPost2010PropOp41
 70
     1
102
RTVSPost2010Prop42
 90
       50
102
RTVSPost2010PropOp42
 70
     1
102
RTVSPost2010Prop43
 90
        3
102
RTVSPost2010PropOp43
 70
     1
102
RTVSPost2010Prop44ColorIndex
 90
        5
102
RTVSPost2010Prop44ColorRGB
 90
      255
102
RTVSPost2010PropOp44
 70
     1
102
RTVSPost2010Prop45
280
     0
102
RTVSPost2010PropOp45
 70
     1
102
RTVSPost2010Prop46
 90
       50
102
RTVSPost2010PropOp46
 70
     1
102
RTVSPost2010Prop47
 90
       50
102
RTVSPost2010PropOp47
 70
     1
102
RTVSPost2010Prop48
 90
       50
102
RTVSPost2010PropOp48
 70
     1
102
RTVSPost2010Prop49
280
     0
102
RTVSPost2010PropOp49
 70
     1
102
RTVSPost2010Prop50
 90
       50
102
RTVSPost2010PropOp50
 70
     1
102
RTVSPost2010Prop51ColorIndex
 90
      256
102
RTVSPost2010Prop51ColorRGB
 90
-16777216
102
RTVSPost2010PropOp51
 70
     0
102
RTVSPost2010Prop52
140
1.0
102
RTVSPost2010PropOp52
 70
     0
102
RTVSPost2010Prop53
 90
        2
102
RTVSPost2010PropOp53
 70
     1
102
RTVSPost2010Prop54
  1
strokes_ogs.tif
102
RTVSPost2010PropOp54
 70
     1
102
RTVSPost2010Prop55
280
     0
102
RTVSPost2010PropOp55
 70
     1
102
RTVSPost2010Prop56
140
1.0
102
RTVSPost2010PropOp56
 70
     1
102
RTVSPost2010Prop57
140
1.0
102
RTVSPost2010PropOp57
 70
     1
102
RTVSPropertyOp0
 70
     1
102
RTVSPropertyOp1
 70
     1
102
RTVSPropertyOp2
 70
     1
102
RTVSPropertyOp3
 70
     1
102
RTVSPropertyOp4
 70
     1
102
RTVSPropertyOp5
 70
     1
102
RTVSPropertyOp6
 70
     1
102
RTVSPropertyOp7
 70
     1
102
RTVSPropertyOp8
 70
     1
102
RTVSPropertyOp9
 70
     1
102
RTVSPropertyOp10
 70
     1
102
RTVSPropertyOp11
 70
     1
102
RTVSPropertyOp12
 70
     1
102
RTVSPropertyOp13
 70
     1
102
RTVSPropertyOp14
 70
     1
102
RTVSPropertyOp15
 70
     1
102
RTVSPropertyOp16
 70
     1
102
RTVSPropertyOp17
 70
     1
102
RTVSPropertyOp18
 70
     1
102
RTVSPropertyOp19
 70
     1
102
RTVSPropertyOp20
 70
     1
102
RTVSPropertyOp21
 70
     1
102
RTVSPropertyOp22
 70
     1
102
RTVSPropertyOp23
 70
     1
102
RTVSPropertyOp24
 70
     1
102
RTVSPropertyOp25
 70
     1
102
RTVSPropertyOp26
 70
     1
102
RTVSPropertyOp27
 70
     1
102
RTVSPropertyOp28
 70
     1
102
RTVSPropertyOp29
 70
     1
102
RTVSPropertyOp30
 70
     1
102
RTVSPropertyOp31
 70
     1
102
RTVSPropertyOp32
 70
     1
102
RTVSPropertyOp33
 70
     1
102
RTVSPropertyOp34
 70
     1
102
RTVSPropertyOp35
 70
     1
102
RTVSPropertyOp36
 70
     1
102
RTVSPropertyOp37
 70
     1
102
RTVSPropertyOp38
 70
     1
102
RTVSPropertyOp39
 70
     1
102
RTVSPropertyOp40
 70
     1
102
RTVSPropertyOp41
 70
     1
102
RTVSPropertyOp42
 70
     1
102
RTVSPropertyOp43
 70
     1
102
RTVSPropertyOp44
 70
     1
102
RTVSPropertyOp45
 70
     1
102
RTVSPropertyOp46
 70
     1
102
RTVSPropertyOp47
 70
     1
102
RTVSPropertyOp48
 70
     1
102
RTVSPropertyOp49
 70
     1
102
RTVSPropertyOp50
 70
     1
102
RTVSPropertyOp51
 70
     0
102
RTVSPropertyOp52
 70
     0
102
RTVSPropertyOp53
 70
     1
102
RTVSPropertyOp54
 70
     1
102
RTVSPropertyOp55
 70
     1
102
RTVSPropertyOp56
 70
     1
102
RTVSPropertyOp57
 70
     1
102
RTVSPropertyOp58
 70
     1
102
RTVSPropertyOp59
 70
     1
102
RTVSPropertyOp60
 70
     1
102
RTVSPropertyOp61
 70
     1
102
RTVSPropertyOp62
 70
     1
  0
XRECORD
  5
38F
102
{ACAD_REACTORS
330
38E
102
}
330
38E
100
AcDbXrecord
280
     1
102
RTVSPost2010Prop28
280
     0
102
RTVSPost2010PropOp28
 70
     1
102
RTVSPost2010Prop29
280
     1
102
RTVSPost2010PropOp29
 70
     1
102
RTVSPost2010Prop30
280
     1
102
RTVSPost2010PropOp30
 70
     1
102
RTVSPost2010Prop31
280
     0
102
RTVSPost2010PropOp31
 70
     1
102
RTVSPost2010Prop32
280
     0
102
RTVSPost2010PropOp32
 70
     1
102
RTVSPost2010Prop33
280
     0
102
RTVSPost2010PropOp33
 70
     1
102
RTVSPost2010Prop34
280
     0
102
RTVSPost2010PropOp34
 70
     1
102
RTVSPost2010Prop35
280
     0
102
RTVSPost2010PropOp35
 70
     1
102
RTVSPost2010Prop36
280
     0
102
RTVSPost2010PropOp36
 70
     1
102
RTVSPost2010Prop37
 90
       50
102
RTVSPost2010PropOp37
 70
     1
102
RTVSPost2010Prop38
140
0.0
102
RTVSPost2010PropOp38
 70
     1
102
RTVSPost2010Prop39
140
1.0
102
RTVSPost2010PropOp39
 70
     1
102
RTVSPost2010Prop40
 90
        0
102
RTVSPost2010PropOp40
 70
     1
102
RTVSPost2010Prop41ColorIndex
 90
       18
102
RTVSPost2010Prop41ColorRGB
 90
        0
102
RTVSPost2010PropOp41
 70
     1
102
RTVSPost2010Prop42
 90
       50
102
RTVSPost2010PropOp42
 70
     1
102
RTVSPost2010Prop43
 90
        3
102
RTVSPost2010PropOp43
 70
     1
102
RTVSPost2010Prop44ColorIndex
 90
        5
102
RTVSPost2010Prop44ColorRGB
 90
      255
102
RTVSPost2010PropOp44
 70
     1
102
RTVSPost2010Prop45
280
     0
102
RTVSPost2010PropOp45
 70
     1
102
RTVSPost2010Prop46
 90
       50
102
RTVSPost2010PropOp46
 70
     1
102
RTVSPost2010Prop47
 90
       50
102
RTVSPost2010PropOp47
 70
     1
102
RTVSPost2010Prop48
 90
       50
102
RTVSPost2010PropOp48
 70
     1
102
RTVSPost2010Prop49
280
     0
102
RTVSPost2010PropOp49
 70
     1
102
RTVSPost2010Prop50
 90
       50
102
RTVSPost2010PropOp50
 70
     1
102
RTVSPost2010Prop51ColorIndex
 90
      256
102
RTVSPost2010Prop51ColorRGB
 90
-16777216
102
RTVSPost2010PropOp51
 70
     0
102
RTVSPost2010Prop52
140
1.0
102
RTVSPost2010PropOp52
 70
     0
102
RTVSPost2010Prop53
 90
        2
102
RTVSPost2010PropOp53
 70
     1
102
RTVSPost2010Prop54
  1
strokes_ogs.tif
102
RTVSPost2010PropOp54
 70
     1
102
RTVSPost2010Prop55
280
     0
102
RTVSPost2010PropOp55
 70
     1
102
RTVSPost2010Prop56
140
1.0
102
RTVSPost2010PropOp56
 70
     1
102
RTVSPost2010Prop57
140
1.0
102
RTVSPost2010PropOp57
 70
     1
102
RTVSPropertyOp0
 70
     1
102
RTVSPropertyOp1
 70
     1
102
RTVSPropertyOp2
 70
     1
102
RTVSPropertyOp3
 70
     1
102
RTVSPropertyOp4
 70
     1
102
RTVSPropertyOp5
 70
     1
102
RTVSPropertyOp6
 70
     1
102
RTVSPropertyOp7
 70
     1
102
RTVSPropertyOp8
 70
     1
102
RTVSPropertyOp9
 70
     1
102
RTVSPropertyOp10
 70
     1
102
RTVSPropertyOp11
 70
     1
102
RTVSPropertyOp12
 70
     1
102
RTVSPropertyOp13
 70
     1
102
RTVSPropertyOp14
 70
     1
102
RTVSPropertyOp15
 70
     1
102
RTVSPropertyOp16
 70
     1
102
RTVSPropertyOp17
 70
     1
102
RTVSPropertyOp18
 70
     1
102
RTVSPropertyOp19
 70
     1
102
RTVSPropertyOp20
 70
     1
102
RTVSPropertyOp21
 70
     1
102
RTVSPropertyOp22
 70
     1
102
RTVSPropertyOp23
 70
     1
102
RTVSPropertyOp24
 70
     1
102
RTVSPropertyOp25
 70
     1
102
RTVSPropertyOp26
 70
     1
102
RTVSPropertyOp27
 70
     1
102
RTVSPropertyOp28
 70
     1
102
RTVSPropertyOp29
 70
     1
102
RTVSPropertyOp30
 70
     1
102
RTVSPropertyOp31
 70
     1
102
RTVSPropertyOp32
 70
     1
102
RTVSPropertyOp33
 70
     1
102
RTVSPropertyOp34
 70
     1
102
RTVSPropertyOp35
 70
     1
102
RTVSPropertyOp36
 70
     1
102
RTVSPropertyOp37
 70
     1
102
RTVSPropertyOp38
 70
     1
102
RTVSPropertyOp39
 70
     1
102
RTVSPropertyOp40
 70
     1
102
RTVSPropertyOp41
 70
     1
102
RTVSPropertyOp42
 70
     1
102
RTVSPropertyOp43
 70
     1
102
RTVSPropertyOp44
 70
     1
102
RTVSPropertyOp45
 70
     1
102
RTVSPropertyOp46
 70
     1
102
RTVSPropertyOp47
 70
     1
102
RTVSPropertyOp48
 70
     1
102
RTVSPropertyOp49
 70
     1
102
RTVSPropertyOp50
 70
     1
102
RTVSPropertyOp51
 70
     0
102
RTVSPropertyOp52
 70
     0
102
RTVSPropertyOp53
 70
     1
102
RTVSPropertyOp54
 70
     1
102
RTVSPropertyOp55
 70
     1
102
RTVSPropertyOp56
 70
     1
102
RTVSPropertyOp57
 70
     1
102
RTVSPropertyOp58
 70
     1
102
RTVSPropertyOp59
 70
     1
102
RTVSPropertyOp60
 70
     1
102
RTVSPropertyOp61
 70
     1
102
RTVSPropertyOp62
 70
     1
  0
XRECORD
  5
391
102
{ACAD_REACTORS
330
390
102
}
330
390
100
AcDbXrecord
280
     1
102
RTVSPost2010Prop28
280
     0
102
RTVSPost2010PropOp28
 70
     1
102
RTVSPost2010Prop29
280
     1
102
RTVSPost2010PropOp29
 70
     1
102
RTVSPost2010Prop30
280
     1
102
RTVSPost2010PropOp30
 70
     1
102
RTVSPost2010Prop31
280
     0
102
RTVSPost2010PropOp31
 70
     1
102
RTVSPost2010Prop32
280
     0
102
RTVSPost2010PropOp32
 70
     1
102
RTVSPost2010Prop33
280
     0
102
RTVSPost2010PropOp33
 70
     1
102
RTVSPost2010Prop34
280
     0
102
RTVSPost2010PropOp34
 70
     1
102
RTVSPost2010Prop35
280
     0
102
RTVSPost2010PropOp35
 70
     1
102
RTVSPost2010Prop36
280
     0
102
RTVSPost2010PropOp36
 70
     1
102
RTVSPost2010Prop37
 90
       50
102
RTVSPost2010PropOp37
 70
     1
102
RTVSPost2010Prop38
140
0.0
102
RTVSPost2010PropOp38
 70
     1
102
RTVSPost2010Prop39
140
1.0
102
RTVSPost2010PropOp39
 70
     1
102
RTVSPost2010Prop40
 90
        0
102
RTVSPost2010PropOp40
 70
     1
102
RTVSPost2010Prop41ColorIndex
 90
       18
102
RTVSPost2010Prop41ColorRGB
 90
        0
102
RTVSPost2010PropOp41
 70
     1
102
RTVSPost2010Prop42
 90
       50
102
RTVSPost2010PropOp42
 70
     1
102
RTVSPost2010Prop43
 90
        3
102
RTVSPost2010PropOp43
 70
     1
102
RTVSPost2010Prop44ColorIndex
 90
        5
102
RTVSPost2010Prop44ColorRGB
 90
      255
102
RTVSPost2010PropOp44
 70
     1
102
RTVSPost2010Prop45
280
     0
102
RTVSPost2010PropOp45
 70
     1
102
RTVSPost2010Prop46
 90
       50
102
RTVSPost2010PropOp46
 70
     1
102
RTVSPost2010Prop47
 90
       50
102
RTVSPost2010PropOp47
 70
     1
102
RTVSPost2010Prop48
 90
       50
102
RTVSPost2010PropOp48
 70
     1
102
RTVSPost2010Prop49
280
     0
102
RTVSPost2010PropOp49
 70
     1
102
RTVSPost2010Prop50
 90
       50
102
RTVSPost2010PropOp50
 70
     1
102
RTVSPost2010Prop51ColorIndex
 90
      256
102
RTVSPost2010Prop51ColorRGB
 90
-16777216
102
RTVSPost2010PropOp51
 70
     0
102
RTVSPost2010Prop52
140
1.0
102
RTVSPost2010PropOp52
 70
     0
102
RTVSPost2010Prop53
 90
        2
102
RTVSPost2010PropOp53
 70
     1
102
RTVSPost2010Prop54
  1
strokes_ogs.tif
102
RTVSPost2010PropOp54
 70
     1
102
RTVSPost2010Prop55
280
     0
102
RTVSPost2010PropOp55
 70
     1
102
RTVSPost2010Prop56
140
1.0
102
RTVSPost2010PropOp56
 70
     1
102
RTVSPost2010Prop57
140
1.0
102
RTVSPost2010PropOp57
 70
     1
102
RTVSPropertyOp0
 70
     1
102
RTVSPropertyOp1
 70
     1
102
RTVSPropertyOp2
 70
     1
102
RTVSPropertyOp3
 70
     1
102
RTVSPropertyOp4
 70
     1
102
RTVSPropertyOp5
 70
     1
102
RTVSPropertyOp6
 70
     1
102
RTVSPropertyOp7
 70
     1
102
RTVSPropertyOp8
 70
     1
102
RTVSPropertyOp9
 70
     1
102
RTVSPropertyOp10
 70
     1
102
RTVSPropertyOp11
 70
     1
102
RTVSPropertyOp12
 70
     1
102
RTVSPropertyOp13
 70
     1
102
RTVSPropertyOp14
 70
     1
102
RTVSPropertyOp15
 70
     1
102
RTVSPropertyOp16
 70
     1
102
RTVSPropertyOp17
 70
     1
102
RTVSPropertyOp18
 70
     1
102
RTVSPropertyOp19
 70
     1
102
RTVSPropertyOp20
 70
     1
102
RTVSPropertyOp21
 70
     1
102
RTVSPropertyOp22
 70
     1
102
RTVSPropertyOp23
 70
     1
102
RTVSPropertyOp24
 70
     1
102
RTVSPropertyOp25
 70
     1
102
RTVSPropertyOp26
 70
     1
102
RTVSPropertyOp27
 70
     1
102
RTVSPropertyOp28
 70
     1
102
RTVSPropertyOp29
 70
     1
102
RTVSPropertyOp30
 70
     1
102
RTVSPropertyOp31
 70
     1
102
RTVSPropertyOp32
 70
     1
102
RTVSPropertyOp33
 70
     1
102
RTVSPropertyOp34
 70
     1
102
RTVSPropertyOp35
 70
     1
102
RTVSPropertyOp36
 70
     1
102
RTVSPropertyOp37
 70
     1
102
RTVSPropertyOp38
 70
     1
102
RTVSPropertyOp39
 70
     1
102
RTVSPropertyOp40
 70
     1
102
RTVSPropertyOp41
 70
     1
102
RTVSPropertyOp42
 70
     1
102
RTVSPropertyOp43
 70
     1
102
RTVSPropertyOp44
 70
     1
102
RTVSPropertyOp45
 70
     1
102
RTVSPropertyOp46
 70
     1
102
RTVSPropertyOp47
 70
     1
102
RTVSPropertyOp48
 70
     1
102
RTVSPropertyOp49
 70
     1
102
RTVSPropertyOp50
 70
     1
102
RTVSPropertyOp51
 70
     0
102
RTVSPropertyOp52
 70
     0
102
RTVSPropertyOp53
 70
     1
102
RTVSPropertyOp54
 70
     1
102
RTVSPropertyOp55
 70
     1
102
RTVSPropertyOp56
 70
     1
102
RTVSPropertyOp57
 70
     1
102
RTVSPropertyOp58
 70
     1
102
RTVSPropertyOp59
 70
     1
102
RTVSPropertyOp60
 70
     1
102
RTVSPropertyOp61
 70
     1
102
RTVSPropertyOp62
 70
     1
  0
XRECORD
  5
399
102
{ACAD_REACTORS
330
398
102
}
330
398
100
AcDbXrecord
280
     1
102
RTVSPost2010Prop28
280
     0
102
RTVSPost2010PropOp28
 70
     1
102
RTVSPost2010Prop29
280
     1
102
RTVSPost2010PropOp29
 70
     1
102
RTVSPost2010Prop30
280
     1
102
RTVSPost2010PropOp30
 70
     1
102
RTVSPost2010Prop31
280
     0
102
RTVSPost2010PropOp31
 70
     1
102
RTVSPost2010Prop32
280
     0
102
RTVSPost2010PropOp32
 70
     1
102
RTVSPost2010Prop33
280
     0
102
RTVSPost2010PropOp33
 70
     1
102
RTVSPost2010Prop34
280
     0
102
RTVSPost2010PropOp34
 70
     1
102
RTVSPost2010Prop35
280
     0
102
RTVSPost2010PropOp35
 70
     1
102
RTVSPost2010Prop36
280
     0
102
RTVSPost2010PropOp36
 70
     1
102
RTVSPost2010Prop37
 90
       50
102
RTVSPost2010PropOp37
 70
     1
102
RTVSPost2010Prop38
140
0.0
102
RTVSPost2010PropOp38
 70
     1
102
RTVSPost2010Prop39
140
1.0
102
RTVSPost2010PropOp39
 70
     1
102
RTVSPost2010Prop40
 90
        0
102
RTVSPost2010PropOp40
 70
     1
102
RTVSPost2010Prop41ColorIndex
 90
       18
102
RTVSPost2010Prop41ColorRGB
 90
        0
102
RTVSPost2010PropOp41
 70
     1
102
RTVSPost2010Prop42
 90
       50
102
RTVSPost2010PropOp42
 70
     1
102
RTVSPost2010Prop43
 90
        3
102
RTVSPost2010PropOp43
 70
     1
102
RTVSPost2010Prop44ColorIndex
 90
        5
102
RTVSPost2010Prop44ColorRGB
 90
      255
102
RTVSPost2010PropOp44
 70
     1
102
RTVSPost2010Prop45
280
     0
102
RTVSPost2010PropOp45
 70
     1
102
RTVSPost2010Prop46
 90
       50
102
RTVSPost2010PropOp46
 70
     1
102
RTVSPost2010Prop47
 90
       50
102
RTVSPost2010PropOp47
 70
     1
102
RTVSPost2010Prop48
 90
       50
102
RTVSPost2010PropOp48
 70
     1
102
RTVSPost2010Prop49
280
     0
102
RTVSPost2010PropOp49
 70
     1
102
RTVSPost2010Prop50
 90
       50
102
RTVSPost2010PropOp50
 70
     1
102
RTVSPost2010Prop51ColorIndex
 90
      256
102
RTVSPost2010Prop51ColorRGB
 90
-16777216
102
RTVSPost2010PropOp51
 70
     0
102
RTVSPost2010Prop52
140
1.0
102
RTVSPost2010PropOp52
 70
     0
102
RTVSPost2010Prop53
 90
        2
102
RTVSPost2010PropOp53
 70
     1
102
RTVSPost2010Prop54
  1
strokes_ogs.tif
102
RTVSPost2010PropOp54
 70
     1
102
RTVSPost2010Prop55
280
     0
102
RTVSPost2010PropOp55
 70
     1
102
RTVSPost2010Prop56
140
1.0
102
RTVSPost2010PropOp56
 70
     1
102
RTVSPost2010Prop57
140
1.0
102
RTVSPost2010PropOp57
 70
     1
102
RTVSPropertyOp0
 70
     1
102
RTVSPropertyOp1
 70
     1
102
RTVSPropertyOp2
 70
     1
102
RTVSPropertyOp3
 70
     1
102
RTVSPropertyOp4
 70
     1
102
RTVSPropertyOp5
 70
     1
102
RTVSPropertyOp6
 70
     1
102
RTVSPropertyOp7
 70
     1
102
RTVSPropertyOp8
 70
     1
102
RTVSPropertyOp9
 70
     1
102
RTVSPropertyOp10
 70
     1
102
RTVSPropertyOp11
 70
     1
102
RTVSPropertyOp12
 70
     1
102
RTVSPropertyOp13
 70
     1
102
RTVSPropertyOp14
 70
     1
102
RTVSPropertyOp15
 70
     1
102
RTVSPropertyOp16
 70
     1
102
RTVSPropertyOp17
 70
     1
102
RTVSPropertyOp18
 70
     1
102
RTVSPropertyOp19
 70
     1
102
RTVSPropertyOp20
 70
     1
102
RTVSPropertyOp21
 70
     1
102
RTVSPropertyOp22
 70
     1
102
RTVSPropertyOp23
 70
     1
102
RTVSPropertyOp24
 70
     1
102
RTVSPropertyOp25
 70
     1
102
RTVSPropertyOp26
 70
     1
102
RTVSPropertyOp27
 70
     1
102
RTVSPropertyOp28
 70
     1
102
RTVSPropertyOp29
 70
     1
102
RTVSPropertyOp30
 70
     1
102
RTVSPropertyOp31
 70
     1
102
RTVSPropertyOp32
 70
     1
102
RTVSPropertyOp33
 70
     1
102
RTVSPropertyOp34
 70
     1
102
RTVSPropertyOp35
 70
     1
102
RTVSPropertyOp36
 70
     1
102
RTVSPropertyOp37
 70
     1
102
RTVSPropertyOp38
 70
     1
102
RTVSPropertyOp39
 70
     1
102
RTVSPropertyOp40
 70
     1
102
RTVSPropertyOp41
 70
     1
102
RTVSPropertyOp42
 70
     1
102
RTVSPropertyOp43
 70
     1
102
RTVSPropertyOp44
 70
     1
102
RTVSPropertyOp45
 70
     1
102
RTVSPropertyOp46
 70
     1
102
RTVSPropertyOp47
 70
     1
102
RTVSPropertyOp48
 70
     1
102
RTVSPropertyOp49
 70
     1
102
RTVSPropertyOp50
 70
     1
102
RTVSPropertyOp51
 70
     0
102
RTVSPropertyOp52
 70
     0
102
RTVSPropertyOp53
 70
     1
102
RTVSPropertyOp54
 70
     1
102
RTVSPropertyOp55
 70
     1
102
RTVSPropertyOp56
 70
     1
102
RTVSPropertyOp57
 70
     1
102
RTVSPropertyOp58
 70
     1
102
RTVSPropertyOp59
 70
     1
102
RTVSPropertyOp60
 70
     1
102
RTVSPropertyOp61
 70
     1
102
RTVSPropertyOp62
 70
     1
  0
XRECORD
  5
3B5
102
{ACAD_REACTORS
330
3B4
102
}
330
3B4
100
AcDbXrecord
280
     1
102
RTVSPost2010Prop28
280
     0
102
RTVSPost2010PropOp28
 70
     1
102
RTVSPost2010Prop29
280
     1
102
RTVSPost2010PropOp29
 70
     1
102
RTVSPost2010Prop30
280
     1
102
RTVSPost2010PropOp30
 70
     1
102
RTVSPost2010Prop31
280
     0
102
RTVSPost2010PropOp31
 70
     1
102
RTVSPost2010Prop32
280
     0
102
RTVSPost2010PropOp32
 70
     1
102
RTVSPost2010Prop33
280
     0
102
RTVSPost2010PropOp33
 70
     1
102
RTVSPost2010Prop34
280
     0
102
RTVSPost2010PropOp34
 70
     1
102
RTVSPost2010Prop35
280
     0
102
RTVSPost2010PropOp35
 70
     1
102
RTVSPost2010Prop36
280
     0
102
RTVSPost2010PropOp36
 70
     1
102
RTVSPost2010Prop37
 90
       50
102
RTVSPost2010PropOp37
 70
     0
102
RTVSPost2010Prop38
140
0.0
102
RTVSPost2010PropOp38
 70
     0
102
RTVSPost2010Prop39
140
1.0
102
RTVSPost2010PropOp39
 70
     0
102
RTVSPost2010Prop40
 90
        0
102
RTVSPost2010PropOp40
 70
     0
102
RTVSPost2010Prop41ColorIndex
 90
       18
102
RTVSPost2010Prop41ColorRGB
 90
        0
102
RTVSPost2010PropOp41
 70
     0
102
RTVSPost2010Prop42
 90
       50
102
RTVSPost2010PropOp42
 70
     0
102
RTVSPost2010Prop43
 90
        3
102
RTVSPost2010PropOp43
 70
     0
102
RTVSPost2010Prop44ColorIndex
 90
        5
102
RTVSPost2010Prop44ColorRGB
 90
      255
102
RTVSPost2010PropOp44
 70
     0
102
RTVSPost2010Prop45
280
     0
102
RTVSPost2010PropOp45
 70
     1
102
RTVSPost2010Prop46
 90
       50
102
RTVSPost2010PropOp46
 70
     0
102
RTVSPost2010Prop47
 90
       50
102
RTVSPost2010PropOp47
 70
     0
102
RTVSPost2010Prop48
 90
       50
102
RTVSPost2010PropOp48
 70
     0
102
RTVSPost2010Prop49
280
     0
102
RTVSPost2010PropOp49
 70
     1
102
RTVSPost2010Prop50
 90
       50
102
RTVSPost2010PropOp50
 70
     0
102
RTVSPost2010Prop51ColorIndex
 90
      256
102
RTVSPost2010Prop51ColorRGB
 90
-16777216
102
RTVSPost2010PropOp51
 70
     0
102
RTVSPost2010Prop52
140
1.0
102
RTVSPost2010PropOp52
 70
     0
102
RTVSPost2010Prop53
 90
        2
102
RTVSPost2010PropOp53
 70
     0
102
RTVSPost2010Prop54
  1
strokes_ogs.tif
102
RTVSPost2010PropOp54
 70
     0
102
RTVSPost2010Prop55
280
     0
102
RTVSPost2010PropOp55
 70
     1
102
RTVSPost2010Prop56
140
1.0
102
RTVSPost2010PropOp56
 70
     0
102
RTVSPost2010Prop57
140
1.0
102
RTVSPost2010PropOp57
 70
     0
102
RTVSPropertyOp0
 70
     0
102
RTVSPropertyOp1
 70
     0
102
RTVSPropertyOp2
 70
     0
102
RTVSPropertyOp3
 70
     0
102
RTVSPropertyOp4
 70
     0
102
RTVSPropertyOp5
 70
     0
102
RTVSPropertyOp6
 70
     0
102
RTVSPropertyOp7
 70
     0
102
RTVSPropertyOp8
 70
     0
102
RTVSPropertyOp9
 70
     0
102
RTVSPropertyOp10
 70
     0
102
RTVSPropertyOp11
 70
     0
102
RTVSPropertyOp12
 70
     0
102
RTVSPropertyOp13
 70
     0
102
RTVSPropertyOp14
 70
     2
102
RTVSPropertyOp15
 70
     0
102
RTVSPropertyOp16
 70
     0
102
RTVSPropertyOp17
 70
     0
102
RTVSPropertyOp18
 70
     0
102
RTVSPropertyOp19
 70
     0
102
RTVSPropertyOp20
 70
     0
102
RTVSPropertyOp21
 70
     0
102
RTVSPropertyOp22
 70
     0
102
RTVSPropertyOp23
 70
     0
102
RTVSPropertyOp24
 70
     0
102
RTVSPropertyOp25
 70
     0
102
RTVSPropertyOp26
 70
     0
102
RTVSPropertyOp27
 70
     0
102
RTVSPropertyOp28
 70
     1
102
RTVSPropertyOp29
 70
     1
102
RTVSPropertyOp30
 70
     1
102
RTVSPropertyOp31
 70
     1
102
RTVSPropertyOp32
 70
     1
102
RTVSPropertyOp33
 70
     1
102
RTVSPropertyOp34
 70
     1
102
RTVSPropertyOp35
 70
     1
102
RTVSPropertyOp36
 70
     1
102
RTVSPropertyOp37
 70
     0
102
RTVSPropertyOp38
 70
     0
102
RTVSPropertyOp39
 70
     0
102
RTVSPropertyOp40
 70
     0
102
RTVSPropertyOp41
 70
     0
102
RTVSPropertyOp42
 70
     0
102
RTVSPropertyOp43
 70
     0
102
RTVSPropertyOp44
 70
     0
102
RTVSPropertyOp45
 70
     1
102
RTVSPropertyOp46
 70
     0
102
RTVSPropertyOp47
 70
     0
102
RTVSPropertyOp48
 70
     0
102
RTVSPropertyOp49
 70
     1
102
RTVSPropertyOp50
 70
     0
102
RTVSPropertyOp51
 70
     0
102
RTVSPropertyOp52
 70
     0
102
RTVSPropertyOp53
 70
     0
102
RTVSPropertyOp54
 70
     0
102
RTVSPropertyOp55
 70
     1
102
RTVSPropertyOp56
 70
     0
102
RTVSPropertyOp57
 70
     0
102
RTVSPropertyOp58
 70
     0
102
RTVSPropertyOp59
 70
     0
102
RTVSPropertyOp60
 70
     0
102
RTVSPropertyOp61
 70
     0
102
RTVSPropertyOp62
 70
     0
  0
XRECORD
  5
3A5
102
{ACAD_REACTORS
330
3A4
102
}
330
3A4
100
AcDbXrecord
280
     1
102
RTVSPost2010Prop28
280
     0
102
RTVSPost2010PropOp28
 70
     1
102
RTVSPost2010Prop29
280
     1
102
RTVSPost2010PropOp29
 70
     1
102
RTVSPost2010Prop30
280
     1
102
RTVSPost2010PropOp30
 70
     1
102
RTVSPost2010Prop31
280
     0
102
RTVSPost2010PropOp31
 70
     1
102
RTVSPost2010Prop32
280
     0
102
RTVSPost2010PropOp32
 70
     1
102
RTVSPost2010Prop33
280
     0
102
RTVSPost2010PropOp33
 70
     1
102
RTVSPost2010Prop34
280
     0
102
RTVSPost2010PropOp34
 70
     1
102
RTVSPost2010Prop35
280
     0
102
RTVSPost2010PropOp35
 70
     1
102
RTVSPost2010Prop36
280
     0
102
RTVSPost2010PropOp36
 70
     1
102
RTVSPost2010Prop37
 90
       50
102
RTVSPost2010PropOp37
 70
     1
102
RTVSPost2010Prop38
140
0.0
102
RTVSPost2010PropOp38
 70
     1
102
RTVSPost2010Prop39
140
1.0
102
RTVSPost2010PropOp39
 70
     1
102
RTVSPost2010Prop40
 90
        0
102
RTVSPost2010PropOp40
 70
     1
102
RTVSPost2010Prop41ColorIndex
 90
       18
102
RTVSPost2010Prop41ColorRGB
 90
        0
102
RTVSPost2010PropOp41
 70
     1
102
RTVSPost2010Prop42
 90
       50
102
RTVSPost2010PropOp42
 70
     1
102
RTVSPost2010Prop43
 90
        3
102
RTVSPost2010PropOp43
 70
     1
102
RTVSPost2010Prop44ColorIndex
 90
        5
102
RTVSPost2010Prop44ColorRGB
 90
      255
102
RTVSPost2010PropOp44
 70
     1
102
RTVSPost2010Prop45
280
     0
102
RTVSPost2010PropOp45
 70
     1
102
RTVSPost2010Prop46
 90
       50
102
RTVSPost2010PropOp46
 70
     1
102
RTVSPost2010Prop47
 90
       50
102
RTVSPost2010PropOp47
 70
     1
102
RTVSPost2010Prop48
 90
       50
102
RTVSPost2010PropOp48
 70
     1
102
RTVSPost2010Prop49
280
     0
102
RTVSPost2010PropOp49
 70
     1
102
RTVSPost2010Prop50
 90
       50
102
RTVSPost2010PropOp50
 70
     1
102
RTVSPost2010Prop51ColorIndex
 90
      256
102
RTVSPost2010Prop51ColorRGB
 90
-16777216
102
RTVSPost2010PropOp51
 70
     0
102
RTVSPost2010Prop52
140
1.0
102
RTVSPost2010PropOp52
 70
     0
102
RTVSPost2010Prop53
 90
        2
102
RTVSPost2010PropOp53
 70
     1
102
RTVSPost2010Prop54
  1
strokes_ogs.tif
102
RTVSPost2010PropOp54
 70
     1
102
RTVSPost2010Prop55
280
     0
102
RTVSPost2010PropOp55
 70
     1
102
RTVSPost2010Prop56
140
1.0
102
RTVSPost2010PropOp56
 70
     1
102
RTVSPost2010Prop57
140
1.0
102
RTVSPost2010PropOp57
 70
     1
102
RTVSPropertyOp0
 70
     1
102
RTVSPropertyOp1
 70
     1
102
RTVSPropertyOp2
 70
     1
102
RTVSPropertyOp3
 70
     1
102
RTVSPropertyOp4
 70
     1
102
RTVSPropertyOp5
 70
     1
102
RTVSPropertyOp6
 70
     1
102
RTVSPropertyOp7
 70
     1
102
RTVSPropertyOp8
 70
     1
102
RTVSPropertyOp9
 70
     1
102
RTVSPropertyOp10
 70
     1
102
RTVSPropertyOp11
 70
     1
102
RTVSPropertyOp12
 70
     1
102
RTVSPropertyOp13
 70
     1
102
RTVSPropertyOp14
 70
     1
102
RTVSPropertyOp15
 70
     1
102
RTVSPropertyOp16
 70
     1
102
RTVSPropertyOp17
 70
     1
102
RTVSPropertyOp18
 70
     1
102
RTVSPropertyOp19
 70
     1
102
RTVSPropertyOp20
 70
     1
102
RTVSPropertyOp21
 70
     1
102
RTVSPropertyOp22
 70
     1
102
RTVSPropertyOp23
 70
     1
102
RTVSPropertyOp24
 70
     1
102
RTVSPropertyOp25
 70
     1
102
RTVSPropertyOp26
 70
     1
102
RTVSPropertyOp27
 70
     1
102
RTVSPropertyOp28
 70
     1
102
RTVSPropertyOp29
 70
     1
102
RTVSPropertyOp30
 70
     1
102
RTVSPropertyOp31
 70
     1
102
RTVSPropertyOp32
 70
     1
102
RTVSPropertyOp33
 70
     1
102
RTVSPropertyOp34
 70
     1
102
RTVSPropertyOp35
 70
     1
102
RTVSPropertyOp36
 70
     1
102
RTVSPropertyOp37
 70
     1
102
RTVSPropertyOp38
 70
     1
102
RTVSPropertyOp39
 70
     1
102
RTVSPropertyOp40
 70
     1
102
RTVSPropertyOp41
 70
     1
102
RTVSPropertyOp42
 70
     1
102
RTVSPropertyOp43
 70
     1
102
RTVSPropertyOp44
 70
     1
102
RTVSPropertyOp45
 70
     1
102
RTVSPropertyOp46
 70
     1
102
RTVSPropertyOp47
 70
     1
102
RTVSPropertyOp48
 70
     1
102
RTVSPropertyOp49
 70
     1
102
RTVSPropertyOp50
 70
     1
102
RTVSPropertyOp51
 70
     0
102
RTVSPropertyOp52
 70
     0
102
RTVSPropertyOp53
 70
     1
102
RTVSPropertyOp54
 70
     1
102
RTVSPropertyOp55
 70
     1
102
RTVSPropertyOp56
 70
     1
102
RTVSPropertyOp57
 70
     1
102
RTVSPropertyOp58
 70
     1
102
RTVSPropertyOp59
 70
     1
102
RTVSPropertyOp60
 70
     1
102
RTVSPropertyOp61
 70
     1
102
RTVSPropertyOp62
 70
     1
  0
XRECORD
  5
3B7
102
{ACAD_REACTORS
330
3B6
102
}
330
3B6
100
AcDbXrecord
280
     1
102
RTVSPost2010Prop28
280
     0
102
RTVSPost2010PropOp28
 70
     1
102
RTVSPost2010Prop29
280
     1
102
RTVSPost2010PropOp29
 70
     1
102
RTVSPost2010Prop30
280
     1
102
RTVSPost2010PropOp30
 70
     1
102
RTVSPost2010Prop31
280
     0
102
RTVSPost2010PropOp31
 70
     1
102
RTVSPost2010Prop32
280
     0
102
RTVSPost2010PropOp32
 70
     1
102
RTVSPost2010Prop33
280
     0
102
RTVSPost2010PropOp33
 70
     1
102
RTVSPost2010Prop34
280
     0
102
RTVSPost2010PropOp34
 70
     1
102
RTVSPost2010Prop35
280
     0
102
RTVSPost2010PropOp35
 70
     1
102
RTVSPost2010Prop36
280
     0
102
RTVSPost2010PropOp36
 70
     1
102
RTVSPost2010Prop37
 90
       50
102
RTVSPost2010PropOp37
 70
     0
102
RTVSPost2010Prop38
140
0.0
102
RTVSPost2010PropOp38
 70
     0
102
RTVSPost2010Prop39
140
1.0
102
RTVSPost2010PropOp39
 70
     0
102
RTVSPost2010Prop40
 90
        0
102
RTVSPost2010PropOp40
 70
     0
102
RTVSPost2010Prop41ColorIndex
 90
       18
102
RTVSPost2010Prop41ColorRGB
 90
        0
102
RTVSPost2010PropOp41
 70
     0
102
RTVSPost2010Prop42
 90
       50
102
RTVSPost2010PropOp42
 70
     0
102
RTVSPost2010Prop43
 90
        3
102
RTVSPost2010PropOp43
 70
     0
102
RTVSPost2010Prop44ColorIndex
 90
        5
102
RTVSPost2010Prop44ColorRGB
 90
      255
102
RTVSPost2010PropOp44
 70
     0
102
RTVSPost2010Prop45
280
     0
102
RTVSPost2010PropOp45
 70
     1
102
RTVSPost2010Prop46
 90
       50
102
RTVSPost2010PropOp46
 70
     0
102
RTVSPost2010Prop47
 90
       50
102
RTVSPost2010PropOp47
 70
     0
102
RTVSPost2010Prop48
 90
       50
102
RTVSPost2010PropOp48
 70
     0
102
RTVSPost2010Prop49
280
     0
102
RTVSPost2010PropOp49
 70
     1
102
RTVSPost2010Prop50
 90
       50
102
RTVSPost2010PropOp50
 70
     0
102
RTVSPost2010Prop51ColorIndex
 90
      256
102
RTVSPost2010Prop51ColorRGB
 90
-16777216
102
RTVSPost2010PropOp51
 70
     0
102
RTVSPost2010Prop52
140
1.0
102
RTVSPost2010PropOp52
 70
     0
102
RTVSPost2010Prop53
 90
        2
102
RTVSPost2010PropOp53
 70
     0
102
RTVSPost2010Prop54
  1
strokes_ogs.tif
102
RTVSPost2010PropOp54
 70
     0
102
RTVSPost2010Prop55
280
     0
102
RTVSPost2010PropOp55
 70
     1
102
RTVSPost2010Prop56
140
1.0
102
RTVSPost2010PropOp56
 70
     0
102
RTVSPost2010Prop57
140
1.0
102
RTVSPost2010PropOp57
 70
     0
102
RTVSPropertyOp0
 70
     0
102
RTVSPropertyOp1
 70
     0
102
RTVSPropertyOp2
 70
     0
102
RTVSPropertyOp3
 70
     0
102
RTVSPropertyOp4
 70
     0
102
RTVSPropertyOp5
 70
     0
102
RTVSPropertyOp6
 70
     0
102
RTVSPropertyOp7
 70
     0
102
RTVSPropertyOp8
 70
     0
102
RTVSPropertyOp9
 70
     0
102
RTVSPropertyOp10
 70
     0
102
RTVSPropertyOp11
 70
     0
102
RTVSPropertyOp12
 70
     0
102
RTVSPropertyOp13
 70
     0
102
RTVSPropertyOp14
 70
     2
102
RTVSPropertyOp15
 70
     0
102
RTVSPropertyOp16
 70
     0
102
RTVSPropertyOp17
 70
     0
102
RTVSPropertyOp18
 70
     0
102
RTVSPropertyOp19
 70
     0
102
RTVSPropertyOp20
 70
     0
102
RTVSPropertyOp21
 70
     0
102
RTVSPropertyOp22
 70
     0
102
RTVSPropertyOp23
 70
     0
102
RTVSPropertyOp24
 70
     0
102
RTVSPropertyOp25
 70
     0
102
RTVSPropertyOp26
 70
     0
102
RTVSPropertyOp27
 70
     0
102
RTVSPropertyOp28
 70
     1
102
RTVSPropertyOp29
 70
     1
102
RTVSPropertyOp30
 70
     1
102
RTVSPropertyOp31
 70
     1
102
RTVSPropertyOp32
 70
     1
102
RTVSPropertyOp33
 70
     1
102
RTVSPropertyOp34
 70
     1
102
RTVSPropertyOp35
 70
     1
102
RTVSPropertyOp36
 70
     1
102
RTVSPropertyOp37
 70
     0
102
RTVSPropertyOp38
 70
     0
102
RTVSPropertyOp39
 70
     0
102
RTVSPropertyOp40
 70
     0
102
RTVSPropertyOp41
 70
     0
102
RTVSPropertyOp42
 70
     0
102
RTVSPropertyOp43
 70
     0
102
RTVSPropertyOp44
 70
     0
102
RTVSPropertyOp45
 70
     1
102
RTVSPropertyOp46
 70
     0
102
RTVSPropertyOp47
 70
     0
102
RTVSPropertyOp48
 70
     0
102
RTVSPropertyOp49
 70
     1
102
RTVSPropertyOp50
 70
     0
102
RTVSPropertyOp51
 70
     0
102
RTVSPropertyOp52
 70
     0
102
RTVSPropertyOp53
 70
     0
102
RTVSPropertyOp54
 70
     0
102
RTVSPropertyOp55
 70
     1
102
RTVSPropertyOp56
 70
     0
102
RTVSPropertyOp57
 70
     0
102
RTVSPropertyOp58
 70
     0
102
RTVSPropertyOp59
 70
     0
102
RTVSPropertyOp60
 70
     0
102
RTVSPropertyOp61
 70
     0
102
RTVSPropertyOp62
 70
     0
  0
XRECORD
  5
39D
102
{ACAD_REACTORS
330
39C
102
}
330
39C
100
AcDbXrecord
280
     1
102
RTVSPost2010Prop28
280
     0
102
RTVSPost2010PropOp28
 70
     1
102
RTVSPost2010Prop29
280
     1
102
RTVSPost2010PropOp29
 70
     1
102
RTVSPost2010Prop30
280
     1
102
RTVSPost2010PropOp30
 70
     1
102
RTVSPost2010Prop31
280
     0
102
RTVSPost2010PropOp31
 70
     1
102
RTVSPost2010Prop32
280
     0
102
RTVSPost2010PropOp32
 70
     1
102
RTVSPost2010Prop33
280
     0
102
RTVSPost2010PropOp33
 70
     1
102
RTVSPost2010Prop34
280
     0
102
RTVSPost2010PropOp34
 70
     1
102
RTVSPost2010Prop35
280
     0
102
RTVSPost2010PropOp35
 70
     1
102
RTVSPost2010Prop36
280
     0
102
RTVSPost2010PropOp36
 70
     1
102
RTVSPost2010Prop37
 90
       50
102
RTVSPost2010PropOp37
 70
     1
102
RTVSPost2010Prop38
140
0.0
102
RTVSPost2010PropOp38
 70
     1
102
RTVSPost2010Prop39
140
1.0
102
RTVSPost2010PropOp39
 70
     1
102
RTVSPost2010Prop40
 90
        0
102
RTVSPost2010PropOp40
 70
     1
102
RTVSPost2010Prop41ColorIndex
 90
       18
102
RTVSPost2010Prop41ColorRGB
 90
        0
102
RTVSPost2010PropOp41
 70
     1
102
RTVSPost2010Prop42
 90
       50
102
RTVSPost2010PropOp42
 70
     1
102
RTVSPost2010Prop43
 90
        3
102
RTVSPost2010PropOp43
 70
     1
102
RTVSPost2010Prop44ColorIndex
 90
        5
102
RTVSPost2010Prop44ColorRGB
 90
      255
102
RTVSPost2010PropOp44
 70
     1
102
RTVSPost2010Prop45
280
     0
102
RTVSPost2010PropOp45
 70
     1
102
RTVSPost2010Prop46
 90
       50
102
RTVSPost2010PropOp46
 70
     1
102
RTVSPost2010Prop47
 90
       50
102
RTVSPost2010PropOp47
 70
     1
102
RTVSPost2010Prop48
 90
       50
102
RTVSPost2010PropOp48
 70
     1
102
RTVSPost2010Prop49
280
     0
102
RTVSPost2010PropOp49
 70
     1
102
RTVSPost2010Prop50
 90
       50
102
RTVSPost2010PropOp50
 70
     1
102
RTVSPost2010Prop51ColorIndex
 90
      256
102
RTVSPost2010Prop51ColorRGB
 90
-16777216
102
RTVSPost2010PropOp51
 70
     0
102
RTVSPost2010Prop52
140
1.0
102
RTVSPost2010PropOp52
 70
     0
102
RTVSPost2010Prop53
 90
        2
102
RTVSPost2010PropOp53
 70
     1
102
RTVSPost2010Prop54
  1
strokes_ogs.tif
102
RTVSPost2010PropOp54
 70
     1
102
RTVSPost2010Prop55
280
     0
102
RTVSPost2010PropOp55
 70
     1
102
RTVSPost2010Prop56
140
1.0
102
RTVSPost2010PropOp56
 70
     1
102
RTVSPost2010Prop57
140
1.0
102
RTVSPost2010PropOp57
 70
     1
102
RTVSPropertyOp0
 70
     1
102
RTVSPropertyOp1
 70
     1
102
RTVSPropertyOp2
 70
     1
102
RTVSPropertyOp3
 70
     1
102
RTVSPropertyOp4
 70
     1
102
RTVSPropertyOp5
 70
     1
102
RTVSPropertyOp6
 70
     1
102
RTVSPropertyOp7
 70
     1
102
RTVSPropertyOp8
 70
     1
102
RTVSPropertyOp9
 70
     1
102
RTVSPropertyOp10
 70
     1
102
RTVSPropertyOp11
 70
     1
102
RTVSPropertyOp12
 70
     1
102
RTVSPropertyOp13
 70
     1
102
RTVSPropertyOp14
 70
     1
102
RTVSPropertyOp15
 70
     1
102
RTVSPropertyOp16
 70
     1
102
RTVSPropertyOp17
 70
     1
102
RTVSPropertyOp18
 70
     1
102
RTVSPropertyOp19
 70
     1
102
RTVSPropertyOp20
 70
     1
102
RTVSPropertyOp21
 70
     1
102
RTVSPropertyOp22
 70
     1
102
RTVSPropertyOp23
 70
     1
102
RTVSPropertyOp24
 70
     1
102
RTVSPropertyOp25
 70
     1
102
RTVSPropertyOp26
 70
     1
102
RTVSPropertyOp27
 70
     1
102
RTVSPropertyOp28
 70
     1
102
RTVSPropertyOp29
 70
     1
102
RTVSPropertyOp30
 70
     1
102
RTVSPropertyOp31
 70
     1
102
RTVSPropertyOp32
 70
     1
102
RTVSPropertyOp33
 70
     1
102
RTVSPropertyOp34
 70
     1
102
RTVSPropertyOp35
 70
     1
102
RTVSPropertyOp36
 70
     1
102
RTVSPropertyOp37
 70
     1
102
RTVSPropertyOp38
 70
     1
102
RTVSPropertyOp39
 70
     1
102
RTVSPropertyOp40
 70
     1
102
RTVSPropertyOp41
 70
     1
102
RTVSPropertyOp42
 70
     1
102
RTVSPropertyOp43
 70
     1
102
RTVSPropertyOp44
 70
     1
102
RTVSPropertyOp45
 70
     1
102
RTVSPropertyOp46
 70
     1
102
RTVSPropertyOp47
 70
     1
102
RTVSPropertyOp48
 70
     1
102
RTVSPropertyOp49
 70
     1
102
RTVSPropertyOp50
 70
     1
102
RTVSPropertyOp51
 70
     0
102
RTVSPropertyOp52
 70
     0
102
RTVSPropertyOp53
 70
     1
102
RTVSPropertyOp54
 70
     1
102
RTVSPropertyOp55
 70
     1
102
RTVSPropertyOp56
 70
     1
102
RTVSPropertyOp57
 70
     1
102
RTVSPropertyOp58
 70
     1
102
RTVSPropertyOp59
 70
     1
102
RTVSPropertyOp60
 70
     1
102
RTVSPropertyOp61
 70
     1
102
RTVSPropertyOp62
 70
     1
  0
XRECORD
  5
3B3
102
{ACAD_REACTORS
330
3B2
102
}
330
3B2
100
AcDbXrecord
280
     1
102
RTVSPost2010Prop28
280
     0
102
RTVSPost2010PropOp28
 70
     1
102
RTVSPost2010Prop29
280
     1
102
RTVSPost2010PropOp29
 70
     1
102
RTVSPost2010Prop30
280
     1
102
RTVSPost2010PropOp30
 70
     1
102
RTVSPost2010Prop31
280
     0
102
RTVSPost2010PropOp31
 70
     1
102
RTVSPost2010Prop32
280
     0
102
RTVSPost2010PropOp32
 70
     1
102
RTVSPost2010Prop33
280
     0
102
RTVSPost2010PropOp33
 70
     1
102
RTVSPost2010Prop34
280
     0
102
RTVSPost2010PropOp34
 70
     1
102
RTVSPost2010Prop35
280
     0
102
RTVSPost2010PropOp35
 70
     1
102
RTVSPost2010Prop36
280
     0
102
RTVSPost2010PropOp36
 70
     1
102
RTVSPost2010Prop37
 90
       50
102
RTVSPost2010PropOp37
 70
     1
102
RTVSPost2010Prop38
140
0.0
102
RTVSPost2010PropOp38
 70
     1
102
RTVSPost2010Prop39
140
1.0
102
RTVSPost2010PropOp39
 70
     1
102
RTVSPost2010Prop40
 90
        0
102
RTVSPost2010PropOp40
 70
     1
102
RTVSPost2010Prop41ColorIndex
 90
       18
102
RTVSPost2010Prop41ColorRGB
 90
        0
102
RTVSPost2010PropOp41
 70
     1
102
RTVSPost2010Prop42
 90
       50
102
RTVSPost2010PropOp42
 70
     1
102
RTVSPost2010Prop43
 90
        3
102
RTVSPost2010PropOp43
 70
     1
102
RTVSPost2010Prop44ColorIndex
 90
        5
102
RTVSPost2010Prop44ColorRGB
 90
      255
102
RTVSPost2010PropOp44
 70
     1
102
RTVSPost2010Prop45
280
     0
102
RTVSPost2010PropOp45
 70
     1
102
RTVSPost2010Prop46
 90
       50
102
RTVSPost2010PropOp46
 70
     1
102
RTVSPost2010Prop47
 90
       50
102
RTVSPost2010PropOp47
 70
     1
102
RTVSPost2010Prop48
 90
       50
102
RTVSPost2010PropOp48
 70
     1
102
RTVSPost2010Prop49
280
     0
102
RTVSPost2010PropOp49
 70
     1
102
RTVSPost2010Prop50
 90
       50
102
RTVSPost2010PropOp50
 70
     1
102
RTVSPost2010Prop51ColorIndex
 90
      256
102
RTVSPost2010Prop51ColorRGB
 90
-16777216
102
RTVSPost2010PropOp51
 70
     0
102
RTVSPost2010Prop52
140
1.0
102
RTVSPost2010PropOp52
 70
     0
102
RTVSPost2010Prop53
 90
        2
102
RTVSPost2010PropOp53
 70
     1
102
RTVSPost2010Prop54
  1
strokes_ogs.tif
102
RTVSPost2010PropOp54
 70
     1
102
RTVSPost2010Prop55
280
     0
102
RTVSPost2010PropOp55
 70
     1
102
RTVSPost2010Prop56
140
1.0
102
RTVSPost2010PropOp56
 70
     1
102
RTVSPost2010Prop57
140
1.0
102
RTVSPost2010PropOp57
 70
     1
102
RTVSPropertyOp0
 70
     1
102
RTVSPropertyOp1
 70
     1
102
RTVSPropertyOp2
 70
     1
102
RTVSPropertyOp3
 70
     1
102
RTVSPropertyOp4
 70
     1
102
RTVSPropertyOp5
 70
     1
102
RTVSPropertyOp6
 70
     1
102
RTVSPropertyOp7
 70
     1
102
RTVSPropertyOp8
 70
     1
102
RTVSPropertyOp9
 70
     1
102
RTVSPropertyOp10
 70
     1
102
RTVSPropertyOp11
 70
     1
102
RTVSPropertyOp12
 70
     1
102
RTVSPropertyOp13
 70
     1
102
RTVSPropertyOp14
 70
     1
102
RTVSPropertyOp15
 70
     1
102
RTVSPropertyOp16
 70
     1
102
RTVSPropertyOp17
 70
     1
102
RTVSPropertyOp18
 70
     1
102
RTVSPropertyOp19
 70
     1
102
RTVSPropertyOp20
 70
     1
102
RTVSPropertyOp21
 70
     1
102
RTVSPropertyOp22
 70
     1
102
RTVSPropertyOp23
 70
     1
102
RTVSPropertyOp24
 70
     1
102
RTVSPropertyOp25
 70
     1
102
RTVSPropertyOp26
 70
     1
102
RTVSPropertyOp27
 70
     1
102
RTVSPropertyOp28
 70
     1
102
RTVSPropertyOp29
 70
     1
102
RTVSPropertyOp30
 70
     1
102
RTVSPropertyOp31
 70
     1
102
RTVSPropertyOp32
 70
     1
102
RTVSPropertyOp33
 70
     1
102
RTVSPropertyOp34
 70
     1
102
RTVSPropertyOp35
 70
     1
102
RTVSPropertyOp36
 70
     1
102
RTVSPropertyOp37
 70
     1
102
RTVSPropertyOp38
 70
     1
102
RTVSPropertyOp39
 70
     1
102
RTVSPropertyOp40
 70
     1
102
RTVSPropertyOp41
 70
     1
102
RTVSPropertyOp42
 70
     1
102
RTVSPropertyOp43
 70
     1
102
RTVSPropertyOp44
 70
     1
102
RTVSPropertyOp45
 70
     1
102
RTVSPropertyOp46
 70
     1
102
RTVSPropertyOp47
 70
     1
102
RTVSPropertyOp48
 70
     1
102
RTVSPropertyOp49
 70
     1
102
RTVSPropertyOp50
 70
     1
102
RTVSPropertyOp51
 70
     0
102
RTVSPropertyOp52
 70
     0
102
RTVSPropertyOp53
 70
     1
102
RTVSPropertyOp54
 70
     1
102
RTVSPropertyOp55
 70
     1
102
RTVSPropertyOp56
 70
     1
102
RTVSPropertyOp57
 70
     1
102
RTVSPropertyOp58
 70
     1
102
RTVSPropertyOp59
 70
     1
102
RTVSPropertyOp60
 70
     1
102
RTVSPropertyOp61
 70
     1
102
RTVSPropertyOp62
 70
     1
  0
XRECORD
  5
3B1
102
{ACAD_REACTORS
330
3B0
102
}
330
3B0
100
AcDbXrecord
280
     1
102
RTVSPost2010Prop28
280
     0
102
RTVSPost2010PropOp28
 70
     1
102
RTVSPost2010Prop29
280
     1
102
RTVSPost2010PropOp29
 70
     1
102
RTVSPost2010Prop30
280
     1
102
RTVSPost2010PropOp30
 70
     1
102
RTVSPost2010Prop31
280
     0
102
RTVSPost2010PropOp31
 70
     1
102
RTVSPost2010Prop32
280
     0
102
RTVSPost2010PropOp32
 70
     1
102
RTVSPost2010Prop33
280
     0
102
RTVSPost2010PropOp33
 70
     1
102
RTVSPost2010Prop34
280
     0
102
RTVSPost2010PropOp34
 70
     1
102
RTVSPost2010Prop35
280
     0
102
RTVSPost2010PropOp35
 70
     1
102
RTVSPost2010Prop36
280
     0
102
RTVSPost2010PropOp36
 70
     1
102
RTVSPost2010Prop37
 90
       50
102
RTVSPost2010PropOp37
 70
     1
102
RTVSPost2010Prop38
140
0.0
102
RTVSPost2010PropOp38
 70
     1
102
RTVSPost2010Prop39
140
1.0
102
RTVSPost2010PropOp39
 70
     1
102
RTVSPost2010Prop40
 90
        0
102
RTVSPost2010PropOp40
 70
     1
102
RTVSPost2010Prop41ColorIndex
 90
       18
102
RTVSPost2010Prop41ColorRGB
 90
        0
102
RTVSPost2010PropOp41
 70
     1
102
RTVSPost2010Prop42
 90
       50
102
RTVSPost2010PropOp42
 70
     1
102
RTVSPost2010Prop43
 90
        3
102
RTVSPost2010PropOp43
 70
     1
102
RTVSPost2010Prop44ColorIndex
 90
        5
102
RTVSPost2010Prop44ColorRGB
 90
      255
102
RTVSPost2010PropOp44
 70
     1
102
RTVSPost2010Prop45
280
     0
102
RTVSPost2010PropOp45
 70
     1
102
RTVSPost2010Prop46
 90
       50
102
RTVSPost2010PropOp46
 70
     1
102
RTVSPost2010Prop47
 90
       50
102
RTVSPost2010PropOp47
 70
     1
102
RTVSPost2010Prop48
 90
       50
102
RTVSPost2010PropOp48
 70
     1
102
RTVSPost2010Prop49
280
     0
102
RTVSPost2010PropOp49
 70
     1
102
RTVSPost2010Prop50
 90
       50
102
RTVSPost2010PropOp50
 70
     1
102
RTVSPost2010Prop51ColorIndex
 90
      256
102
RTVSPost2010Prop51ColorRGB
 90
-16777216
102
RTVSPost2010PropOp51
 70
     0
102
RTVSPost2010Prop52
140
1.0
102
RTVSPost2010PropOp52
 70
     0
102
RTVSPost2010Prop53
 90
        2
102
RTVSPost2010PropOp53
 70
     1
102
RTVSPost2010Prop54
  1
strokes_ogs.tif
102
RTVSPost2010PropOp54
 70
     1
102
RTVSPost2010Prop55
280
     0
102
RTVSPost2010PropOp55
 70
     1
102
RTVSPost2010Prop56
140
1.0
102
RTVSPost2010PropOp56
 70
     1
102
RTVSPost2010Prop57
140
1.0
102
RTVSPost2010PropOp57
 70
     1
102
RTVSPropertyOp0
 70
     1
102
RTVSPropertyOp1
 70
     1
102
RTVSPropertyOp2
 70
     1
102
RTVSPropertyOp3
 70
     1
102
RTVSPropertyOp4
 70
     1
102
RTVSPropertyOp5
 70
     1
102
RTVSPropertyOp6
 70
     1
102
RTVSPropertyOp7
 70
     1
102
RTVSPropertyOp8
 70
     1
102
RTVSPropertyOp9
 70
     1
102
RTVSPropertyOp10
 70
     1
102
RTVSPropertyOp11
 70
     1
102
RTVSPropertyOp12
 70
     1
102
RTVSPropertyOp13
 70
     1
102
RTVSPropertyOp14
 70
     1
102
RTVSPropertyOp15
 70
     1
102
RTVSPropertyOp16
 70
     1
102
RTVSPropertyOp17
 70
     1
102
RTVSPropertyOp18
 70
     1
102
RTVSPropertyOp19
 70
     1
102
RTVSPropertyOp20
 70
     1
102
RTVSPropertyOp21
 70
     1
102
RTVSPropertyOp22
 70
     1
102
RTVSPropertyOp23
 70
     1
102
RTVSPropertyOp24
 70
     1
102
RTVSPropertyOp25
 70
     1
102
RTVSPropertyOp26
 70
     1
102
RTVSPropertyOp27
 70
     1
102
RTVSPropertyOp28
 70
     1
102
RTVSPropertyOp29
 70
     1
102
RTVSPropertyOp30
 70
     1
102
RTVSPropertyOp31
 70
     1
102
RTVSPropertyOp32
 70
     1
102
RTVSPropertyOp33
 70
     1
102
RTVSPropertyOp34
 70
     1
102
RTVSPropertyOp35
 70
     1
102
RTVSPropertyOp36
 70
     1
102
RTVSPropertyOp37
 70
     1
102
RTVSPropertyOp38
 70
     1
102
RTVSPropertyOp39
 70
     1
102
RTVSPropertyOp40
 70
     1
102
RTVSPropertyOp41
 70
     1
102
RTVSPropertyOp42
 70
     1
102
RTVSPropertyOp43
 70
     1
102
RTVSPropertyOp44
 70
     1
102
RTVSPropertyOp45
 70
     1
102
RTVSPropertyOp46
 70
     1
102
RTVSPropertyOp47
 70
     1
102
RTVSPropertyOp48
 70
     1
102
RTVSPropertyOp49
 70
     1
102
RTVSPropertyOp50
 70
     1
102
RTVSPropertyOp51
 70
     0
102
RTVSPropertyOp52
 70
     0
102
RTVSPropertyOp53
 70
     1
102
RTVSPropertyOp54
 70
     1
102
RTVSPropertyOp55
 70
     1
102
RTVSPropertyOp56
 70
     1
102
RTVSPropertyOp57
 70
     1
102
RTVSPropertyOp58
 70
     1
102
RTVSPropertyOp59
 70
     1
102
RTVSPropertyOp60
 70
     1
102
RTVSPropertyOp61
 70
     1
102
RTVSPropertyOp62
 70
     1
  0
XRECORD
  5
3AB
102
{ACAD_REACTORS
330
3AA
102
}
330
3AA
100
AcDbXrecord
280
     1
102
RTVSPost2010Prop28
280
     0
102
RTVSPost2010PropOp28
 70
     1
102
RTVSPost2010Prop29
280
     1
102
RTVSPost2010PropOp29
 70
     1
102
RTVSPost2010Prop30
280
     1
102
RTVSPost2010PropOp30
 70
     1
102
RTVSPost2010Prop31
280
     0
102
RTVSPost2010PropOp31
 70
     1
102
RTVSPost2010Prop32
280
     0
102
RTVSPost2010PropOp32
 70
     1
102
RTVSPost2010Prop33
280
     0
102
RTVSPost2010PropOp33
 70
     1
102
RTVSPost2010Prop34
280
     0
102
RTVSPost2010PropOp34
 70
     1
102
RTVSPost2010Prop35
280
     0
102
RTVSPost2010PropOp35
 70
     1
102
RTVSPost2010Prop36
280
     0
102
RTVSPost2010PropOp36
 70
     1
102
RTVSPost2010Prop37
 90
       50
102
RTVSPost2010PropOp37
 70
     1
102
RTVSPost2010Prop38
140
0.0
102
RTVSPost2010PropOp38
 70
     1
102
RTVSPost2010Prop39
140
1.0
102
RTVSPost2010PropOp39
 70
     1
102
RTVSPost2010Prop40
 90
        0
102
RTVSPost2010PropOp40
 70
     1
102
RTVSPost2010Prop41ColorIndex
 90
       18
102
RTVSPost2010Prop41ColorRGB
 90
        0
102
RTVSPost2010PropOp41
 70
     1
102
RTVSPost2010Prop42
 90
       50
102
RTVSPost2010PropOp42
 70
     1
102
RTVSPost2010Prop43
 90
        3
102
RTVSPost2010PropOp43
 70
     1
102
RTVSPost2010Prop44ColorIndex
 90
        5
102
RTVSPost2010Prop44ColorRGB
 90
      255
102
RTVSPost2010PropOp44
 70
     1
102
RTVSPost2010Prop45
280
     0
102
RTVSPost2010PropOp45
 70
     1
102
RTVSPost2010Prop46
 90
       50
102
RTVSPost2010PropOp46
 70
     1
102
RTVSPost2010Prop47
 90
       50
102
RTVSPost2010PropOp47
 70
     1
102
RTVSPost2010Prop48
 90
       50
102
RTVSPost2010PropOp48
 70
     1
102
RTVSPost2010Prop49
280
     0
102
RTVSPost2010PropOp49
 70
     1
102
RTVSPost2010Prop50
 90
       50
102
RTVSPost2010PropOp50
 70
     1
102
RTVSPost2010Prop51ColorIndex
 90
      256
102
RTVSPost2010Prop51ColorRGB
 90
-16777216
102
RTVSPost2010PropOp51
 70
     0
102
RTVSPost2010Prop52
140
1.0
102
RTVSPost2010PropOp52
 70
     0
102
RTVSPost2010Prop53
 90
        2
102
RTVSPost2010PropOp53
 70
     1
102
RTVSPost2010Prop54
  1
strokes_ogs.tif
102
RTVSPost2010PropOp54
 70
     1
102
RTVSPost2010Prop55
280
     0
102
RTVSPost2010PropOp55
 70
     1
102
RTVSPost2010Prop56
140
1.0
102
RTVSPost2010PropOp56
 70
     1
102
RTVSPost2010Prop57
140
1.0
102
RTVSPost2010PropOp57
 70
     1
102
RTVSPropertyOp0
 70
     1
102
RTVSPropertyOp1
 70
     1
102
RTVSPropertyOp2
 70
     1
102
RTVSPropertyOp3
 70
     1
102
RTVSPropertyOp4
 70
     1
102
RTVSPropertyOp5
 70
     1
102
RTVSPropertyOp6
 70
     1
102
RTVSPropertyOp7
 70
     1
102
RTVSPropertyOp8
 70
     1
102
RTVSPropertyOp9
 70
     1
102
RTVSPropertyOp10
 70
     1
102
RTVSPropertyOp11
 70
     1
102
RTVSPropertyOp12
 70
     1
102
RTVSPropertyOp13
 70
     1
102
RTVSPropertyOp14
 70
     1
102
RTVSPropertyOp15
 70
     1
102
RTVSPropertyOp16
 70
     1
102
RTVSPropertyOp17
 70
     1
102
RTVSPropertyOp18
 70
     1
102
RTVSPropertyOp19
 70
     1
102
RTVSPropertyOp20
 70
     1
102
RTVSPropertyOp21
 70
     1
102
RTVSPropertyOp22
 70
     1
102
RTVSPropertyOp23
 70
     1
102
RTVSPropertyOp24
 70
     1
102
RTVSPropertyOp25
 70
     1
102
RTVSPropertyOp26
 70
     1
102
RTVSPropertyOp27
 70
     1
102
RTVSPropertyOp28
 70
     1
102
RTVSPropertyOp29
 70
     1
102
RTVSPropertyOp30
 70
     1
102
RTVSPropertyOp31
 70
     1
102
RTVSPropertyOp32
 70
     1
102
RTVSPropertyOp33
 70
     1
102
RTVSPropertyOp34
 70
     1
102
RTVSPropertyOp35
 70
     1
102
RTVSPropertyOp36
 70
     1
102
RTVSPropertyOp37
 70
     1
102
RTVSPropertyOp38
 70
     1
102
RTVSPropertyOp39
 70
     1
102
RTVSPropertyOp40
 70
     1
102
RTVSPropertyOp41
 70
     1
102
RTVSPropertyOp42
 70
     1
102
RTVSPropertyOp43
 70
     1
102
RTVSPropertyOp44
 70
     1
102
RTVSPropertyOp45
 70
     1
102
RTVSPropertyOp46
 70
     1
102
RTVSPropertyOp47
 70
     1
102
RTVSPropertyOp48
 70
     1
102
RTVSPropertyOp49
 70
     1
102
RTVSPropertyOp50
 70
     1
102
RTVSPropertyOp51
 70
     0
102
RTVSPropertyOp52
 70
     0
102
RTVSPropertyOp53
 70
     1
102
RTVSPropertyOp54
 70
     1
102
RTVSPropertyOp55
 70
     1
102
RTVSPropertyOp56
 70
     1
102
RTVSPropertyOp57
 70
     1
102
RTVSPropertyOp58
 70
     1
102
RTVSPropertyOp59
 70
     1
102
RTVSPropertyOp60
 70
     1
102
RTVSPropertyOp61
 70
     1
102
RTVSPropertyOp62
 70
     1
  0
XRECORD
  5
3AD
102
{ACAD_REACTORS
330
3AC
102
}
330
3AC
100
AcDbXrecord
280
     1
102
RTVSPost2010Prop28
280
     0
102
RTVSPost2010PropOp28
 70
     1
102
RTVSPost2010Prop29
280
     1
102
RTVSPost2010PropOp29
 70
     1
102
RTVSPost2010Prop30
280
     1
102
RTVSPost2010PropOp30
 70
     1
102
RTVSPost2010Prop31
280
     0
102
RTVSPost2010PropOp31
 70
     1
102
RTVSPost2010Prop32
280
     0
102
RTVSPost2010PropOp32
 70
     1
102
RTVSPost2010Prop33
280
     0
102
RTVSPost2010PropOp33
 70
     1
102
RTVSPost2010Prop34
280
     0
102
RTVSPost2010PropOp34
 70
     1
102
RTVSPost2010Prop35
280
     0
102
RTVSPost2010PropOp35
 70
     1
102
RTVSPost2010Prop36
280
     0
102
RTVSPost2010PropOp36
 70
     1
102
RTVSPost2010Prop37
 90
       50
102
RTVSPost2010PropOp37
 70
     1
102
RTVSPost2010Prop38
140
0.0
102
RTVSPost2010PropOp38
 70
     1
102
RTVSPost2010Prop39
140
1.0
102
RTVSPost2010PropOp39
 70
     1
102
RTVSPost2010Prop40
 90
        0
102
RTVSPost2010PropOp40
 70
     1
102
RTVSPost2010Prop41ColorIndex
 90
       18
102
RTVSPost2010Prop41ColorRGB
 90
        0
102
RTVSPost2010PropOp41
 70
     1
102
RTVSPost2010Prop42
 90
       50
102
RTVSPost2010PropOp42
 70
     1
102
RTVSPost2010Prop43
 90
        3
102
RTVSPost2010PropOp43
 70
     1
102
RTVSPost2010Prop44ColorIndex
 90
        5
102
RTVSPost2010Prop44ColorRGB
 90
      255
102
RTVSPost2010PropOp44
 70
     1
102
RTVSPost2010Prop45
280
     0
102
RTVSPost2010PropOp45
 70
     1
102
RTVSPost2010Prop46
 90
       50
102
RTVSPost2010PropOp46
 70
     1
102
RTVSPost2010Prop47
 90
       50
102
RTVSPost2010PropOp47
 70
     1
102
RTVSPost2010Prop48
 90
       50
102
RTVSPost2010PropOp48
 70
     1
102
RTVSPost2010Prop49
280
     0
102
RTVSPost2010PropOp49
 70
     1
102
RTVSPost2010Prop50
 90
       50
102
RTVSPost2010PropOp50
 70
     1
102
RTVSPost2010Prop51ColorIndex
 90
      256
102
RTVSPost2010Prop51ColorRGB
 90
-16777216
102
RTVSPost2010PropOp51
 70
     0
102
RTVSPost2010Prop52
140
1.0
102
RTVSPost2010PropOp52
 70
     0
102
RTVSPost2010Prop53
 90
        2
102
RTVSPost2010PropOp53
 70
     1
102
RTVSPost2010Prop54
  1
strokes_ogs.tif
102
RTVSPost2010PropOp54
 70
     1
102
RTVSPost2010Prop55
280
     0
102
RTVSPost2010PropOp55
 70
     1
102
RTVSPost2010Prop56
140
1.0
102
RTVSPost2010PropOp56
 70
     1
102
RTVSPost2010Prop57
140
1.0
102
RTVSPost2010PropOp57
 70
     1
102
RTVSPropertyOp0
 70
     1
102
RTVSPropertyOp1
 70
     1
102
RTVSPropertyOp2
 70
     1
102
RTVSPropertyOp3
 70
     1
102
RTVSPropertyOp4
 70
     1
102
RTVSPropertyOp5
 70
     1
102
RTVSPropertyOp6
 70
     1
102
RTVSPropertyOp7
 70
     1
102
RTVSPropertyOp8
 70
     1
102
RTVSPropertyOp9
 70
     1
102
RTVSPropertyOp10
 70
     1
102
RTVSPropertyOp11
 70
     1
102
RTVSPropertyOp12
 70
     1
102
RTVSPropertyOp13
 70
     1
102
RTVSPropertyOp14
 70
     1
102
RTVSPropertyOp15
 70
     1
102
RTVSPropertyOp16
 70
     1
102
RTVSPropertyOp17
 70
     1
102
RTVSPropertyOp18
 70
     1
102
RTVSPropertyOp19
 70
     1
102
RTVSPropertyOp20
 70
     1
102
RTVSPropertyOp21
 70
     1
102
RTVSPropertyOp22
 70
     1
102
RTVSPropertyOp23
 70
     1
102
RTVSPropertyOp24
 70
     1
102
RTVSPropertyOp25
 70
     1
102
RTVSPropertyOp26
 70
     1
102
RTVSPropertyOp27
 70
     1
102
RTVSPropertyOp28
 70
     1
102
RTVSPropertyOp29
 70
     1
102
RTVSPropertyOp30
 70
     1
102
RTVSPropertyOp31
 70
     1
102
RTVSPropertyOp32
 70
     1
102
RTVSPropertyOp33
 70
     1
102
RTVSPropertyOp34
 70
     1
102
RTVSPropertyOp35
 70
     1
102
RTVSPropertyOp36
 70
     1
102
RTVSPropertyOp37
 70
     1
102
RTVSPropertyOp38
 70
     1
102
RTVSPropertyOp39
 70
     1
102
RTVSPropertyOp40
 70
     1
102
RTVSPropertyOp41
 70
     1
102
RTVSPropertyOp42
 70
     1
102
RTVSPropertyOp43
 70
     1
102
RTVSPropertyOp44
 70
     1
102
RTVSPropertyOp45
 70
     1
102
RTVSPropertyOp46
 70
     1
102
RTVSPropertyOp47
 70
     1
102
RTVSPropertyOp48
 70
     1
102
RTVSPropertyOp49
 70
     1
102
RTVSPropertyOp50
 70
     1
102
RTVSPropertyOp51
 70
     0
102
RTVSPropertyOp52
 70
     0
102
RTVSPropertyOp53
 70
     1
102
RTVSPropertyOp54
 70
     1
102
RTVSPropertyOp55
 70
     1
102
RTVSPropertyOp56
 70
     1
102
RTVSPropertyOp57
 70
     1
102
RTVSPropertyOp58
 70
     1
102
RTVSPropertyOp59
 70
     1
102
RTVSPropertyOp60
 70
     1
102
RTVSPropertyOp61
 70
     1
102
RTVSPropertyOp62
 70
     1
  0
XRECORD
  5
3A3
102
{ACAD_REACTORS
330
3A2
102
}
330
3A2
100
AcDbXrecord
280
     1
102
RTVSPost2010Prop28
280
     0
102
RTVSPost2010PropOp28
 70
     1
102
RTVSPost2010Prop29
280
     1
102
RTVSPost2010PropOp29
 70
     1
102
RTVSPost2010Prop30
280
     1
102
RTVSPost2010PropOp30
 70
     1
102
RTVSPost2010Prop31
280
     0
102
RTVSPost2010PropOp31
 70
     1
102
RTVSPost2010Prop32
280
     0
102
RTVSPost2010PropOp32
 70
     1
102
RTVSPost2010Prop33
280
     0
102
RTVSPost2010PropOp33
 70
     1
102
RTVSPost2010Prop34
280
     0
102
RTVSPost2010PropOp34
 70
     1
102
RTVSPost2010Prop35
280
     0
102
RTVSPost2010PropOp35
 70
     1
102
RTVSPost2010Prop36
280
     0
102
RTVSPost2010PropOp36
 70
     1
102
RTVSPost2010Prop37
 90
       50
102
RTVSPost2010PropOp37
 70
     1
102
RTVSPost2010Prop38
140
0.0
102
RTVSPost2010PropOp38
 70
     1
102
RTVSPost2010Prop39
140
1.0
102
RTVSPost2010PropOp39
 70
     1
102
RTVSPost2010Prop40
 90
        0
102
RTVSPost2010PropOp40
 70
     1
102
RTVSPost2010Prop41ColorIndex
 90
       18
102
RTVSPost2010Prop41ColorRGB
 90
        0
102
RTVSPost2010PropOp41
 70
     1
102
RTVSPost2010Prop42
 90
       50
102
RTVSPost2010PropOp42
 70
     1
102
RTVSPost2010Prop43
 90
        3
102
RTVSPost2010PropOp43
 70
     1
102
RTVSPost2010Prop44ColorIndex
 90
        5
102
RTVSPost2010Prop44ColorRGB
 90
      255
102
RTVSPost2010PropOp44
 70
     1
102
RTVSPost2010Prop45
280
     0
102
RTVSPost2010PropOp45
 70
     1
102
RTVSPost2010Prop46
 90
       50
102
RTVSPost2010PropOp46
 70
     1
102
RTVSPost2010Prop47
 90
       50
102
RTVSPost2010PropOp47
 70
     1
102
RTVSPost2010Prop48
 90
       50
102
RTVSPost2010PropOp48
 70
     1
102
RTVSPost2010Prop49
280
     0
102
RTVSPost2010PropOp49
 70
     1
102
RTVSPost2010Prop50
 90
       50
102
RTVSPost2010PropOp50
 70
     1
102
RTVSPost2010Prop51ColorIndex
 90
      256
102
RTVSPost2010Prop51ColorRGB
 90
-16777216
102
RTVSPost2010PropOp51
 70
     0
102
RTVSPost2010Prop52
140
1.0
102
RTVSPost2010PropOp52
 70
     0
102
RTVSPost2010Prop53
 90
        2
102
RTVSPost2010PropOp53
 70
     1
102
RTVSPost2010Prop54
  1
strokes_ogs.tif
102
RTVSPost2010PropOp54
 70
     1
102
RTVSPost2010Prop55
280
     0
102
RTVSPost2010PropOp55
 70
     1
102
RTVSPost2010Prop56
140
1.0
102
RTVSPost2010PropOp56
 70
     1
102
RTVSPost2010Prop57
140
1.0
102
RTVSPost2010PropOp57
 70
     1
102
RTVSPropertyOp0
 70
     1
102
RTVSPropertyOp1
 70
     1
102
RTVSPropertyOp2
 70
     1
102
RTVSPropertyOp3
 70
     1
102
RTVSPropertyOp4
 70
     1
102
RTVSPropertyOp5
 70
     1
102
RTVSPropertyOp6
 70
     1
102
RTVSPropertyOp7
 70
     1
102
RTVSPropertyOp8
 70
     1
102
RTVSPropertyOp9
 70
     1
102
RTVSPropertyOp10
 70
     1
102
RTVSPropertyOp11
 70
     1
102
RTVSPropertyOp12
 70
     1
102
RTVSPropertyOp13
 70
     1
102
RTVSPropertyOp14
 70
     1
102
RTVSPropertyOp15
 70
     1
102
RTVSPropertyOp16
 70
     1
102
RTVSPropertyOp17
 70
     1
102
RTVSPropertyOp18
 70
     1
102
RTVSPropertyOp19
 70
     1
102
RTVSPropertyOp20
 70
     1
102
RTVSPropertyOp21
 70
     1
102
RTVSPropertyOp22
 70
     1
102
RTVSPropertyOp23
 70
     1
102
RTVSPropertyOp24
 70
     1
102
RTVSPropertyOp25
 70
     1
102
RTVSPropertyOp26
 70
     1
102
RTVSPropertyOp27
 70
     1
102
RTVSPropertyOp28
 70
     1
102
RTVSPropertyOp29
 70
     1
102
RTVSPropertyOp30
 70
     1
102
RTVSPropertyOp31
 70
     1
102
RTVSPropertyOp32
 70
     1
102
RTVSPropertyOp33
 70
     1
102
RTVSPropertyOp34
 70
     1
102
RTVSPropertyOp35
 70
     1
102
RTVSPropertyOp36
 70
     1
102
RTVSPropertyOp37
 70
     1
102
RTVSPropertyOp38
 70
     1
102
RTVSPropertyOp39
 70
     1
102
RTVSPropertyOp40
 70
     1
102
RTVSPropertyOp41
 70
     1
102
RTVSPropertyOp42
 70
     1
102
RTVSPropertyOp43
 70
     1
102
RTVSPropertyOp44
 70
     1
102
RTVSPropertyOp45
 70
     1
102
RTVSPropertyOp46
 70
     1
102
RTVSPropertyOp47
 70
     1
102
RTVSPropertyOp48
 70
     1
102
RTVSPropertyOp49
 70
     1
102
RTVSPropertyOp50
 70
     1
102
RTVSPropertyOp51
 70
     0
102
RTVSPropertyOp52
 70
     0
102
RTVSPropertyOp53
 70
     1
102
RTVSPropertyOp54
 70
     1
102
RTVSPropertyOp55
 70
     1
102
RTVSPropertyOp56
 70
     1
102
RTVSPropertyOp57
 70
     1
102
RTVSPropertyOp58
 70
     1
102
RTVSPropertyOp59
 70
     1
102
RTVSPropertyOp60
 70
     1
102
RTVSPropertyOp61
 70
     1
102
RTVSPropertyOp62
 70
     1
  0
XRECORD
  5
397
102
{ACAD_REACTORS
330
396
102
}
330
396
100
AcDbXrecord
280
     1
102
RTVSPost2010Prop28
280
     0
102
RTVSPost2010PropOp28
 70
     1
102
RTVSPost2010Prop29
280
     1
102
RTVSPost2010PropOp29
 70
     1
102
RTVSPost2010Prop30
280
     1
102
RTVSPost2010PropOp30
 70
     1
102
RTVSPost2010Prop31
280
     0
102
RTVSPost2010PropOp31
 70
     1
102
RTVSPost2010Prop32
280
     0
102
RTVSPost2010PropOp32
 70
     1
102
RTVSPost2010Prop33
280
     0
102
RTVSPost2010PropOp33
 70
     1
102
RTVSPost2010Prop34
280
     0
102
RTVSPost2010PropOp34
 70
     1
102
RTVSPost2010Prop35
280
     0
102
RTVSPost2010PropOp35
 70
     1
102
RTVSPost2010Prop36
280
     0
102
RTVSPost2010PropOp36
 70
     1
102
RTVSPost2010Prop37
 90
       50
102
RTVSPost2010PropOp37
 70
     1
102
RTVSPost2010Prop38
140
0.0
102
RTVSPost2010PropOp38
 70
     1
102
RTVSPost2010Prop39
140
1.0
102
RTVSPost2010PropOp39
 70
     1
102
RTVSPost2010Prop40
 90
        0
102
RTVSPost2010PropOp40
 70
     1
102
RTVSPost2010Prop41ColorIndex
 90
       18
102
RTVSPost2010Prop41ColorRGB
 90
        0
102
RTVSPost2010PropOp41
 70
     1
102
RTVSPost2010Prop42
 90
       50
102
RTVSPost2010PropOp42
 70
     1
102
RTVSPost2010Prop43
 90
        3
102
RTVSPost2010PropOp43
 70
     1
102
RTVSPost2010Prop44ColorIndex
 90
        5
102
RTVSPost2010Prop44ColorRGB
 90
      255
102
RTVSPost2010PropOp44
 70
     1
102
RTVSPost2010Prop45
280
     0
102
RTVSPost2010PropOp45
 70
     1
102
RTVSPost2010Prop46
 90
       50
102
RTVSPost2010PropOp46
 70
     1
102
RTVSPost2010Prop47
 90
       50
102
RTVSPost2010PropOp47
 70
     1
102
RTVSPost2010Prop48
 90
       50
102
RTVSPost2010PropOp48
 70
     1
102
RTVSPost2010Prop49
280
     0
102
RTVSPost2010PropOp49
 70
     1
102
RTVSPost2010Prop50
 90
       50
102
RTVSPost2010PropOp50
 70
     1
102
RTVSPost2010Prop51ColorIndex
 90
      256
102
RTVSPost2010Prop51ColorRGB
 90
-16777216
102
RTVSPost2010PropOp51
 70
     0
102
RTVSPost2010Prop52
140
1.0
102
RTVSPost2010PropOp52
 70
     0
102
RTVSPost2010Prop53
 90
        2
102
RTVSPost2010PropOp53
 70
     1
102
RTVSPost2010Prop54
  1
strokes_ogs.tif
102
RTVSPost2010PropOp54
 70
     1
102
RTVSPost2010Prop55
280
     0
102
RTVSPost2010PropOp55
 70
     1
102
RTVSPost2010Prop56
140
1.0
102
RTVSPost2010PropOp56
 70
     1
102
RTVSPost2010Prop57
140
1.0
102
RTVSPost2010PropOp57
 70
     1
102
RTVSPropertyOp0
 70
     1
102
RTVSPropertyOp1
 70
     1
102
RTVSPropertyOp2
 70
     1
102
RTVSPropertyOp3
 70
     1
102
RTVSPropertyOp4
 70
     1
102
RTVSPropertyOp5
 70
     1
102
RTVSPropertyOp6
 70
     1
102
RTVSPropertyOp7
 70
     1
102
RTVSPropertyOp8
 70
     1
102
RTVSPropertyOp9
 70
     1
102
RTVSPropertyOp10
 70
     1
102
RTVSPropertyOp11
 70
     1
102
RTVSPropertyOp12
 70
     1
102
RTVSPropertyOp13
 70
     1
102
RTVSPropertyOp14
 70
     1
102
RTVSPropertyOp15
 70
     1
102
RTVSPropertyOp16
 70
     1
102
RTVSPropertyOp17
 70
     1
102
RTVSPropertyOp18
 70
     1
102
RTVSPropertyOp19
 70
     1
102
RTVSPropertyOp20
 70
     1
102
RTVSPropertyOp21
 70
     1
102
RTVSPropertyOp22
 70
     1
102
RTVSPropertyOp23
 70
     1
102
RTVSPropertyOp24
 70
     1
102
RTVSPropertyOp25
 70
     1
102
RTVSPropertyOp26
 70
     1
102
RTVSPropertyOp27
 70
     1
102
RTVSPropertyOp28
 70
     1
102
RTVSPropertyOp29
 70
     1
102
RTVSPropertyOp30
 70
     1
102
RTVSPropertyOp31
 70
     1
102
RTVSPropertyOp32
 70
     1
102
RTVSPropertyOp33
 70
     1
102
RTVSPropertyOp34
 70
     1
102
RTVSPropertyOp35
 70
     1
102
RTVSPropertyOp36
 70
     1
102
RTVSPropertyOp37
 70
     1
102
RTVSPropertyOp38
 70
     1
102
RTVSPropertyOp39
 70
     1
102
RTVSPropertyOp40
 70
     1
102
RTVSPropertyOp41
 70
     1
102
RTVSPropertyOp42
 70
     1
102
RTVSPropertyOp43
 70
     1
102
RTVSPropertyOp44
 70
     1
102
RTVSPropertyOp45
 70
     1
102
RTVSPropertyOp46
 70
     1
102
RTVSPropertyOp47
 70
     1
102
RTVSPropertyOp48
 70
     1
102
RTVSPropertyOp49
 70
     1
102
RTVSPropertyOp50
 70
     1
102
RTVSPropertyOp51
 70
     0
102
RTVSPropertyOp52
 70
     0
102
RTVSPropertyOp53
 70
     1
102
RTVSPropertyOp54
 70
     1
102
RTVSPropertyOp55
 70
     1
102
RTVSPropertyOp56
 70
     1
102
RTVSPropertyOp57
 70
     1
102
RTVSPropertyOp58
 70
     1
102
RTVSPropertyOp59
 70
     1
102
RTVSPropertyOp60
 70
     1
102
RTVSPropertyOp61
 70
     1
102
RTVSPropertyOp62
 70
     1
  0
XRECORD
  5
3AF
102
{ACAD_REACTORS
330
3AE
102
}
330
3AE
100
AcDbXrecord
280
     1
102
RTVSPost2010Prop28
280
     0
102
RTVSPost2010PropOp28
 70
     1
102
RTVSPost2010Prop29
280
     1
102
RTVSPost2010PropOp29
 70
     1
102
RTVSPost2010Prop30
280
     1
102
RTVSPost2010PropOp30
 70
     1
102
RTVSPost2010Prop31
280
     0
102
RTVSPost2010PropOp31
 70
     1
102
RTVSPost2010Prop32
280
     0
102
RTVSPost2010PropOp32
 70
     1
102
RTVSPost2010Prop33
280
     0
102
RTVSPost2010PropOp33
 70
     1
102
RTVSPost2010Prop34
280
     0
102
RTVSPost2010PropOp34
 70
     1
102
RTVSPost2010Prop35
280
     0
102
RTVSPost2010PropOp35
 70
     1
102
RTVSPost2010Prop36
280
     0
102
RTVSPost2010PropOp36
 70
     1
102
RTVSPost2010Prop37
 90
       50
102
RTVSPost2010PropOp37
 70
     1
102
RTVSPost2010Prop38
140
0.0
102
RTVSPost2010PropOp38
 70
     1
102
RTVSPost2010Prop39
140
1.0
102
RTVSPost2010PropOp39
 70
     1
102
RTVSPost2010Prop40
 90
        0
102
RTVSPost2010PropOp40
 70
     1
102
RTVSPost2010Prop41ColorIndex
 90
       18
102
RTVSPost2010Prop41ColorRGB
 90
        0
102
RTVSPost2010PropOp41
 70
     1
102
RTVSPost2010Prop42
 90
       50
102
RTVSPost2010PropOp42
 70
     1
102
RTVSPost2010Prop43
 90
        3
102
RTVSPost2010PropOp43
 70
     1
102
RTVSPost2010Prop44ColorIndex
 90
        5
102
RTVSPost2010Prop44ColorRGB
 90
      255
102
RTVSPost2010PropOp44
 70
     1
102
RTVSPost2010Prop45
280
     0
102
RTVSPost2010PropOp45
 70
     1
102
RTVSPost2010Prop46
 90
       50
102
RTVSPost2010PropOp46
 70
     1
102
RTVSPost2010Prop47
 90
       50
102
RTVSPost2010PropOp47
 70
     1
102
RTVSPost2010Prop48
 90
       50
102
RTVSPost2010PropOp48
 70
     1
102
RTVSPost2010Prop49
280
     0
102
RTVSPost2010PropOp49
 70
     1
102
RTVSPost2010Prop50
 90
       50
102
RTVSPost2010PropOp50
 70
     1
102
RTVSPost2010Prop51ColorIndex
 90
      256
102
RTVSPost2010Prop51ColorRGB
 90
-16777216
102
RTVSPost2010PropOp51
 70
     0
102
RTVSPost2010Prop52
140
1.0
102
RTVSPost2010PropOp52
 70
     0
102
RTVSPost2010Prop53
 90
        2
102
RTVSPost2010PropOp53
 70
     1
102
RTVSPost2010Prop54
  1
strokes_ogs.tif
102
RTVSPost2010PropOp54
 70
     1
102
RTVSPost2010Prop55
280
     0
102
RTVSPost2010PropOp55
 70
     1
102
RTVSPost2010Prop56
140
1.0
102
RTVSPost2010PropOp56
 70
     1
102
RTVSPost2010Prop57
140
1.0
102
RTVSPost2010PropOp57
 70
     1
102
RTVSPropertyOp0
 70
     1
102
RTVSPropertyOp1
 70
     1
102
RTVSPropertyOp2
 70
     1
102
RTVSPropertyOp3
 70
     1
102
RTVSPropertyOp4
 70
     1
102
RTVSPropertyOp5
 70
     1
102
RTVSPropertyOp6
 70
     1
102
RTVSPropertyOp7
 70
     1
102
RTVSPropertyOp8
 70
     1
102
RTVSPropertyOp9
 70
     1
102
RTVSPropertyOp10
 70
     1
102
RTVSPropertyOp11
 70
     1
102
RTVSPropertyOp12
 70
     1
102
RTVSPropertyOp13
 70
     1
102
RTVSPropertyOp14
 70
     1
102
RTVSPropertyOp15
 70
     1
102
RTVSPropertyOp16
 70
     1
102
RTVSPropertyOp17
 70
     1
102
RTVSPropertyOp18
 70
     1
102
RTVSPropertyOp19
 70
     1
102
RTVSPropertyOp20
 70
     1
102
RTVSPropertyOp21
 70
     1
102
RTVSPropertyOp22
 70
     1
102
RTVSPropertyOp23
 70
     1
102
RTVSPropertyOp24
 70
     1
102
RTVSPropertyOp25
 70
     1
102
RTVSPropertyOp26
 70
     1
102
RTVSPropertyOp27
 70
     1
102
RTVSPropertyOp28
 70
     1
102
RTVSPropertyOp29
 70
     1
102
RTVSPropertyOp30
 70
     1
102
RTVSPropertyOp31
 70
     1
102
RTVSPropertyOp32
 70
     1
102
RTVSPropertyOp33
 70
     1
102
RTVSPropertyOp34
 70
     1
102
RTVSPropertyOp35
 70
     1
102
RTVSPropertyOp36
 70
     1
102
RTVSPropertyOp37
 70
     1
102
RTVSPropertyOp38
 70
     1
102
RTVSPropertyOp39
 70
     1
102
RTVSPropertyOp40
 70
     1
102
RTVSPropertyOp41
 70
     1
102
RTVSPropertyOp42
 70
     1
102
RTVSPropertyOp43
 70
     1
102
RTVSPropertyOp44
 70
     1
102
RTVSPropertyOp45
 70
     1
102
RTVSPropertyOp46
 70
     1
102
RTVSPropertyOp47
 70
     1
102
RTVSPropertyOp48
 70
     1
102
RTVSPropertyOp49
 70
     1
102
RTVSPropertyOp50
 70
     1
102
RTVSPropertyOp51
 70
     0
102
RTVSPropertyOp52
 70
     0
102
RTVSPropertyOp53
 70
     1
102
RTVSPropertyOp54
 70
     1
102
RTVSPropertyOp55
 70
     1
102
RTVSPropertyOp56
 70
     1
102
RTVSPropertyOp57
 70
     1
102
RTVSPropertyOp58
 70
     1
102
RTVSPropertyOp59
 70
     1
102
RTVSPropertyOp60
 70
     1
102
RTVSPropertyOp61
 70
     1
102
RTVSPropertyOp62
 70
     1
  0
ENDSEC
  0
EOF
