  0
SECTION
  2
HEADER
  9
$ACADVER
  1
AC1015
  9
$ACADMAINTVER
 70
    20
  9
$DWGCODEPAGE
  3
ANSI_1252
  9
$INSBASE
 10
0.0
 20
0.0
 30
0.0
  9
$EXTMIN
 10
-23.04802900000001
 20
-37.88656500000002
 30
0.0
  9
$EXTMAX
 10
33.0
 20
34.08275000000001
 30
0.0
  9
$LIMMIN
 10
0.0
 20
0.0
  9
$LIMMAX
 10
12.0
 20
9.0
  9
$ORTHOMODE
 70
     0
  9
$REGENMODE
 70
     1
  9
$FILLMODE
 70
     1
  9
$QTEXTMODE
 70
     0
  9
$MIRRTEXT
 70
     1
  9
$LTSCALE
 40
1.0
  9
$ATTMODE
 70
     1
  9
$TEXTSIZE
 40
3.0
  9
$TRACEWID
 40
10.0
  9
$TEXTSTYLE
  7
SANDVIK_STYLE
  9
$CLAYER
  8
1
  9
$CELTYPE
  6
ByLayer
  9
$CECOLOR
 62
   256
  9
$CELTSCALE
 40
1.0
  9
$DISPSILH
 70
     0
  9
$DIMSCALE
 40
1.0
  9
$DIMASZ
 40
0.18
  9
$DIMEXO
 40
0.0625
  9
$DIMDLI
 40
0.38
  9
$DIMRND
 40
0.0
  9
$DIMDLE
 40
0.0
  9
$DIMEXE
 40
0.18
  9
$DIMTP
 40
0.0
  9
$DIMTM
 40
0.0
  9
$DIMTXT
 40
0.18
  9
$DIMCEN
 40
0.09
  9
$DIMTSZ
 40
0.0
  9
$DIMTOL
 70
     0
  9
$DIMLIM
 70
     0
  9
$DIMTIH
 70
     1
  9
$DIMTOH
 70
     1
  9
$DIMSE1
 70
     0
  9
$DIMSE2
 70
     0
  9
$DIMTAD
 70
     0
  9
$DIMZIN
 70
     0
  9
$DIMBLK
  1

  9
$DIMASO
 70
     1
  9
$DIMSHO
 70
     1
  9
$DIMPOST
  1

  9
$DIMAPOST
  1

  9
$DIMALT
 70
     0
  9
$DIMALTD
 70
     2
  9
$DIMALTF
 40
25.4
  9
$DIMLFAC
 40
1.0
  9
$DIMTOFL
 70
     0
  9
$DIMTVP
 40
0.0
  9
$DIMTIX
 70
     0
  9
$DIMSOXD
 70
     0
  9
$DIMSAH
 70
     0
  9
$DIMBLK1
  1

  9
$DIMBLK2
  1

  9
$DIMSTYLE
  2
STANDARD
  9
$DIMCLRD
 70
     0
  9
$DIMCLRE
 70
     0
  9
$DIMCLRT
 70
     0
  9
$DIMTFAC
 40
1.0
  9
$DIMGAP
 40
0.09
  9
$DIMJUST
 70
     0
  9
$DIMSD1
 70
     0
  9
$DIMSD2
 70
     0
  9
$DIMTOLJ
 70
     1
  9
$DIMTZIN
 70
     0
  9
$DIMALTZ
 70
     0
  9
$DIMALTTZ
 70
     0
  9
$DIMUPT
 70
     0
  9
$DIMDEC
 70
     4
  9
$DIMTDEC
 70
     4
  9
$DIMALTU
 70
     2
  9
$DIMALTTD
 70
     2
  9
$DIMTXSTY
  7
STANDARD
  9
$DIMAUNIT
 70
     0
  9
$DIMADEC
 70
     0
  9
$DIMALTRND
 40
0.0
  9
$DIMAZIN
 70
     0
  9
$DIMDSEP
 70
    46
  9
$DIMATFIT
 70
     3
  9
$DIMFRAC
 70
     0
  9
$DIMLDRBLK
  1

  9
$DIMLUNIT
 70
     2
  9
$DIMLWD
 70
    -2
  9
$DIMLWE
 70
    -2
  9
$DIMTMOVE
 70
     0
  9
$LUNITS
 70
     2
  9
$LUPREC
 70
     2
  9
$SKETCHINC
 40
0.0
  9
$FILLETRAD
 40
0.0
  9
$AUNITS
 70
     0
  9
$AUPREC
 70
     2
  9
$MENU
  1
acad
  9
$ELEVATION
 40
0.0
  9
$PELEVATION
 40
0.0
  9
$THICKNESS
 40
0.0
  9
$LIMCHECK
 70
     0
  9
$CHAMFERA
 40
0.0
  9
$CHAMFERB
 40
0.0
  9
$CHAMFERC
 40
0.0
  9
$CHAMFERD
 40
0.0
  9
$SKPOLY
 70
     0
  9
$TDCREATE
 40
2456818.319482558
  9
$TDUCREATE
 40
2456818.236149224
  9
$TDUPDATE
 40
2456818.319486702
  9
$TDUUPDATE
 40
2456818.236153368
  9
$TDINDWG
 40
0.0000049074
  9
$TDUSRTIMER
 40
0.0000049074
  9
$USRTIMER
 70
     1
  9
$ANGBASE
 50
0.0
  9
$ANGDIR
 70
     0
  9
$PDMODE
 70
     0
  9
$PDSIZE
 40
0.0
  9
$PLINEWID
 40
0.0
  9
$SPLFRAME
 70
     0
  9
$SPLINETYPE
 70
     6
  9
$SPLINESEGS
 70
     8
  9
$HANDSEED
  5
681
  9
$SURFTAB1
 70
     6
  9
$SURFTAB2
 70
     6
  9
$SURFTYPE
 70
     6
  9
$SURFU
 70
     6
  9
$SURFV
 70
     6
  9
$UCSBASE
  2

  9
$UCSNAME
  2

  9
$UCSORG
 10
0.0
 20
0.0
 30
0.0
  9
$UCSXDIR
 10
1.0
 20
0.0
 30
0.0
  9
$UCSYDIR
 10
0.0
 20
1.0
 30
0.0
  9
$UCSORTHOREF
  2

  9
$UCSORTHOVIEW
 70
     0
  9
$UCSORGTOP
 10
0.0
 20
0.0
 30
0.0
  9
$UCSORGBOTTOM
 10
0.0
 20
0.0
 30
0.0
  9
$UCSORGLEFT
 10
0.0
 20
0.0
 30
0.0
  9
$UCSORGRIGHT
 10
0.0
 20
0.0
 30
0.0
  9
$UCSORGFRONT
 10
0.0
 20
0.0
 30
0.0
  9
$UCSORGBACK
 10
0.0
 20
0.0
 30
0.0
  9
$PUCSBASE
  2

  9
$PUCSNAME
  2

  9
$PUCSORG
 10
0.0
 20
0.0
 30
0.0
  9
$PUCSXDIR
 10
1.0
 20
0.0
 30
0.0
  9
$PUCSYDIR
 10
0.0
 20
1.0
 30
0.0
  9
$PUCSORTHOREF
  2

  9
$PUCSORTHOVIEW
 70
     0
  9
$PUCSORGTOP
 10
0.0
 20
0.0
 30
0.0
  9
$PUCSORGBOTTOM
 10
0.0
 20
0.0
 30
0.0
  9
$PUCSORGLEFT
 10
0.0
 20
0.0
 30
0.0
  9
$PUCSORGRIGHT
 10
0.0
 20
0.0
 30
0.0
  9
$PUCSORGFRONT
 10
0.0
 20
0.0
 30
0.0
  9
$PUCSORGBACK
 10
0.0
 20
0.0
 30
0.0
  9
$USERI1
 70
     0
  9
$USERI2
 70
     0
  9
$USERI3
 70
     0
  9
$USERI4
 70
     0
  9
$USERI5
 70
     0
  9
$USERR1
 40
0.0
  9
$USERR2
 40
0.0
  9
$USERR3
 40
0.0
  9
$USERR4
 40
0.0
  9
$USERR5
 40
0.0
  9
$WORLDVIEW
 70
     1
  9
$SHADEDGE
 70
     3
  9
$SHADEDIF
 70
    70
  9
$TILEMODE
 70
     1
  9
$MAXACTVP
 70
    16
  9
$PINSBASE
 10
0.0
 20
0.0
 30
0.0
  9
$PLIMCHECK
 70
     0
  9
$PEXTMIN
 10
1.000000000000000E+20
 20
1.000000000000000E+20
 30
1.000000000000000E+20
  9
$PEXTMAX
 10
-1.000000000000000E+20
 20
-1.000000000000000E+20
 30
-1.000000000000000E+20
  9
$PLIMMIN
 10
0.0
 20
0.0
  9
$PLIMMAX
 10
12.0
 20
9.0
  9
$UNITMODE
 70
     0
  9
$VISRETAIN
 70
     0
  9
$PLINEGEN
 70
     0
  9
$PSLTSCALE
 70
     1
  9
$TREEDEPTH
 70
  3020
  9
$CMLSTYLE
  2
Standard
  9
$CMLJUST
 70
     0
  9
$CMLSCALE
 40
1.0
  9
$PROXYGRAPHICS
 70
     1
  9
$MEASUREMENT
 70
     0
  9
$CELWEIGHT
370
    -1
  9
$ENDCAPS
280
     0
  9
$JOINSTYLE
280
     0
  9
$LWDISPLAY
290
     0
  9
$INSUNITS
 70
     0
  9
$HYPERLINKBASE
  1

  9
$STYLESHEET
  1

  9
$XEDIT
290
     1
  9
$CEPSNTYPE
380
     0
  9
$PSTYLEMODE
290
     1
  9
$FINGERPRINTGUID
  2
{688942C3-892C-4D4E-85DC-E6D66C471FC8}
  9
$VERSIONGUID
  2
{6BEB82ED-4729-401E-8154-ABFC0F4C29C2}
  9
$EXTNAMES
290
     1
  9
$PSVPSCALE
 40
0.0
  9
$OLESTARTUP
290
     0
  0
ENDSEC
  0
SECTION
  2
CLASSES
  0
CLASS
  1
ACDBDICTIONARYWDFLT
  2
AcDbDictionaryWithDefault
  3
ObjectDBX Classes
 90
        0
280
     0
281
     0
  0
CLASS
  1
MATERIAL
  2
AcDbMaterial
  3
ObjectDBX Classes
 90
     1153
280
     0
281
     0
  0
CLASS
  1
VISUALSTYLE
  2
AcDbVisualStyle
  3
ObjectDBX Classes
 90
     4095
280
     0
281
     0
  0
CLASS
  1
SCALE
  2
AcDbScale
  3
ObjectDBX Classes
 90
     1153
280
     0
281
     0
  0
CLASS
  1
TABLESTYLE
  2
AcDbTableStyle
  3
ObjectDBX Classes
 90
     4095
280
     0
281
     0
  0
CLASS
  1
MLEADERSTYLE
  2
AcDbMLeaderStyle
  3
ACDB_MLEADERSTYLE_CLASS
 90
     4095
280
     0
281
     0
  0
CLASS
  1
ACDBSECTIONVIEWSTYLE
  2
AcDbSectionViewStyle
  3
ObjectDBX Classes
 90
     1025
280
     0
281
     0
  0
CLASS
  1
ACDBDETAILVIEWSTYLE
  2
AcDbDetailViewStyle
  3
ObjectDBX Classes
 90
     1025
280
     0
281
     0
  0
CLASS
  1
EXACXREFPANELOBJECT
  2
ExAcXREFPanelObject
  3
EXAC_ESW
 90
     1025
280
     0
281
     0
  0
CLASS
  1
NPOCOLLECTION
  2
AcDbImpNonPersistentObjectsCollection
  3
ObjectDBX Classes
 90
     1153
280
     0
281
     0
  0
CLASS
  1
DICTIONARYVAR
  2
AcDbDictionaryVar
  3
ObjectDBX Classes
 90
        0
280
     0
281
     0
  0
CLASS
  1
CELLSTYLEMAP
  2
AcDbCellStyleMap
  3
ObjectDBX Classes
 90
     1152
280
     0
281
     0
  0
CLASS
  1
ACDBPLACEHOLDER
  2
AcDbPlaceHolder
  3
ObjectDBX Classes
 90
        0
280
     0
281
     0
  0
CLASS
  1
LAYOUT
  2
AcDbLayout
  3
ObjectDBX Classes
 90
        0
280
     0
281
     0
  0
ENDSEC
  0
SECTION
  2
TABLES
  0
TABLE
  2
VPORT
  5
54F
330
0
100
AcDbSymbolTable
 70
     1
  0
VPORT
  5
5E6
330
54F
100
AcDbSymbolTableRecord
100
AcDbViewportTableRecord
  2
*Active
 70
     0
 10
0.0
 20
0.0
 11
1.0
 21
1.0
 12
4.975985500000007
 22
-1.901907500000007
 13
0.0
 23
0.0
 14
1.0
 24
1.0
 15
0.0
 25
0.0
 16
0.0
 26
0.0
 36
1.0
 17
0.0
 27
0.0
 37
0.0
 40
80.53982353801172
 41
2.2
 42
50.0
 43
0.0
 44
0.0
 50
0.0
 51
0.0
 71
     0
 72
   100
 73
     1
 74
     1
 75
     0
 76
     0
 77
     0
 78
     0
281
     0
 65
     1
110
0.0
120
0.0
130
0.0
111
1.0
121
0.0
131
0.0
112
0.0
122
1.0
132
0.0
 79
     0
146
0.0
1001
ACAD_NAV_VCDISPLAY
1070
     3
  0
ENDTAB
  0
TABLE
  2
LTYPE
  5
54C
330
0
100
AcDbSymbolTable
 70
     4
  0
LTYPE
  5
5A1
330
54C
100
AcDbSymbolTableRecord
100
AcDbLinetypeTableRecord
  2
ByBlock
 70
     0
  3

 72
    65
 73
     0
 40
0.0
  0
LTYPE
  5
5A2
330
54C
100
AcDbSymbolTableRecord
100
AcDbLinetypeTableRecord
  2
ByLayer
 70
     0
  3

 72
    65
 73
     0
 40
0.0
  0
LTYPE
  5
5A3
330
54C
100
AcDbSymbolTableRecord
100
AcDbLinetypeTableRecord
  2
CONTINUOUS
 70
     0
  3
Solid line
 72
    65
 73
     0
 40
0.0
  0
LTYPE
  5
5AF
330
54C
100
AcDbSymbolTableRecord
100
AcDbLinetypeTableRecord
  2
PHANTOM2
 70
     0
  3
Phantom (.5x) ___ _ _ ___ _ _ ___ _ _ ___ _ _
 72
    65
 73
     6
 40
1.25
 49
0.625
 74
     0
 49
-0.125
 74
     0
 49
0.125
 74
     0
 49
-0.125
 74
     0
 49
0.125
 74
     0
 49
-0.125
 74
     0
  0
LTYPE
  5
5BD
330
54C
100
AcDbSymbolTableRecord
100
AcDbLinetypeTableRecord
  2
CENTER
 70
     0
  3
____ _ ____ _ ____ _ ____ _ ____ _ ____ _ ____
 72
    65
 73
     4
 40
5.059897
 49
3.162434999999999
 74
     0
 49
-0.6324870000000001
 74
     0
 49
0.6324870000000001
 74
     0
 49
-0.6324870000000001
 74
     0
  0
LTYPE
  5
5BE
330
54C
100
AcDbSymbolTableRecord
100
AcDbLinetypeTableRecord
  2
DASHED
 70
     0
  3
__ __ __ __ __ __ __ __ __ __ __ __ __ __ __ __
 72
    65
 73
     2
 40
7.589844999999999
 49
5.059897
 74
     0
 49
-2.529948
 74
     0
  0
ENDTAB
  0
TABLE
  2
LAYER
  5
549
330
0
100
AcDbSymbolTable
 70
    38
  0
LAYER
  5
59B
102
{ACAD_XDICTIONARY
360
5ED
102
}
330
549
100
AcDbSymbolTableRecord
100
AcDbLayerTableRecord
  2
0
 70
     0
 62
     7
  6
CONTINUOUS
370
    -3
390
556
  0
LAYER
  5
5BB
102
{ACAD_XDICTIONARY
360
5EF
102
}
330
549
100
AcDbSymbolTableRecord
100
AcDbLayerTableRecord
  2
1
 70
     0
 62
     4
  6
CONTINUOUS
370
    -3
390
556
  0
LAYER
  5
5BF
102
{ACAD_XDICTIONARY
360
5F1
102
}
330
549
100
AcDbSymbolTableRecord
100
AcDbLayerTableRecord
  2
61
 70
     0
 62
     5
  6
CONTINUOUS
370
    -3
390
556
  0
LAYER
  5
5C0
102
{ACAD_XDICTIONARY
360
5F3
102
}
330
549
100
AcDbSymbolTableRecord
100
AcDbLayerTableRecord
  2
62
 70
     0
 62
    -5
  6
CONTINUOUS
370
    -3
390
556
  0
LAYER
  5
5C1
102
{ACAD_XDICTIONARY
360
5F5
102
}
330
549
100
AcDbSymbolTableRecord
100
AcDbLayerTableRecord
  2
63
 70
     0
 62
    -5
  6
CONTINUOUS
370
    -3
390
556
  0
LAYER
  5
5C2
102
{ACAD_XDICTIONARY
360
5F7
102
}
330
549
100
AcDbSymbolTableRecord
100
AcDbLayerTableRecord
  2
64
 70
     0
 62
    -5
  6
CONTINUOUS
370
    -3
390
556
  0
LAYER
  5
5C3
102
{ACAD_XDICTIONARY
360
5F9
102
}
330
549
100
AcDbSymbolTableRecord
100
AcDbLayerTableRecord
  2
65
 70
     0
 62
    -5
  6
CONTINUOUS
370
    -3
390
556
  0
LAYER
  5
5C4
102
{ACAD_XDICTIONARY
360
5FB
102
}
330
549
100
AcDbSymbolTableRecord
100
AcDbLayerTableRecord
  2
66
 70
     0
 62
    -5
  6
CONTINUOUS
370
    -3
390
556
  0
LAYER
  5
5C5
102
{ACAD_XDICTIONARY
360
5FD
102
}
330
549
100
AcDbSymbolTableRecord
100
AcDbLayerTableRecord
  2
67
 70
     0
 62
    -5
  6
CONTINUOUS
370
    -3
390
556
  0
LAYER
  5
5C6
102
{ACAD_XDICTIONARY
360
5FF
102
}
330
549
100
AcDbSymbolTableRecord
100
AcDbLayerTableRecord
  2
68
 70
     0
 62
    -5
  6
CONTINUOUS
370
    -3
390
556
  0
LAYER
  5
5C7
102
{ACAD_XDICTIONARY
360
601
102
}
330
549
100
AcDbSymbolTableRecord
100
AcDbLayerTableRecord
  2
69
 70
     0
 62
    -5
  6
CONTINUOUS
370
    -3
390
556
  0
LAYER
  5
5C8
102
{ACAD_XDICTIONARY
360
603
102
}
330
549
100
AcDbSymbolTableRecord
100
AcDbLayerTableRecord
  2
70
 70
     0
 62
     5
  6
CONTINUOUS
370
    -3
390
556
  0
LAYER
  5
5C9
102
{ACAD_XDICTIONARY
360
605
102
}
330
549
100
AcDbSymbolTableRecord
100
AcDbLayerTableRecord
  2
2
 70
     0
 62
     7
  6
CONTINUOUS
370
    -3
390
556
  0
LAYER
  5
5CA
102
{ACAD_XDICTIONARY
360
607
102
}
330
549
100
AcDbSymbolTableRecord
100
AcDbLayerTableRecord
  2
3
 70
     0
 62
     1
  6
DASHED
370
    -3
390
556
  0
LAYER
  5
5CB
102
{ACAD_XDICTIONARY
360
609
102
}
330
549
100
AcDbSymbolTableRecord
100
AcDbLayerTableRecord
  2
4
 70
     0
 62
    -2
  6
CENTER
370
    -3
390
556
  0
LAYER
  5
5CC
102
{ACAD_XDICTIONARY
360
60B
102
}
330
549
100
AcDbSymbolTableRecord
100
AcDbLayerTableRecord
  2
5
 70
     0
 62
    -7
  6
CONTINUOUS
370
    -3
390
556
  0
LAYER
  5
5CD
102
{ACAD_XDICTIONARY
360
60D
102
}
330
549
100
AcDbSymbolTableRecord
100
AcDbLayerTableRecord
  2
SK1
 70
     0
 62
     4
  6
CONTINUOUS
370
    -3
390
556
  0
LAYER
  5
5CE
102
{ACAD_XDICTIONARY
360
60F
102
}
330
549
100
AcDbSymbolTableRecord
100
AcDbLayerTableRecord
  2
6
 70
     0
 62
     5
  6
CONTINUOUS
370
    -3
390
556
  0
LAYER
  5
5CF
102
{ACAD_XDICTIONARY
360
611
102
}
330
549
100
AcDbSymbolTableRecord
100
AcDbLayerTableRecord
  2
SK2
 70
     0
 62
     7
  6
CONTINUOUS
370
    -3
390
556
  0
LAYER
  5
5D0
102
{ACAD_XDICTIONARY
360
613
102
}
330
549
100
AcDbSymbolTableRecord
100
AcDbLayerTableRecord
  2
SK3
 70
     0
 62
     1
  6
DASHED
370
    -3
390
556
  0
LAYER
  5
5D1
102
{ACAD_XDICTIONARY
360
615
102
}
330
549
100
AcDbSymbolTableRecord
100
AcDbLayerTableRecord
  2
SK4
 70
     0
 62
     2
  6
CENTER
370
    -3
390
556
  0
LAYER
  5
5D2
102
{ACAD_XDICTIONARY
360
617
102
}
330
549
100
AcDbSymbolTableRecord
100
AcDbLayerTableRecord
  2
CUT
 70
     0
 62
    -1
  6
CONTINUOUS
370
    -3
390
556
  0
LAYER
  5
5D3
102
{ACAD_XDICTIONARY
360
619
102
}
330
549
100
AcDbSymbolTableRecord
100
AcDbLayerTableRecord
  2
SK6
 70
     0
 62
     5
  6
CONTINUOUS
370
    -3
390
556
  0
LAYER
  5
5D4
102
{ACAD_XDICTIONARY
360
61B
102
}
330
549
100
AcDbSymbolTableRecord
100
AcDbLayerTableRecord
  2
80
 70
     0
 62
    -2
  6
CENTER
370
    -3
390
556
  0
LAYER
  5
5D5
102
{ACAD_XDICTIONARY
360
61D
102
}
330
549
100
AcDbSymbolTableRecord
100
AcDbLayerTableRecord
  2
81
 70
     0
 62
    -2
  6
CENTER
370
    -3
390
556
  0
LAYER
  5
5D6
102
{ACAD_XDICTIONARY
360
61F
102
}
330
549
100
AcDbSymbolTableRecord
100
AcDbLayerTableRecord
  2
82
 70
     0
 62
    -2
  6
CENTER
370
    -3
390
556
  0
LAYER
  5
5D7
102
{ACAD_XDICTIONARY
360
621
102
}
330
549
100
AcDbSymbolTableRecord
100
AcDbLayerTableRecord
  2
NOCUT
 70
     0
 62
     7
  6
CONTINUOUS
370
    -3
390
556
  0
LAYER
  5
5D8
102
{ACAD_XDICTIONARY
360
623
102
}
330
549
100
AcDbSymbolTableRecord
100
AcDbLayerTableRecord
  2
50
 70
     0
 62
    -7
  6
CONTINUOUS
370
    -3
390
556
  0
LAYER
  5
5D9
102
{ACAD_XDICTIONARY
360
625
102
}
330
549
100
AcDbSymbolTableRecord
100
AcDbLayerTableRecord
  2
51
 70
     0
 62
     7
  6
CONTINUOUS
370
    -3
390
556
  0
LAYER
  5
5DA
102
{ACAD_XDICTIONARY
360
627
102
}
330
549
100
AcDbSymbolTableRecord
100
AcDbLayerTableRecord
  2
52
 70
     0
 62
    -7
  6
CONTINUOUS
370
    -3
390
556
  0
LAYER
  5
5DB
102
{ACAD_XDICTIONARY
360
629
102
}
330
549
100
AcDbSymbolTableRecord
100
AcDbLayerTableRecord
  2
53
 70
     0
 62
    -7
  6
CONTINUOUS
370
    -3
390
556
  0
LAYER
  5
5DC
102
{ACAD_XDICTIONARY
360
62B
102
}
330
549
100
AcDbSymbolTableRecord
100
AcDbLayerTableRecord
  2
54
 70
     0
 62
    -7
  6
CONTINUOUS
370
    -3
390
556
  0
LAYER
  5
5DD
102
{ACAD_XDICTIONARY
360
62D
102
}
330
549
100
AcDbSymbolTableRecord
100
AcDbLayerTableRecord
  2
55
 70
     0
 62
    -7
  6
CONTINUOUS
370
    -3
390
556
  0
LAYER
  5
5DE
102
{ACAD_XDICTIONARY
360
62F
102
}
330
549
100
AcDbSymbolTableRecord
100
AcDbLayerTableRecord
  2
56
 70
     0
 62
    -7
  6
CONTINUOUS
370
    -3
390
556
  0
LAYER
  5
5DF
102
{ACAD_XDICTIONARY
360
631
102
}
330
549
100
AcDbSymbolTableRecord
100
AcDbLayerTableRecord
  2
57
 70
     0
 62
    -7
  6
CONTINUOUS
370
    -3
390
556
  0
LAYER
  5
5E0
102
{ACAD_XDICTIONARY
360
633
102
}
330
549
100
AcDbSymbolTableRecord
100
AcDbLayerTableRecord
  2
58
 70
     0
 62
    -7
  6
CONTINUOUS
370
    -3
390
556
  0
LAYER
  5
5E1
102
{ACAD_XDICTIONARY
360
635
102
}
330
549
100
AcDbSymbolTableRecord
100
AcDbLayerTableRecord
  2
2L
 70
     0
 62
     7
  6
CONTINUOUS
370
    -3
390
556
  0
LAYER
  5
5E2
102
{ACAD_XDICTIONARY
360
637
102
}
330
549
100
AcDbSymbolTableRecord
100
AcDbLayerTableRecord
  2
59
 70
     0
 62
    -7
  6
CONTINUOUS
370
    -3
390
556
  0
ENDTAB
  0
TABLE
  2
STYLE
  5
54A
330
0
100
AcDbSymbolTable
 70
     3
  0
STYLE
  5
59C
330
54A
100
AcDbSymbolTableRecord
100
AcDbTextStyleTableRecord
  2
STANDARD
 70
     0
 40
0.0
 41
1.0
 50
0.0
 71
     0
 42
4.5
  3
simplex.shx
  4

  0
STYLE
  5
5A0
330
54A
100
AcDbSymbolTableRecord
100
AcDbTextStyleTableRecord
  2
Annotative
 70
     0
 40
0.0
 41
1.0
 50
0.0
 71
     0
 42
0.2
  3
txt
  4

1001
AcadAnnotative
1000
AnnotativeData
1002
{
1070
     1
1070
     1
1002
}
  0
STYLE
  5
5BC
330
54A
100
AcDbSymbolTableRecord
100
AcDbTextStyleTableRecord
  2
SANDVIK_STYLE
 70
     0
 40
3.0
 41
1.0
 50
0.0
 71
     0
 42
3.0
  3
simplex.shx
  4

  0
ENDTAB
  0
TABLE
  2
VIEW
  5
54D
330
0
100
AcDbSymbolTable
 70
     0
  0
ENDTAB
  0
TABLE
  2
UCS
  5
54E
330
0
100
AcDbSymbolTable
 70
     0
  0
ENDTAB
  0
TABLE
  2
APPID
  5
550
330
0
100
AcDbSymbolTable
 70
     4
  0
APPID
  5
59D
330
550
100
AcDbSymbolTableRecord
100
AcDbRegAppTableRecord
  2
ACAD
 70
     0
  0
APPID
  5
5A4
330
550
100
AcDbSymbolTableRecord
100
AcDbRegAppTableRecord
  2
AcadAnnotative
 70
     0
  0
APPID
  5
643
330
550
100
AcDbSymbolTableRecord
100
AcDbRegAppTableRecord
  2
ACAD_NAV_VCDISPLAY
 70
     0
  0
APPID
  5
67C
330
550
100
AcDbSymbolTableRecord
100
AcDbRegAppTableRecord
  2
ACAD_MLEADERVER
 70
     0
  0
ENDTAB
  0
TABLE
  2
DIMSTYLE
  5
551
330
0
100
AcDbSymbolTable
 70
     3
100
AcDbDimStyleTable
 71
     0
  0
DIMSTYLE
105
59E
330
551
100
AcDbSymbolTableRecord
100
AcDbDimStyleTableRecord
  2
STANDARD
 70
     0
  4
 
 41
3.0
 42
2.5
 43
10.0
 44
2.5
 46
1.25
 73
     0
 74
     0
140
3.0
141
-3.0
143
0.039
145
1.5
146
0.75
147
1.5
271
     2
272
     2
279
     2
340
5BC
  0
DIMSTYLE
105
59F
330
551
100
AcDbSymbolTableRecord
100
AcDbDimStyleTableRecord
  2
Annotative
 70
     0
340
59C
1001
AcadAnnotative
1000
AnnotativeData
1002
{
1070
     1
1070
     1
1002
}
  0
DIMSTYLE
105
5E3
330
551
100
AcDbSymbolTableRecord
100
AcDbDimStyleTableRecord
  2
SANDVIK_DIM
 70
     0
  4
 
 40
0.0
 41
4.57
 42
0.0
 44
5.0
 73
     0
 74
     0
 77
     1
 78
     8
140
4.5
147
2.299999999999999
176
   256
177
   256
178
   256
271
     2
272
     2
279
     2
340
5BC
  0
ENDTAB
  0
TABLE
  2
BLOCK_RECORD
  5
548
330
0
100
AcDbSymbolTable
 70
     2
  0
BLOCK_RECORD
  5
5B7
330
548
100
AcDbSymbolTableRecord
100
AcDbBlockTableRecord
  2
*Model_Space
340
5BA
  0
BLOCK_RECORD
  5
5B3
330
548
100
AcDbSymbolTableRecord
100
AcDbBlockTableRecord
  2
*Paper_Space
340
5B6
  0
BLOCK_RECORD
  5
5E7
330
548
100
AcDbSymbolTableRecord
100
AcDbBlockTableRecord
  2
*D0
340
0
102
{BLKREFS
331
4E5
102
}
  0
BLOCK_RECORD
  5
5E8
330
548
100
AcDbSymbolTableRecord
100
AcDbBlockTableRecord
  2
*D1
340
0
102
{BLKREFS
331
4E7
102
}
  0
ENDTAB
  0
ENDSEC
  0
SECTION
  2
BLOCKS
  0
BLOCK
  5
5B8
330
5B7
100
AcDbEntity
  8
0
100
AcDbBlockBegin
  2
*Model_Space
 70
     0
 10
0.0
 20
0.0
 30
0.0
  3
*Model_Space
  1

  0
ENDBLK
  5
5B9
330
5B7
100
AcDbEntity
  8
0
100
AcDbBlockEnd
  0
BLOCK
  5
5B4
330
5B3
100
AcDbEntity
 67
     1
  8
0
100
AcDbBlockBegin
  2
*Paper_Space
 70
     0
 10
0.0
 20
0.0
 30
0.0
  3
*Paper_Space
  1

  0
ENDBLK
  5
5B5
330
5B3
100
AcDbEntity
 67
     1
  8
0
100
AcDbBlockEnd
  0
BLOCK
  5
2
330
5E7
100
AcDbEntity
  8
0
100
AcDbBlockBegin
  2
*D0
 70
     1
 10
0.0
 20
0.0
 30
0.0
  3
*D0
  1

  0
LINE
  5
3
330
5E7
100
AcDbEntity
  8
0
100
AcDbLine
 10
0.0
 20
16.0
 30
0.0
 11
0.0
 21
31.0
 31
0.0
  0
LINE
  5
4
330
5E7
100
AcDbEntity
  8
0
100
AcDbLine
 10
17.0
 20
16.0
 30
0.0
 11
17.0
 21
31.0
 31
0.0
  0
LINE
  5
5
330
5E7
100
AcDbEntity
  8
0
100
AcDbLine
 10
2.5
 20
30.0
 30
0.0
 11
14.5
 21
30.0
 31
0.0
  0
LINE
  5
6
330
5E7
100
AcDbEntity
  8
0
100
AcDbLine
 10
2.5
 20
30.416667
 30
0.0
 11
2.5
 21
29.58333300000001
 31
0.0
  0
LINE
  5
7
330
5E7
100
AcDbEntity
  8
0
100
AcDbLine
 10
2.5
 20
29.58333300000001
 30
0.0
 11
0.0
 21
30.0
 31
0.0
  0
LINE
  5
8
330
5E7
100
AcDbEntity
  8
0
100
AcDbLine
 10
0.0
 20
30.0
 30
0.0
 11
0.0
 21
30.0
 31
0.0
  0
LINE
  5
9
330
5E7
100
AcDbEntity
  8
0
100
AcDbLine
 10
0.0
 20
30.0
 30
0.0
 11
2.5
 21
30.416667
 31
0.0
  0
LINE
  5
A
330
5E7
100
AcDbEntity
  8
0
100
AcDbLine
 10
14.5
 20
30.416667
 30
0.0
 11
14.5
 21
29.58333300000001
 31
0.0
  0
LINE
  5
B
330
5E7
100
AcDbEntity
  8
0
100
AcDbLine
 10
14.5
 20
29.58333300000001
 30
0.0
 11
17.0
 21
30.0
 31
0.0
  0
LINE
  5
C
330
5E7
100
AcDbEntity
  8
0
100
AcDbLine
 10
17.0
 20
30.0
 30
0.0
 11
17.0
 21
30.0
 31
0.0
  0
LINE
  5
D
330
5E7
100
AcDbEntity
  8
0
100
AcDbLine
 10
17.0
 20
30.0
 30
0.0
 11
14.5
 21
30.416667
 31
0.0
  0
ENDBLK
  5
E
330
5E7
100
AcDbEntity
  8
0
100
AcDbBlockEnd
  0
BLOCK
  5
F
330
5E8
100
AcDbEntity
  8
0
100
AcDbBlockBegin
  2
*D1
 70
     1
 10
0.0
 20
0.0
 30
0.0
  3
*D1
  1

  0
LINE
  5
10
330
5E8
100
AcDbEntity
  8
0
100
AcDbLine
 10
18.0
 20
15.0
 30
0.0
 11
33.0
 21
15.0
 31
0.0
  0
LINE
  5
11
330
5E8
100
AcDbEntity
  8
0
100
AcDbLine
 10
18.0
 20
-15.0
 30
0.0
 11
33.0
 21
-15.0
 31
0.0
  0
LINE
  5
12
330
5E8
100
AcDbEntity
  8
0
100
AcDbLine
 10
32.0
 20
12.5
 30
0.0
 11
32.0
 21
-12.5
 31
0.0
  0
LINE
  5
13
330
5E8
100
AcDbEntity
  8
0
100
AcDbLine
 10
31.58333300000001
 20
12.5
 30
0.0
 11
32.416667
 21
12.5
 31
0.0
  0
LINE
  5
14
330
5E8
100
AcDbEntity
  8
0
100
AcDbLine
 10
32.416667
 20
12.5
 30
0.0
 11
32.0
 21
15.0
 31
0.0
  0
LINE
  5
15
330
5E8
100
AcDbEntity
  8
0
100
AcDbLine
 10
32.0
 20
15.0
 30
0.0
 11
32.0
 21
15.0
 31
0.0
  0
LINE
  5
16
330
5E8
100
AcDbEntity
  8
0
100
AcDbLine
 10
32.0
 20
15.0
 30
0.0
 11
31.58333300000001
 21
12.5
 31
0.0
  0
LINE
  5
17
330
5E8
100
AcDbEntity
  8
0
100
AcDbLine
 10
31.58333300000001
 20
-12.5
 30
0.0
 11
32.416667
 21
-12.5
 31
0.0
  0
LINE
  5
18
330
5E8
100
AcDbEntity
  8
0
100
AcDbLine
 10
32.416667
 20
-12.5
 30
0.0
 11
32.0
 21
-15.0
 31
0.0
  0
LINE
  5
19
330
5E8
100
AcDbEntity
  8
0
100
AcDbLine
 10
32.0
 20
-15.0
 30
0.0
 11
32.0
 21
-15.0
 31
0.0
  0
LINE
  5
1A
330
5E8
100
AcDbEntity
  8
0
100
AcDbLine
 10
32.0
 20
-15.0
 30
0.0
 11
31.58333300000001
 21
-12.5
 31
0.0
  0
ENDBLK
  5
1B
330
5E8
100
AcDbEntity
  8
0
100
AcDbBlockEnd
  0
ENDSEC
  0
SECTION
  2
ENTITIES
  0
LINE
  5
1C
330
5B7
100
AcDbEntity
  8
1
100
AcDbLine
 10
17.0
 20
-14.021236
 30
0.0
 11
17.0
 21
-2.723894
 31
0.0
  0
LINE
  5
1D
330
5B7
100
AcDbEntity
  8
1
100
AcDbLine
 10
16.5
 20
-6.027908999999999
 30
0.0
 11
16.5
 21
1.277536
 31
0.0
  0
LINE
  5
1E
330
5B7
100
AcDbEntity
  8
1
100
AcDbLine
 10
15.1
 20
-4.357465
 30
0.0
 11
15.1
 21
-5.719597
 31
0.0
  0
LINE
  5
1F
330
5B7
100
AcDbEntity
  8
1
100
AcDbLine
 10
0.0
 20
14.6
 30
0.0
 11
0.0
 21
-14.6
 31
0.0
  0
LINE
  5
20
330
5B7
100
AcDbEntity
  8
1
100
AcDbLine
 10
15.1
 20
-7.099649
 30
0.0
 11
14.194241
 21
-7.368946
 31
0.0
  0
LINE
  5
21
330
5B7
100
AcDbEntity
  8
1
100
AcDbLine
 10
14.194241
 20
-7.368946
 30
0.0
 11
13.280697
 21
-7.635322
 31
0.0
  0
LINE
  5
22
330
5B7
100
AcDbEntity
  8
1
100
AcDbLine
 10
13.280697
 20
-7.635322
 30
0.0
 11
12.359366
 21
-7.898775999999999
 31
0.0
  0
LINE
  5
23
330
5B7
100
AcDbEntity
  8
1
100
AcDbLine
 10
12.359366
 20
-7.898775999999999
 30
0.0
 11
11.429659
 21
-8.159506
 31
0.0
  0
LINE
  5
24
330
5B7
100
AcDbEntity
  8
1
100
AcDbLine
 10
11.429659
 20
-8.159506
 30
0.0
 11
10.492165
 21
-8.417313999999999
 31
0.0
  0
LINE
  5
25
330
5B7
100
AcDbEntity
  8
1
100
AcDbLine
 10
10.492165
 20
-8.417313999999999
 30
0.0
 11
9.548655999999999
 21
-8.671609
 31
0.0
  0
LINE
  5
26
330
5B7
100
AcDbEntity
  8
1
100
AcDbLine
 10
9.707213000000001
 20
-9.594902000000001
 30
0.0
 11
9.761903999999999
 21
-9.66571
 31
0.0
  0
LINE
  5
27
330
5B7
100
AcDbEntity
  8
1
100
AcDbLine
 10
9.761903999999999
 20
-9.66571
 30
0.0
 11
9.822136
 21
-9.737569999999999
 31
0.0
  0
LINE
  5
28
330
5B7
100
AcDbEntity
  8
1
100
AcDbLine
 10
9.822136
 20
-9.737569999999999
 30
0.0
 11
9.887911
 21
-9.810484999999999
 31
0.0
  0
LINE
  5
29
330
5B7
100
AcDbEntity
  8
1
100
AcDbLine
 10
9.887911
 20
-9.810484999999999
 30
0.0
 11
9.959182999999999
 21
-9.884692999999998
 31
0.0
  0
LINE
  5
2A
330
5B7
100
AcDbEntity
  8
1
100
AcDbLine
 10
9.959182999999999
 20
-9.884692999999998
 30
0.0
 11
10.035997
 21
-9.959956
 31
0.0
  0
LINE
  5
2B
330
5B7
100
AcDbEntity
  8
1
100
AcDbLine
 10
10.035997
 20
-9.959956
 30
0.0
 11
10.118485
 21
-10.03557
 31
0.0
  0
LINE
  5
2C
330
5B7
100
AcDbEntity
  8
1
100
AcDbLine
 10
10.118485
 20
-10.03557
 30
0.0
 11
10.206663
 21
-10.111461
 31
0.0
  0
LINE
  5
2D
330
5B7
100
AcDbEntity
  8
1
100
AcDbLine
 10
10.206663
 20
-10.111461
 30
0.0
 11
10.300515
 21
-10.187726
 31
0.0
  0
LINE
  5
2E
330
5B7
100
AcDbEntity
  8
1
100
AcDbLine
 10
10.300515
 20
-10.187726
 30
0.0
 11
10.400133
 21
-10.263935
 31
0.0
  0
LINE
  5
2F
330
5B7
100
AcDbEntity
  8
1
100
AcDbLine
 10
10.400133
 20
-10.263935
 30
0.0
 11
10.505568
 21
-10.340079
 31
0.0
  0
LINE
  5
30
330
5B7
100
AcDbEntity
  8
1
100
AcDbLine
 10
10.505568
 20
-10.340079
 30
0.0
 11
10.616768
 21
-10.416201
 31
0.0
  0
LINE
  5
31
330
5B7
100
AcDbEntity
  8
1
100
AcDbLine
 10
10.616768
 20
-10.416201
 30
0.0
 11
10.733677
 21
-10.491965
 31
0.0
  0
LINE
  5
32
330
5B7
100
AcDbEntity
  8
1
100
AcDbLine
 10
10.733677
 20
-10.491965
 30
0.0
 11
10.856276
 21
-10.567275
 31
0.0
  0
LINE
  5
33
330
5B7
100
AcDbEntity
  8
1
100
AcDbLine
 10
10.856276
 20
-10.567275
 30
0.0
 11
10.984583
 21
-10.642267
 31
0.0
  0
LINE
  5
34
330
5B7
100
AcDbEntity
  8
1
100
AcDbLine
 10
10.984583
 20
-10.642267
 30
0.0
 11
11.118599
 21
-10.716961
 31
0.0
  0
LINE
  5
35
330
5B7
100
AcDbEntity
  8
1
100
AcDbLine
 10
10.494915
 20
-14.88748
 30
0.0
 11
11.147534
 21
-15.0
 31
0.0
  0
LINE
  5
36
330
5B7
100
AcDbEntity
  8
1
100
AcDbLine
 10
10.318599
 20
-11.025771
 30
0.0
 11
10.583385
 21
-11.002621
 31
0.0
  0
LINE
  5
37
330
5B7
100
AcDbEntity
  8
1
100
AcDbLine
 10
9.391548
 20
-8.775641999999999
 30
0.0
 11
10.033571
 21
-8.603969000000001
 31
0.0
  0
LINE
  5
38
330
5B7
100
AcDbEntity
  8
1
100
AcDbLine
 10
10.033571
 20
-8.603969000000001
 30
0.0
 11
10.671991
 21
-8.430930999999999
 31
0.0
  0
LINE
  5
39
330
5B7
100
AcDbEntity
  8
1
100
AcDbLine
 10
10.671991
 20
-8.430930999999999
 30
0.0
 11
11.306808
 21
-8.256529999999999
 31
0.0
  0
LINE
  5
3A
330
5B7
100
AcDbEntity
  8
1
100
AcDbLine
 10
11.306808
 20
-8.256529999999999
 30
0.0
 11
11.938041
 21
-8.080747
 31
0.0
  0
LINE
  5
3B
330
5B7
100
AcDbEntity
  8
1
100
AcDbLine
 10
11.938041
 20
-8.080747
 30
0.0
 11
12.565671
 21
-7.903600999999999
 31
0.0
  0
LINE
  5
3C
330
5B7
100
AcDbEntity
  8
1
100
AcDbLine
 10
12.565671
 20
-7.903600999999999
 30
0.0
 11
13.189642
 21
-7.725146
 31
0.0
  0
LINE
  5
3D
330
5B7
100
AcDbEntity
  8
1
100
AcDbLine
 10
13.189642
 20
-7.725146
 30
0.0
 11
13.809938
 21
-7.545399999999999
 31
0.0
  0
LINE
  5
3E
330
5B7
100
AcDbEntity
  8
1
100
AcDbLine
 10
13.809938
 20
-7.545399999999999
 30
0.0
 11
14.426576
 21
-7.364347
 31
0.0
  0
LINE
  5
3F
330
5B7
100
AcDbEntity
  8
1
100
AcDbLine
 10
14.426576
 20
-7.364347
 30
0.0
 11
15.039556
 21
-7.181985
 31
0.0
  0
LINE
  5
40
330
5B7
100
AcDbEntity
  8
1
100
AcDbLine
 10
9.391548
 20
-14.397745
 30
0.0
 11
10.033571
 21
-14.354565
 31
0.0
  0
LINE
  5
41
330
5B7
100
AcDbEntity
  8
1
100
AcDbLine
 10
10.033571
 20
-14.354565
 30
0.0
 11
10.671991
 21
-14.308496
 31
0.0
  0
LINE
  5
42
330
5B7
100
AcDbEntity
  8
1
100
AcDbLine
 10
10.671991
 20
-14.308496
 30
0.0
 11
11.306808
 21
-14.259537
 31
0.0
  0
LINE
  5
43
330
5B7
100
AcDbEntity
  8
1
100
AcDbLine
 10
11.306808
 20
-14.259537
 30
0.0
 11
11.938041
 21
-14.207671
 31
0.0
  0
LINE
  5
44
330
5B7
100
AcDbEntity
  8
1
100
AcDbLine
 10
11.938041
 20
-14.207671
 30
0.0
 11
12.565671
 21
-14.152915
 31
0.0
  0
LINE
  5
45
330
5B7
100
AcDbEntity
  8
1
100
AcDbLine
 10
12.565671
 20
-14.152915
 30
0.0
 11
13.189642
 21
-14.095329
 31
0.0
  0
LINE
  5
46
330
5B7
100
AcDbEntity
  8
1
100
AcDbLine
 10
13.189642
 20
-14.095329
 30
0.0
 11
13.809938
 21
-14.034931
 31
0.0
  0
LINE
  5
47
330
5B7
100
AcDbEntity
  8
1
100
AcDbLine
 10
13.809938
 20
-14.034931
 30
0.0
 11
14.426576
 21
-13.971702
 31
0.0
  0
LINE
  5
48
330
5B7
100
AcDbEntity
  8
1
100
AcDbLine
 10
14.426576
 20
-13.971702
 30
0.0
 11
15.039556
 21
-13.905642
 31
0.0
  0
LINE
  5
49
330
5B7
100
AcDbEntity
  8
1
100
AcDbLine
 10
11.649869
 20
-13.325036
 30
0.0
 11
11.566909
 21
-13.333105
 31
0.0
  0
LINE
  5
4A
330
5B7
100
AcDbEntity
  8
1
100
AcDbLine
 10
11.566909
 20
-13.333105
 30
0.0
 11
11.48342
 21
-13.340213
 31
0.0
  0
LINE
  5
4B
330
5B7
100
AcDbEntity
  8
1
100
AcDbLine
 10
11.48342
 20
-13.340213
 30
0.0
 11
11.399401
 21
-13.346368
 31
0.0
  0
LINE
  5
4C
330
5B7
100
AcDbEntity
  8
1
100
AcDbLine
 10
11.399401
 20
-13.346368
 30
0.0
 11
11.314835
 21
-13.351554
 31
0.0
  0
LINE
  5
4D
330
5B7
100
AcDbEntity
  8
1
100
AcDbLine
 10
11.314835
 20
-13.351554
 30
0.0
 11
11.22974
 21
-13.355798
 31
0.0
  0
LINE
  5
4E
330
5B7
100
AcDbEntity
  8
1
100
AcDbLine
 10
11.22974
 20
-13.355798
 30
0.0
 11
11.144168
 21
-13.359171
 31
0.0
  0
LINE
  5
4F
330
5B7
100
AcDbEntity
  8
1
100
AcDbLine
 10
11.144168
 20
-13.359171
 30
0.0
 11
11.058151
 21
-13.361674
 31
0.0
  0
LINE
  5
50
330
5B7
100
AcDbEntity
  8
1
100
AcDbLine
 10
11.058151
 20
-13.361674
 30
0.0
 11
10.971659
 21
-13.363312
 31
0.0
  0
LINE
  5
51
330
5B7
100
AcDbEntity
  8
1
100
AcDbLine
 10
10.971659
 20
-13.363312
 30
0.0
 11
10.884649
 21
-13.364155
 31
0.0
  0
LINE
  5
52
330
5B7
100
AcDbEntity
  8
1
100
AcDbLine
 10
10.884649
 20
-13.364155
 30
0.0
 11
10.797186
 21
-13.364209
 31
0.0
  0
LINE
  5
53
330
5B7
100
AcDbEntity
  8
1
100
AcDbLine
 10
10.797186
 20
-13.364209
 30
0.0
 11
10.709207
 21
-13.363469
 31
0.0
  0
LINE
  5
54
330
5B7
100
AcDbEntity
  8
1
100
AcDbLine
 10
10.709207
 20
-13.363469
 30
0.0
 11
10.620475
 21
-13.361989
 31
0.0
  0
LINE
  5
55
330
5B7
100
AcDbEntity
  8
1
100
AcDbLine
 10
10.620475
 20
-13.361989
 30
0.0
 11
10.530956
 21
-13.359773
 31
0.0
  0
LINE
  5
56
330
5B7
100
AcDbEntity
  8
1
100
AcDbLine
 10
10.530956
 20
-13.359773
 30
0.0
 11
10.440684
 21
-13.356815
 31
0.0
  0
LINE
  5
57
330
5B7
100
AcDbEntity
  8
1
100
AcDbLine
 10
10.440684
 20
-13.356815
 30
0.0
 11
10.349528
 21
-13.35315
 31
0.0
  0
LINE
  5
58
330
5B7
100
AcDbEntity
  8
1
100
AcDbLine
 10
10.349528
 20
-13.35315
 30
0.0
 11
10.257471
 21
-13.348779
 31
0.0
  0
LINE
  5
59
330
5B7
100
AcDbEntity
  8
1
100
AcDbLine
 10
10.257471
 20
-13.348779
 30
0.0
 11
10.164529
 21
-13.343695
 31
0.0
  0
LINE
  5
5A
330
5B7
100
AcDbEntity
  8
1
100
AcDbLine
 10
10.164529
 20
-13.343695
 30
0.0
 11
10.070616
 21
-13.337927
 31
0.0
  0
LINE
  5
5B
330
5B7
100
AcDbEntity
  8
1
100
AcDbLine
 10
10.070616
 20
-13.337927
 30
0.0
 11
9.975875
 21
-13.331486
 31
0.0
  0
LINE
  5
5C
330
5B7
100
AcDbEntity
  8
1
100
AcDbLine
 10
9.975875
 20
-13.331486
 30
0.0
 11
9.880164
 21
-13.324353
 31
0.0
  0
LINE
  5
5D
330
5B7
100
AcDbEntity
  8
1
100
AcDbLine
 10
9.880164
 20
-13.324353
 30
0.0
 11
9.782972
 21
-13.316506
 31
0.0
  0
LINE
  5
5E
330
5B7
100
AcDbEntity
  8
1
100
AcDbLine
 10
9.782972
 20
-13.316506
 30
0.0
 11
9.684427000000001
 21
-13.307965
 31
0.0
  0
LINE
  5
5F
330
5B7
100
AcDbEntity
  8
1
100
AcDbLine
 10
9.684427000000001
 20
-13.307965
 30
0.0
 11
9.584400999999999
 21
-13.298697
 31
0.0
  0
LINE
  5
60
330
5B7
100
AcDbEntity
  8
1
100
AcDbLine
 10
9.584400999999999
 20
-13.298697
 30
0.0
 11
9.482001
 21
-13.288607
 31
0.0
  0
LINE
  5
61
330
5B7
100
AcDbEntity
  8
1
100
AcDbLine
 10
9.482001
 20
-13.288607
 30
0.0
 11
9.3772
 21
-13.277697
 31
0.0
  0
LINE
  5
62
330
5B7
100
AcDbEntity
  8
1
100
AcDbLine
 10
9.3772
 20
-13.277697
 30
0.0
 11
9.270025
 21
-13.265945
 31
0.0
  0
LINE
  5
63
330
5B7
100
AcDbEntity
  8
1
100
AcDbLine
 10
9.270025
 20
-13.265945
 30
0.0
 11
9.159658
 21
-13.253218
 31
0.0
  0
LINE
  5
64
330
5B7
100
AcDbEntity
  8
1
100
AcDbLine
 10
9.159658
 20
-13.253218
 30
0.0
 11
9.046014999999998
 21
-13.239501
 31
0.0
  0
LINE
  5
65
330
5B7
100
AcDbEntity
  8
1
100
AcDbLine
 10
9.046014999999998
 20
-13.239501
 30
0.0
 11
8.92918
 21
-13.224781
 31
0.0
  0
LINE
  5
66
330
5B7
100
AcDbEntity
  8
1
100
AcDbLine
 10
8.92918
 20
-13.224781
 30
0.0
 11
8.808586999999999
 21
-13.208926
 31
0.0
  0
LINE
  5
67
330
5B7
100
AcDbEntity
  8
1
100
AcDbLine
 10
8.808586999999999
 20
-13.208926
 30
0.0
 11
8.684203
 21
-13.191916
 31
0.0
  0
LINE
  5
68
330
5B7
100
AcDbEntity
  8
1
100
AcDbLine
 10
8.684203
 20
-13.191916
 30
0.0
 11
8.55606
 21
-13.173734
 31
0.0
  0
LINE
  5
69
330
5B7
100
AcDbEntity
  8
1
100
AcDbLine
 10
8.55606
 20
-13.173734
 30
0.0
 11
8.423697
 21
-13.154248
 31
0.0
  0
LINE
  5
6A
330
5B7
100
AcDbEntity
  8
1
100
AcDbLine
 10
8.423697
 20
-13.154248
 30
0.0
 11
8.287191999999999
 21
-13.133448
 31
0.0
  0
LINE
  5
6B
330
5B7
100
AcDbEntity
  8
1
100
AcDbLine
 10
8.287191999999999
 20
-13.133448
 30
0.0
 11
8.146466999999999
 21
-13.111297
 31
0.0
  0
LINE
  5
6C
330
5B7
100
AcDbEntity
  8
1
100
AcDbLine
 10
8.146466999999999
 20
-13.111297
 30
0.0
 11
8.000819999999999
 21
-13.087611
 31
0.0
  0
LINE
  5
6D
330
5B7
100
AcDbEntity
  8
1
100
AcDbLine
 10
8.000819999999999
 20
-13.087611
 30
0.0
 11
7.850274
 21
-13.062366
 31
0.0
  0
LINE
  5
6E
330
5B7
100
AcDbEntity
  8
1
100
AcDbLine
 10
7.850274
 20
-13.062366
 30
0.0
 11
7.694805999999999
 21
-13.035524
 31
0.0
  0
LINE
  5
6F
330
5B7
100
AcDbEntity
  8
1
100
AcDbLine
 10
7.694805999999999
 20
-13.035524
 30
0.0
 11
7.533644
 21
-13.006871
 31
0.0
  0
LINE
  5
70
330
5B7
100
AcDbEntity
  8
1
100
AcDbLine
 10
7.533644
 20
-13.006871
 30
0.0
 11
7.366786999999999
 21
-12.976367
 31
0.0
  0
LINE
  5
71
330
5B7
100
AcDbEntity
  8
1
100
AcDbLine
 10
7.366786999999999
 20
-12.976367
 30
0.0
 11
7.194236
 21
-12.94397
 31
0.0
  0
LINE
  5
72
330
5B7
100
AcDbEntity
  8
1
100
AcDbLine
 10
7.194236
 20
-12.94397
 30
0.0
 11
7.015219
 21
-12.909448
 31
0.0
  0
LINE
  5
73
330
5B7
100
AcDbEntity
  8
1
100
AcDbLine
 10
7.015219
 20
-12.909448
 30
0.0
 11
6.829747
 21
-12.872751
 31
0.0
  0
LINE
  5
74
330
5B7
100
AcDbEntity
  8
1
100
AcDbLine
 10
6.829747
 20
-12.872751
 30
0.0
 11
6.63781
 21
-12.833822
 31
0.0
  0
LINE
  5
75
330
5B7
100
AcDbEntity
  8
1
100
AcDbLine
 10
6.63781
 20
-12.833822
 30
0.0
 11
6.438609999999999
 21
-12.792411
 31
0.0
  0
LINE
  5
76
330
5B7
100
AcDbEntity
  8
1
100
AcDbLine
 10
6.438609999999999
 20
-12.792411
 30
0.0
 11
6.232147
 21
-12.74845
 31
0.0
  0
LINE
  5
77
330
5B7
100
AcDbEntity
  8
1
100
AcDbLine
 10
6.232147
 20
-12.74845
 30
0.0
 11
6.018422
 21
-12.701871
 31
0.0
  0
LINE
  5
78
330
5B7
100
AcDbEntity
  8
1
100
AcDbLine
 10
6.018422
 20
-12.701871
 30
0.0
 11
5.796632999999999
 21
-12.652408
 31
0.0
  0
LINE
  5
79
330
5B7
100
AcDbEntity
  8
1
100
AcDbLine
 10
5.796632999999999
 20
-12.652408
 30
0.0
 11
5.566513999999999
 21
-12.599911
 31
0.0
  0
LINE
  5
7A
330
5B7
100
AcDbEntity
  8
1
100
AcDbLine
 10
5.566513999999999
 20
-12.599911
 30
0.0
 11
5.328330999999999
 21
-12.544363
 31
0.0
  0
LINE
  5
7B
330
5B7
100
AcDbEntity
  8
1
100
AcDbLine
 10
5.328330999999999
 20
-12.544363
 30
0.0
 11
5.082085
 21
-12.485674
 31
0.0
  0
LINE
  5
7C
330
5B7
100
AcDbEntity
  8
1
100
AcDbLine
 10
15.1
 20
-13.812532
 30
0.0
 11
14.194241
 21
-13.909919
 31
0.0
  0
LINE
  5
7D
330
5B7
100
AcDbEntity
  8
1
100
AcDbLine
 10
14.194241
 20
-13.909919
 30
0.0
 11
13.280697
 21
-14.001098
 31
0.0
  0
LINE
  5
7E
330
5B7
100
AcDbEntity
  8
1
100
AcDbLine
 10
13.280697
 20
-14.001098
 30
0.0
 11
12.359366
 21
-14.086066
 31
0.0
  0
LINE
  5
7F
330
5B7
100
AcDbEntity
  8
1
100
AcDbLine
 10
12.359366
 20
-14.086066
 30
0.0
 11
11.429659
 21
-14.164919
 31
0.0
  0
LINE
  5
80
330
5B7
100
AcDbEntity
  8
1
100
AcDbLine
 10
11.429659
 20
-14.164919
 30
0.0
 11
10.492165
 21
-14.237562
 31
0.0
  0
LINE
  5
81
330
5B7
100
AcDbEntity
  8
1
100
AcDbLine
 10
10.492165
 20
-14.237562
 30
0.0
 11
9.548655999999999
 21
-14.303718
 31
0.0
  0
LINE
  5
82
330
5B7
100
AcDbEntity
  8
1
100
AcDbLine
 10
0.0
 20
-14.6
 30
0.0
 11
4.113271
 21
-14.6
 31
0.0
  0
LINE
  5
83
330
5B7
100
AcDbEntity
  8
1
100
AcDbLine
 10
8.506847
 20
-8.946249999999999
 30
0.0
 11
8.464036
 21
-8.967891999999999
 31
0.0
  0
LINE
  5
84
330
5B7
100
AcDbEntity
  8
1
100
AcDbLine
 10
8.464036
 20
-8.967891999999999
 30
0.0
 11
8.325341999999999
 21
-9.041260000000001
 31
0.0
  0
LINE
  5
85
330
5B7
100
AcDbEntity
  8
1
100
AcDbLine
 10
8.325341999999999
 20
-9.041260000000001
 30
0.0
 11
8.188141999999999
 21
-9.117122999999999
 31
0.0
  0
LINE
  5
86
330
5B7
100
AcDbEntity
  8
1
100
AcDbLine
 10
8.188141999999999
 20
-9.117122999999999
 30
0.0
 11
8.052531
 21
-9.195429999999999
 31
0.0
  0
LINE
  5
87
330
5B7
100
AcDbEntity
  8
1
100
AcDbLine
 10
8.052531
 20
-9.195429999999999
 30
0.0
 11
7.918600999999999
 21
-9.276127
 31
0.0
  0
LINE
  5
88
330
5B7
100
AcDbEntity
  8
1
100
AcDbLine
 10
7.918600999999999
 20
-9.276127
 30
0.0
 11
7.786442999999999
 21
-9.359159
 31
0.0
  0
LINE
  5
89
330
5B7
100
AcDbEntity
  8
1
100
AcDbLine
 10
7.786442999999999
 20
-9.359159
 30
0.0
 11
7.65615
 21
-9.444468999999999
 31
0.0
  0
LINE
  5
8A
330
5B7
100
AcDbEntity
  8
1
100
AcDbLine
 10
7.65615
 20
-9.444468999999999
 30
0.0
 11
7.527808999999999
 21
-9.531999
 31
0.0
  0
LINE
  5
8B
330
5B7
100
AcDbEntity
  8
1
100
AcDbLine
 10
7.527808999999999
 20
-9.531999
 30
0.0
 11
7.401507999999999
 21
-9.621688999999999
 31
0.0
  0
LINE
  5
8C
330
5B7
100
AcDbEntity
  8
1
100
AcDbLine
 10
7.401507999999999
 20
-9.621688999999999
 30
0.0
 11
7.277333999999999
 21
-9.713477000000001
 31
0.0
  0
LINE
  5
8D
330
5B7
100
AcDbEntity
  8
1
100
AcDbLine
 10
7.277333999999999
 20
-9.713477000000001
 30
0.0
 11
7.155371999999999
 21
-9.807300999999998
 31
0.0
  0
LINE
  5
8E
330
5B7
100
AcDbEntity
  8
1
100
AcDbLine
 10
7.155371999999999
 20
-9.807300999999998
 30
0.0
 11
7.035705999999999
 21
-9.903096000000001
 31
0.0
  0
LINE
  5
8F
330
5B7
100
AcDbEntity
  8
1
100
AcDbLine
 10
7.035705999999999
 20
-9.903096000000001
 30
0.0
 11
6.918416999999999
 21
-10.000797
 31
0.0
  0
LINE
  5
90
330
5B7
100
AcDbEntity
  8
1
100
AcDbLine
 10
6.918416999999999
 20
-10.000797
 30
0.0
 11
6.803586
 21
-10.100336
 31
0.0
  0
LINE
  5
91
330
5B7
100
AcDbEntity
  8
1
100
AcDbLine
 10
6.803586
 20
-10.100336
 30
0.0
 11
6.691291
 21
-10.201646
 31
0.0
  0
LINE
  5
92
330
5B7
100
AcDbEntity
  8
1
100
AcDbLine
 10
6.691291
 20
-10.201646
 30
0.0
 11
6.58161
 21
-10.304658
 31
0.0
  0
LINE
  5
93
330
5B7
100
AcDbEntity
  8
1
100
AcDbLine
 10
6.58161
 20
-10.304658
 30
0.0
 11
6.474616
 21
-10.4093
 31
0.0
  0
LINE
  5
94
330
5B7
100
AcDbEntity
  8
1
100
AcDbLine
 10
6.474616
 20
-10.4093
 30
0.0
 11
6.370383999999999
 21
-10.515502
 31
0.0
  0
LINE
  5
95
330
5B7
100
AcDbEntity
  8
1
100
AcDbLine
 10
6.370383999999999
 20
-10.515502
 30
0.0
 11
6.268985999999999
 21
-10.62319
 31
0.0
  0
LINE
  5
96
330
5B7
100
AcDbEntity
  8
1
100
AcDbLine
 10
6.268985999999999
 20
-10.62319
 30
0.0
 11
6.170488999999999
 21
-10.73229
 31
0.0
  0
LINE
  5
97
330
5B7
100
AcDbEntity
  8
1
100
AcDbLine
 10
6.170488999999999
 20
-10.73229
 30
0.0
 11
6.074962999999999
 21
-10.842729
 31
0.0
  0
LINE
  5
98
330
5B7
100
AcDbEntity
  8
1
100
AcDbLine
 10
6.074962999999999
 20
-10.842729
 30
0.0
 11
5.982471
 21
-10.95443
 31
0.0
  0
LINE
  5
99
330
5B7
100
AcDbEntity
  8
1
100
AcDbLine
 10
5.982471
 20
-10.95443
 30
0.0
 11
5.893078
 21
-11.067317
 31
0.0
  0
LINE
  5
9A
330
5B7
100
AcDbEntity
  8
1
100
AcDbLine
 10
5.893078
 20
-11.067317
 30
0.0
 11
5.806845
 21
-11.181312
 31
0.0
  0
LINE
  5
9B
330
5B7
100
AcDbEntity
  8
1
100
AcDbLine
 10
5.806845
 20
-11.181312
 30
0.0
 11
5.723830999999999
 21
-11.296338
 31
0.0
  0
LINE
  5
9C
330
5B7
100
AcDbEntity
  8
1
100
AcDbLine
 10
5.723830999999999
 20
-11.296338
 30
0.0
 11
5.644091999999999
 21
-11.412316
 31
0.0
  0
LINE
  5
9D
330
5B7
100
AcDbEntity
  8
1
100
AcDbLine
 10
5.644091999999999
 20
-11.412316
 30
0.0
 11
5.567683
 21
-11.529166
 31
0.0
  0
LINE
  5
9E
330
5B7
100
AcDbEntity
  8
1
100
AcDbLine
 10
5.567683
 20
-11.529166
 30
0.0
 11
5.494657
 21
-11.646809
 31
0.0
  0
LINE
  5
9F
330
5B7
100
AcDbEntity
  8
1
100
AcDbLine
 10
5.494657
 20
-11.646809
 30
0.0
 11
5.425063999999999
 21
-11.765163
 31
0.0
  0
LINE
  5
A0
330
5B7
100
AcDbEntity
  8
1
100
AcDbLine
 10
5.425063999999999
 20
-11.765163
 30
0.0
 11
5.35895
 21
-11.884149
 31
0.0
  0
LINE
  5
A1
330
5B7
100
AcDbEntity
  8
1
100
AcDbLine
 10
5.35895
 20
-11.884149
 30
0.0
 11
5.296362
 21
-12.003683
 31
0.0
  0
LINE
  5
A2
330
5B7
100
AcDbEntity
  8
1
100
AcDbLine
 10
5.296362
 20
-12.003683
 30
0.0
 11
5.237343
 21
-12.123685
 31
0.0
  0
LINE
  5
A3
330
5B7
100
AcDbEntity
  8
1
100
AcDbLine
 10
5.237343
 20
-12.123685
 30
0.0
 11
5.181931999999999
 21
-12.244073
 31
0.0
  0
LINE
  5
A4
330
5B7
100
AcDbEntity
  8
1
100
AcDbLine
 10
5.181931999999999
 20
-12.244073
 30
0.0
 11
5.130168
 21
-12.364763
 31
0.0
  0
LINE
  5
A5
330
5B7
100
AcDbEntity
  8
1
100
AcDbLine
 10
5.130168
 20
-12.364763
 30
0.0
 11
5.082085
 21
-12.485674
 31
0.0
  0
LINE
  5
A6
330
5B7
100
AcDbEntity
  8
1
100
AcDbLine
 10
7.511592999999999
 20
-11.380212
 30
0.0
 11
7.513267999999999
 21
-11.352245
 31
0.0
  0
LINE
  5
A7
330
5B7
100
AcDbEntity
  8
1
100
AcDbLine
 10
7.513267999999999
 20
-11.352245
 30
0.0
 11
7.516103999999999
 21
-11.32426
 31
0.0
  0
LINE
  5
A8
330
5B7
100
AcDbEntity
  8
1
100
AcDbLine
 10
7.516103999999999
 20
-11.32426
 30
0.0
 11
7.520106
 21
-11.296286
 31
0.0
  0
LINE
  5
A9
330
5B7
100
AcDbEntity
  8
1
100
AcDbLine
 10
7.520106
 20
-11.296286
 30
0.0
 11
7.525261999999999
 21
-11.268382
 31
0.0
  0
LINE
  5
AA
330
5B7
100
AcDbEntity
  8
1
100
AcDbLine
 10
7.525261999999999
 20
-11.268382
 30
0.0
 11
7.531589999999999
 21
-11.240549
 31
0.0
  0
LINE
  5
AB
330
5B7
100
AcDbEntity
  8
1
100
AcDbLine
 10
7.531589999999999
 20
-11.240549
 30
0.0
 11
7.539146999999999
 21
-11.212737
 31
0.0
  0
LINE
  5
AC
330
5B7
100
AcDbEntity
  8
1
100
AcDbLine
 10
7.539146999999999
 20
-11.212737
 30
0.0
 11
7.54795
 21
-11.184945
 31
0.0
  0
LINE
  5
AD
330
5B7
100
AcDbEntity
  8
1
100
AcDbLine
 10
7.54795
 20
-11.184945
 30
0.0
 11
7.557996000000001
 21
-11.157243
 31
0.0
  0
LINE
  5
AE
330
5B7
100
AcDbEntity
  8
1
100
AcDbLine
 10
7.557996000000001
 20
-11.157243
 30
0.0
 11
7.569314
 21
-11.129688
 31
0.0
  0
LINE
  5
AF
330
5B7
100
AcDbEntity
  8
1
100
AcDbLine
 10
7.569314
 20
-11.129688
 30
0.0
 11
7.58191
 21
-11.102314
 31
0.0
  0
LINE
  5
B0
330
5B7
100
AcDbEntity
  8
1
100
AcDbLine
 10
7.58191
 20
-11.102314
 30
0.0
 11
7.595782999999999
 21
-11.075156
 31
0.0
  0
LINE
  5
B1
330
5B7
100
AcDbEntity
  8
1
100
AcDbLine
 10
7.595782999999999
 20
-11.075156
 30
0.0
 11
7.610941999999999
 21
-11.04827
 31
0.0
  0
LINE
  5
B2
330
5B7
100
AcDbEntity
  8
1
100
AcDbLine
 10
7.610941999999999
 20
-11.04827
 30
0.0
 11
7.627352
 21
-11.02174
 31
0.0
  0
LINE
  5
B3
330
5B7
100
AcDbEntity
  8
1
100
AcDbLine
 10
7.627352
 20
-11.02174
 30
0.0
 11
7.645042999999999
 21
-10.995547
 31
0.0
  0
LINE
  5
B4
330
5B7
100
AcDbEntity
  8
1
100
AcDbLine
 10
7.645042999999999
 20
-10.995547
 30
0.0
 11
7.664128999999999
 21
-10.969597
 31
0.0
  0
LINE
  5
B5
330
5B7
100
AcDbEntity
  8
1
100
AcDbLine
 10
7.664128999999999
 20
-10.969597
 30
0.0
 11
7.684622999999999
 21
-10.943916
 31
0.0
  0
LINE
  5
B6
330
5B7
100
AcDbEntity
  8
1
100
AcDbLine
 10
7.684622999999999
 20
-10.943916
 30
0.0
 11
7.706522999999999
 21
-10.918567
 31
0.0
  0
LINE
  5
B7
330
5B7
100
AcDbEntity
  8
1
100
AcDbLine
 10
7.706522999999999
 20
-10.918567
 30
0.0
 11
7.729932
 21
-10.893517
 31
0.0
  0
LINE
  5
B8
330
5B7
100
AcDbEntity
  8
1
100
AcDbLine
 10
7.729932
 20
-10.893517
 30
0.0
 11
7.754861
 21
-10.868815
 31
0.0
  0
LINE
  5
B9
330
5B7
100
AcDbEntity
  8
1
100
AcDbLine
 10
7.754861
 20
-10.868815
 30
0.0
 11
7.781311999999999
 21
-10.84452
 31
0.0
  0
LINE
  5
BA
330
5B7
100
AcDbEntity
  8
1
100
AcDbLine
 10
7.781311999999999
 20
-10.84452
 30
0.0
 11
7.809383999999999
 21
-10.82063
 31
0.0
  0
LINE
  5
BB
330
5B7
100
AcDbEntity
  8
1
100
AcDbLine
 10
7.809383999999999
 20
-10.82063
 30
0.0
 11
7.839129999999999
 21
-10.797175
 31
0.0
  0
LINE
  5
BC
330
5B7
100
AcDbEntity
  8
1
100
AcDbLine
 10
7.839129999999999
 20
-10.797175
 30
0.0
 11
7.870505999999999
 21
-10.774251
 31
0.0
  0
LINE
  5
BD
330
5B7
100
AcDbEntity
  8
1
100
AcDbLine
 10
7.870505999999999
 20
-10.774251
 30
0.0
 11
7.903466
 21
-10.751965
 31
0.0
  0
LINE
  5
BE
330
5B7
100
AcDbEntity
  8
1
100
AcDbLine
 10
7.903466
 20
-10.751965
 30
0.0
 11
7.937982
 21
-10.730394
 31
0.0
  0
LINE
  5
BF
330
5B7
100
AcDbEntity
  8
1
100
AcDbLine
 10
7.937982
 20
-10.730394
 30
0.0
 11
7.974069999999999
 21
-10.709574
 31
0.0
  0
LINE
  5
C0
330
5B7
100
AcDbEntity
  8
1
100
AcDbLine
 10
7.974069999999999
 20
-10.709574
 30
0.0
 11
8.011741999999999
 21
-10.689553
 31
0.0
  0
LINE
  5
C1
330
5B7
100
AcDbEntity
  8
1
100
AcDbLine
 10
8.011741999999999
 20
-10.689553
 30
0.0
 11
8.050971
 21
-10.670401
 31
0.0
  0
LINE
  5
C2
330
5B7
100
AcDbEntity
  8
1
100
AcDbLine
 10
8.050971
 20
-10.670401
 30
0.0
 11
8.091761999999999
 21
-10.652167
 31
0.0
  0
LINE
  5
C3
330
5B7
100
AcDbEntity
  8
1
100
AcDbLine
 10
8.091761999999999
 20
-10.652167
 30
0.0
 11
8.134177000000001
 21
-10.634877
 31
0.0
  0
LINE
  5
C4
330
5B7
100
AcDbEntity
  8
1
100
AcDbLine
 10
8.134177000000001
 20
-10.634877
 30
0.0
 11
8.178226999999999
 21
-10.618595
 31
0.0
  0
LINE
  5
C5
330
5B7
100
AcDbEntity
  8
1
100
AcDbLine
 10
8.178226999999999
 20
-10.618595
 30
0.0
 11
8.223872
 21
-10.603397
 31
0.0
  0
LINE
  5
C6
330
5B7
100
AcDbEntity
  8
1
100
AcDbLine
 10
8.223872
 20
-10.603397
 30
0.0
 11
8.271102
 21
-10.589347
 31
0.0
  0
LINE
  5
C7
330
5B7
100
AcDbEntity
  8
1
100
AcDbLine
 10
8.271102
 20
-10.589347
 30
0.0
 11
8.319931
 21
-10.57651
 31
0.0
  0
LINE
  5
C8
330
5B7
100
AcDbEntity
  8
1
100
AcDbLine
 10
8.319931
 20
-10.57651
 30
0.0
 11
8.370299000000001
 21
-10.564972
 31
0.0
  0
LINE
  5
C9
330
5B7
100
AcDbEntity
  8
1
100
AcDbLine
 10
8.370299000000001
 20
-10.564972
 30
0.0
 11
8.404647999999999
 21
-10.55805
 31
0.0
  0
LINE
  5
CA
330
5B7
100
AcDbEntity
  8
1
100
AcDbLine
 10
5.082085
 20
-12.485674
 30
0.0
 11
4.985884999999999
 21
-12.352439
 31
0.0
  0
LINE
  5
CB
330
5B7
100
AcDbEntity
  8
1
100
AcDbLine
 10
4.985884999999999
 20
-12.352439
 30
0.0
 11
4.890939
 21
-12.21519
 31
0.0
  0
LINE
  5
CC
330
5B7
100
AcDbEntity
  8
1
100
AcDbLine
 10
4.890939
 20
-12.21519
 30
0.0
 11
4.797248
 21
-12.073944
 31
0.0
  0
LINE
  5
CD
330
5B7
100
AcDbEntity
  8
1
100
AcDbLine
 10
4.797248
 20
-12.073944
 30
0.0
 11
4.70478
 21
-11.928601
 31
0.0
  0
LINE
  5
CE
330
5B7
100
AcDbEntity
  8
1
100
AcDbLine
 10
4.70478
 20
-11.928601
 30
0.0
 11
4.613566
 21
-11.779296
 31
0.0
  0
LINE
  5
CF
330
5B7
100
AcDbEntity
  8
1
100
AcDbLine
 10
4.613566
 20
-11.779296
 30
0.0
 11
4.523704
 21
-11.626436
 31
0.0
  0
LINE
  5
D0
330
5B7
100
AcDbEntity
  8
1
100
AcDbLine
 10
4.523704
 20
-11.626436
 30
0.0
 11
4.435170999999999
 21
-11.470071
 31
0.0
  0
LINE
  5
D1
330
5B7
100
AcDbEntity
  8
1
100
AcDbLine
 10
4.435170999999999
 20
-11.470071
 30
0.0
 11
4.34799
 21
-11.310254
 31
0.0
  0
LINE
  5
D2
330
5B7
100
AcDbEntity
  8
1
100
AcDbLine
 10
4.34799
 20
-11.310254
 30
0.0
 11
4.262323999999999
 21
-11.147449
 31
0.0
  0
LINE
  5
D3
330
5B7
100
AcDbEntity
  8
1
100
AcDbLine
 10
4.262323999999999
 20
-11.147449
 30
0.0
 11
4.178154
 21
-10.98174
 31
0.0
  0
LINE
  5
D4
330
5B7
100
AcDbEntity
  8
1
100
AcDbLine
 10
4.178154
 20
-10.98174
 30
0.0
 11
4.095498
 21
-10.813202
 31
0.0
  0
LINE
  5
D5
330
5B7
100
AcDbEntity
  8
1
100
AcDbLine
 10
4.095498
 20
-10.813202
 30
0.0
 11
4.014573
 21
-10.642334
 31
0.0
  0
LINE
  5
D6
330
5B7
100
AcDbEntity
  8
1
100
AcDbLine
 10
4.014573
 20
-10.642334
 30
0.0
 11
3.935449999999999
 21
-10.469381
 31
0.0
  0
LINE
  5
D7
330
5B7
100
AcDbEntity
  8
1
100
AcDbLine
 10
3.935449999999999
 20
-10.469381
 30
0.0
 11
3.858057
 21
-10.294305
 31
0.0
  0
LINE
  5
D8
330
5B7
100
AcDbEntity
  8
1
100
AcDbLine
 10
3.858057
 20
-10.294305
 30
0.0
 11
3.782394
 21
-10.117209
 31
0.0
  0
LINE
  5
D9
330
5B7
100
AcDbEntity
  8
1
100
AcDbLine
 10
8.404647999999999
 20
-10.55805
 30
0.0
 11
8.422076999999999
 21
-10.554823
 31
0.0
  0
LINE
  5
DA
330
5B7
100
AcDbEntity
  8
1
100
AcDbLine
 10
8.422076999999999
 20
-10.554823
 30
0.0
 11
8.475414
 21
-10.546108
 31
0.0
  0
LINE
  5
DB
330
5B7
100
AcDbEntity
  8
1
100
AcDbLine
 10
8.475414
 20
-10.546108
 30
0.0
 11
8.530091999999999
 21
-10.538933
 31
0.0
  0
LINE
  5
DC
330
5B7
100
AcDbEntity
  8
1
100
AcDbLine
 10
8.530091999999999
 20
-10.538933
 30
0.0
 11
8.585421
 21
-10.533438
 31
0.0
  0
LINE
  5
DD
330
5B7
100
AcDbEntity
  8
1
100
AcDbLine
 10
8.585421
 20
-10.533438
 30
0.0
 11
8.641344
 21
-10.529637
 31
0.0
  0
LINE
  5
DE
330
5B7
100
AcDbEntity
  8
1
100
AcDbLine
 10
8.641344
 20
-10.529637
 30
0.0
 11
8.697819
 21
-10.527547
 31
0.0
  0
LINE
  5
DF
330
5B7
100
AcDbEntity
  8
1
100
AcDbLine
 10
8.697819
 20
-10.527547
 30
0.0
 11
8.754155
 21
-10.527213
 31
0.0
  0
LINE
  5
E0
330
5B7
100
AcDbEntity
  8
1
100
AcDbLine
 10
8.754155
 20
-10.527213
 30
0.0
 11
8.810285
 21
-10.528601
 31
0.0
  0
LINE
  5
E1
330
5B7
100
AcDbEntity
  8
1
100
AcDbLine
 10
8.810285
 20
-10.528601
 30
0.0
 11
8.866175
 21
-10.531677
 31
0.0
  0
LINE
  5
E2
330
5B7
100
AcDbEntity
  8
1
100
AcDbLine
 10
8.866175
 20
-10.531677
 30
0.0
 11
8.921189
 21
-10.536407
 31
0.0
  0
LINE
  5
E3
330
5B7
100
AcDbEntity
  8
1
100
AcDbLine
 10
8.921189
 20
-10.536407
 30
0.0
 11
8.975175999999999
 21
-10.542706
 31
0.0
  0
LINE
  5
E4
330
5B7
100
AcDbEntity
  8
1
100
AcDbLine
 10
8.975175999999999
 20
-10.542706
 30
0.0
 11
9.028202
 21
-10.550505
 31
0.0
  0
LINE
  5
E5
330
5B7
100
AcDbEntity
  8
1
100
AcDbLine
 10
9.028202
 20
-10.550505
 30
0.0
 11
9.079967999999999
 21
-10.55975
 31
0.0
  0
LINE
  5
E6
330
5B7
100
AcDbEntity
  8
1
100
AcDbLine
 10
9.079967999999999
 20
-10.55975
 30
0.0
 11
9.130411999999999
 21
-10.57036
 31
0.0
  0
LINE
  5
E7
330
5B7
100
AcDbEntity
  8
1
100
AcDbLine
 10
9.130411999999999
 20
-10.57036
 30
0.0
 11
9.179533000000001
 21
-10.582252
 31
0.0
  0
LINE
  5
E8
330
5B7
100
AcDbEntity
  8
1
100
AcDbLine
 10
9.179533000000001
 20
-10.582252
 30
0.0
 11
9.227128999999999
 21
-10.595364
 31
0.0
  0
LINE
  5
E9
330
5B7
100
AcDbEntity
  8
1
100
AcDbLine
 10
9.227128999999999
 20
-10.595364
 30
0.0
 11
9.273177
 21
-10.609622
 31
0.0
  0
LINE
  5
EA
330
5B7
100
AcDbEntity
  8
1
100
AcDbLine
 10
9.273177
 20
-10.609622
 30
0.0
 11
9.317657999999999
 21
-10.624937
 31
0.0
  0
LINE
  5
EB
330
5B7
100
AcDbEntity
  8
1
100
AcDbLine
 10
9.317657999999999
 20
-10.624937
 30
0.0
 11
9.360378
 21
-10.641212
 31
0.0
  0
LINE
  5
EC
330
5B7
100
AcDbEntity
  8
1
100
AcDbLine
 10
9.360378
 20
-10.641212
 30
0.0
 11
9.401305
 21
-10.658366
 31
0.0
  0
LINE
  5
ED
330
5B7
100
AcDbEntity
  8
1
100
AcDbLine
 10
9.401305
 20
-10.658366
 30
0.0
 11
9.440453999999999
 21
-10.676314
 31
0.0
  0
LINE
  5
EE
330
5B7
100
AcDbEntity
  8
1
100
AcDbLine
 10
9.440453999999999
 20
-10.676314
 30
0.0
 11
9.477714999999999
 21
-10.694942
 31
0.0
  0
LINE
  5
EF
330
5B7
100
AcDbEntity
  8
1
100
AcDbLine
 10
9.477714999999999
 20
-10.694942
 30
0.0
 11
9.513047
 21
-10.71416
 31
0.0
  0
LINE
  5
F0
330
5B7
100
AcDbEntity
  8
1
100
AcDbLine
 10
9.513047
 20
-10.71416
 30
0.0
 11
9.546499
 21
-10.733899
 31
0.0
  0
LINE
  5
F1
330
5B7
100
AcDbEntity
  8
1
100
AcDbLine
 10
9.546499
 20
-10.733899
 30
0.0
 11
9.578101
 21
-10.754079
 31
0.0
  0
LINE
  5
F2
330
5B7
100
AcDbEntity
  8
1
100
AcDbLine
 10
9.578101
 20
-10.754079
 30
0.0
 11
9.607871000000001
 21
-10.774649
 31
0.0
  0
LINE
  5
F3
330
5B7
100
AcDbEntity
  8
1
100
AcDbLine
 10
9.607871000000001
 20
-10.774649
 30
0.0
 11
9.635811
 21
-10.795522
 31
0.0
  0
LINE
  5
F4
330
5B7
100
AcDbEntity
  8
1
100
AcDbLine
 10
9.635811
 20
-10.795522
 30
0.0
 11
9.661942999999999
 21
-10.816569
 31
0.0
  0
LINE
  5
F5
330
5B7
100
AcDbEntity
  8
1
100
AcDbLine
 10
9.661942999999999
 20
-10.816569
 30
0.0
 11
9.686244999999999
 21
-10.837703
 31
0.0
  0
LINE
  5
F6
330
5B7
100
AcDbEntity
  8
1
100
AcDbLine
 10
9.686244999999999
 20
-10.837703
 30
0.0
 11
9.708776999999999
 21
-10.858885
 31
0.0
  0
LINE
  5
F7
330
5B7
100
AcDbEntity
  8
1
100
AcDbLine
 10
9.708776999999999
 20
-10.858885
 30
0.0
 11
9.729689
 21
-10.880059
 31
0.0
  0
LINE
  5
F8
330
5B7
100
AcDbEntity
  8
1
100
AcDbLine
 10
9.729689
 20
-10.880059
 30
0.0
 11
9.748984
 21
-10.901153
 31
0.0
  0
LINE
  5
F9
330
5B7
100
AcDbEntity
  8
1
100
AcDbLine
 10
9.748984
 20
-10.901153
 30
0.0
 11
9.766703999999998
 21
-10.92214
 31
0.0
  0
LINE
  5
FA
330
5B7
100
AcDbEntity
  8
1
100
AcDbLine
 10
9.766703999999998
 20
-10.92214
 30
0.0
 11
9.783055
 21
-10.943042
 31
0.0
  0
LINE
  5
FB
330
5B7
100
AcDbEntity
  8
1
100
AcDbLine
 10
9.783055
 20
-10.943042
 30
0.0
 11
9.798058000000001
 21
-10.963813
 31
0.0
  0
LINE
  5
FC
330
5B7
100
AcDbEntity
  8
1
100
AcDbLine
 10
9.798058000000001
 20
-10.963813
 30
0.0
 11
9.811730999999999
 21
-10.984427
 31
0.0
  0
LINE
  5
FD
330
5B7
100
AcDbEntity
  8
1
100
AcDbLine
 10
9.811730999999999
 20
-10.984427
 30
0.0
 11
9.824264999999998
 21
-11.004948
 31
0.0
  0
LINE
  5
FE
330
5B7
100
AcDbEntity
  8
1
100
AcDbLine
 10
9.824264999999998
 20
-11.004948
 30
0.0
 11
9.835672
 21
-11.025315
 31
0.0
  0
LINE
  5
FF
330
5B7
100
AcDbEntity
  8
1
100
AcDbLine
 10
9.835672
 20
-11.025315
 30
0.0
 11
9.845971
 21
-11.045538
 31
0.0
  0
LINE
  5
100
330
5B7
100
AcDbEntity
  8
1
100
AcDbLine
 10
9.845971
 20
-11.045538
 30
0.0
 11
9.855344999999999
 21
-11.065789
 31
0.0
  0
LINE
  5
101
330
5B7
100
AcDbEntity
  8
1
100
AcDbLine
 10
9.855344999999999
 20
-11.065789
 30
0.0
 11
9.863827
 21
-11.086071
 31
0.0
  0
LINE
  5
102
330
5B7
100
AcDbEntity
  8
1
100
AcDbLine
 10
9.863827
 20
-11.086071
 30
0.0
 11
9.871396
 21
-11.106348
 31
0.0
  0
LINE
  5
103
330
5B7
100
AcDbEntity
  8
1
100
AcDbLine
 10
9.871396
 20
-11.106348
 30
0.0
 11
9.878142999999999
 21
-11.126741
 31
0.0
  0
LINE
  5
104
330
5B7
100
AcDbEntity
  8
1
100
AcDbLine
 10
9.878142999999999
 20
-11.126741
 30
0.0
 11
9.884085
 21
-11.147262
 31
0.0
  0
LINE
  5
105
330
5B7
100
AcDbEntity
  8
1
100
AcDbLine
 10
9.884085
 20
-11.147262
 30
0.0
 11
9.889205999999999
 21
-11.167875
 31
0.0
  0
LINE
  5
106
330
5B7
100
AcDbEntity
  8
1
100
AcDbLine
 10
9.889205999999999
 20
-11.167875
 30
0.0
 11
9.893539
 21
-11.188637
 31
0.0
  0
LINE
  5
107
330
5B7
100
AcDbEntity
  8
1
100
AcDbLine
 10
9.893539
 20
-11.188637
 30
0.0
 11
9.897088
 21
-11.209523
 31
0.0
  0
LINE
  5
108
330
5B7
100
AcDbEntity
  8
1
100
AcDbLine
 10
9.897088
 20
-11.209523
 30
0.0
 11
9.899846
 21
-11.230536
 31
0.0
  0
LINE
  5
109
330
5B7
100
AcDbEntity
  8
1
100
AcDbLine
 10
9.899846
 20
-11.230536
 30
0.0
 11
9.901827
 21
-11.251777
 31
0.0
  0
LINE
  5
10A
330
5B7
100
AcDbEntity
  8
1
100
AcDbLine
 10
9.901827
 20
-11.251777
 30
0.0
 11
9.903033999999999
 21
-11.273219
 31
0.0
  0
LINE
  5
10B
330
5B7
100
AcDbEntity
  8
1
100
AcDbLine
 10
9.903033999999999
 20
-11.273219
 30
0.0
 11
9.903450999999998
 21
-11.294867
 31
0.0
  0
LINE
  5
10C
330
5B7
100
AcDbEntity
  8
1
100
AcDbLine
 10
9.903450999999998
 20
-11.294867
 30
0.0
 11
9.903053999999999
 21
-11.316874
 31
0.0
  0
LINE
  5
10D
330
5B7
100
AcDbEntity
  8
1
100
AcDbLine
 10
9.903053999999999
 20
-11.316874
 30
0.0
 11
9.901835999999999
 21
-11.339247
 31
0.0
  0
LINE
  5
10E
330
5B7
100
AcDbEntity
  8
1
100
AcDbLine
 10
9.901835999999999
 20
-11.339247
 30
0.0
 11
9.899774999999999
 21
-11.361953
 31
0.0
  0
LINE
  5
10F
330
5B7
100
AcDbEntity
  8
1
100
AcDbLine
 10
9.899774999999999
 20
-11.361953
 30
0.0
 11
9.896813999999999
 21
-11.38508
 31
0.0
  0
LINE
  5
110
330
5B7
100
AcDbEntity
  8
1
100
AcDbLine
 10
9.896813999999999
 20
-11.38508
 30
0.0
 11
9.892915999999999
 21
-11.408645
 31
0.0
  0
LINE
  5
111
330
5B7
100
AcDbEntity
  8
1
100
AcDbLine
 10
9.892915999999999
 20
-11.408645
 30
0.0
 11
9.88808
 21
-11.432595
 31
0.0
  0
LINE
  5
112
330
5B7
100
AcDbEntity
  8
1
100
AcDbLine
 10
9.88808
 20
-11.432595
 30
0.0
 11
9.882286
 21
-11.456913
 31
0.0
  0
LINE
  5
113
330
5B7
100
AcDbEntity
  8
1
100
AcDbLine
 10
9.548655999999999
 20
-14.303718
 30
0.0
 11
8.599069
 21
-14.363363
 31
0.0
  0
LINE
  5
114
330
5B7
100
AcDbEntity
  8
1
100
AcDbLine
 10
8.599069
 20
-14.363363
 30
0.0
 11
7.643467
 21
-14.416521
 31
0.0
  0
LINE
  5
115
330
5B7
100
AcDbEntity
  8
1
100
AcDbLine
 10
7.643467
 20
-14.416521
 30
0.0
 11
6.683803
 21
-14.462983
 31
0.0
  0
LINE
  5
116
330
5B7
100
AcDbEntity
  8
1
100
AcDbLine
 10
6.683803
 20
-14.462983
 30
0.0
 11
5.720728
 21
-14.502681
 31
0.0
  0
LINE
  5
117
330
5B7
100
AcDbEntity
  8
1
100
AcDbLine
 10
5.720728
 20
-14.502681
 30
0.0
 11
4.753592
 21
-14.535684
 31
0.0
  0
LINE
  5
118
330
5B7
100
AcDbEntity
  8
1
100
AcDbLine
 10
4.753592
 20
-14.535684
 30
0.0
 11
3.782394
 21
-14.561992
 31
0.0
  0
LINE
  5
119
330
5B7
100
AcDbEntity
  8
1
100
AcDbLine
 10
4.113271
 20
-14.6
 30
0.0
 11
4.075150999999999
 21
-14.599525
 31
0.0
  0
LINE
  5
11A
330
5B7
100
AcDbEntity
  8
1
100
AcDbLine
 10
4.075150999999999
 20
-14.599525
 30
0.0
 11
4.037367999999999
 21
-14.598104
 31
0.0
  0
LINE
  5
11B
330
5B7
100
AcDbEntity
  8
1
100
AcDbLine
 10
4.037367999999999
 20
-14.598104
 30
0.0
 11
3.999921
 21
-14.59574
 31
0.0
  0
LINE
  5
11C
330
5B7
100
AcDbEntity
  8
1
100
AcDbLine
 10
3.999921
 20
-14.59574
 30
0.0
 11
3.962808
 21
-14.592437
 31
0.0
  0
LINE
  5
11D
330
5B7
100
AcDbEntity
  8
1
100
AcDbLine
 10
3.962808
 20
-14.592437
 30
0.0
 11
3.926030999999999
 21
-14.5882
 31
0.0
  0
LINE
  5
11E
330
5B7
100
AcDbEntity
  8
1
100
AcDbLine
 10
3.926030999999999
 20
-14.5882
 30
0.0
 11
3.8896
 21
-14.583033
 31
0.0
  0
LINE
  5
11F
330
5B7
100
AcDbEntity
  8
1
100
AcDbLine
 10
3.8896
 20
-14.583033
 30
0.0
 11
3.853519
 21
-14.57694
 31
0.0
  0
LINE
  5
120
330
5B7
100
AcDbEntity
  8
1
100
AcDbLine
 10
3.853519
 20
-14.57694
 30
0.0
 11
3.817783999999999
 21
-14.569925
 31
0.0
  0
LINE
  5
121
330
5B7
100
AcDbEntity
  8
1
100
AcDbLine
 10
3.817783999999999
 20
-14.569925
 30
0.0
 11
3.782394
 21
-14.561992
 31
0.0
  0
LINE
  5
122
330
5B7
100
AcDbEntity
  8
1
100
AcDbLine
 10
4.554198999999999
 20
-14.541085
 30
0.0
 11
4.525383999999999
 21
-14.54879
 31
0.0
  0
LINE
  5
123
330
5B7
100
AcDbEntity
  8
1
100
AcDbLine
 10
4.525383999999999
 20
-14.54879
 30
0.0
 11
4.419651999999999
 21
-14.571181
 31
0.0
  0
LINE
  5
124
330
5B7
100
AcDbEntity
  8
1
100
AcDbLine
 10
4.419651999999999
 20
-14.571181
 30
0.0
 11
4.31571
 21
-14.587184
 31
0.0
  0
LINE
  5
125
330
5B7
100
AcDbEntity
  8
1
100
AcDbLine
 10
4.31571
 20
-14.587184
 30
0.0
 11
4.213582999999999
 21
-14.596795
 31
0.0
  0
LINE
  5
126
330
5B7
100
AcDbEntity
  8
1
100
AcDbLine
 10
4.213582999999999
 20
-14.596795
 30
0.0
 11
4.113271
 21
-14.6
 31
0.0
  0
LINE
  5
127
330
5B7
100
AcDbEntity
  8
1
100
AcDbLine
 10
9.882286
 20
-11.456913
 30
0.0
 11
9.875303
 21
-11.482185
 31
0.0
  0
LINE
  5
128
330
5B7
100
AcDbEntity
  8
1
100
AcDbLine
 10
9.875303
 20
-11.482185
 30
0.0
 11
9.867172999999999
 21
-11.507919
 31
0.0
  0
LINE
  5
129
330
5B7
100
AcDbEntity
  8
1
100
AcDbLine
 10
9.867172999999999
 20
-11.507919
 30
0.0
 11
9.857867
 21
-11.53409
 31
0.0
  0
LINE
  5
12A
330
5B7
100
AcDbEntity
  8
1
100
AcDbLine
 10
9.857867
 20
-11.53409
 30
0.0
 11
9.847358999999999
 21
-11.560687
 31
0.0
  0
LINE
  5
12B
330
5B7
100
AcDbEntity
  8
1
100
AcDbLine
 10
9.847358999999999
 20
-11.560687
 30
0.0
 11
9.835624000000001
 21
-11.587657
 31
0.0
  0
LINE
  5
12C
330
5B7
100
AcDbEntity
  8
1
100
AcDbLine
 10
9.835624000000001
 20
-11.587657
 30
0.0
 11
9.822649999999999
 21
-11.614909
 31
0.0
  0
LINE
  5
12D
330
5B7
100
AcDbEntity
  8
1
100
AcDbLine
 10
9.822649999999999
 20
-11.614909
 30
0.0
 11
9.808422999999999
 21
-11.64238
 31
0.0
  0
LINE
  5
12E
330
5B7
100
AcDbEntity
  8
1
100
AcDbLine
 10
9.808422999999999
 20
-11.64238
 30
0.0
 11
9.792914999999998
 21
-11.67006
 31
0.0
  0
LINE
  5
12F
330
5B7
100
AcDbEntity
  8
1
100
AcDbLine
 10
9.792914999999998
 20
-11.67006
 30
0.0
 11
9.776094999999999
 21
-11.697939
 31
0.0
  0
LINE
  5
130
330
5B7
100
AcDbEntity
  8
1
100
AcDbLine
 10
9.776094999999999
 20
-11.697939
 30
0.0
 11
9.757932
 21
-11.725981
 31
0.0
  0
LINE
  5
131
330
5B7
100
AcDbEntity
  8
1
100
AcDbLine
 10
9.757932
 20
-11.725981
 30
0.0
 11
9.738414
 21
-11.754134
 31
0.0
  0
LINE
  5
132
330
5B7
100
AcDbEntity
  8
1
100
AcDbLine
 10
9.738414
 20
-11.754134
 30
0.0
 11
9.717544
 21
-11.782349
 31
0.0
  0
LINE
  5
133
330
5B7
100
AcDbEntity
  8
1
100
AcDbLine
 10
9.717544
 20
-11.782349
 30
0.0
 11
9.695291
 21
-11.810581
 31
0.0
  0
LINE
  5
134
330
5B7
100
AcDbEntity
  8
1
100
AcDbLine
 10
9.695291
 20
-11.810581
 30
0.0
 11
9.671647999999999
 21
-11.838772
 31
0.0
  0
LINE
  5
135
330
5B7
100
AcDbEntity
  8
1
100
AcDbLine
 10
9.671647999999999
 20
-11.838772
 30
0.0
 11
9.646651
 21
-11.86685
 31
0.0
  0
LINE
  5
136
330
5B7
100
AcDbEntity
  8
1
100
AcDbLine
 10
9.646651
 20
-11.86685
 30
0.0
 11
9.620245999999999
 21
-11.894792
 31
0.0
  0
LINE
  5
137
330
5B7
100
AcDbEntity
  8
1
100
AcDbLine
 10
9.620245999999999
 20
-11.894792
 30
0.0
 11
9.592455000000001
 21
-11.922504
 31
0.0
  0
LINE
  5
138
330
5B7
100
AcDbEntity
  8
1
100
AcDbLine
 10
9.592455000000001
 20
-11.922504
 30
0.0
 11
9.563437
 21
-11.949817
 31
0.0
  0
LINE
  5
139
330
5B7
100
AcDbEntity
  8
1
100
AcDbLine
 10
9.563437
 20
-11.949817
 30
0.0
 11
9.533178999999998
 21
-11.976681
 31
0.0
  0
LINE
  5
13A
330
5B7
100
AcDbEntity
  8
1
100
AcDbLine
 10
9.533178999999998
 20
-11.976681
 30
0.0
 11
9.501685
 21
-12.003037
 31
0.0
  0
LINE
  5
13B
330
5B7
100
AcDbEntity
  8
1
100
AcDbLine
 10
9.501685
 20
-12.003037
 30
0.0
 11
9.469160999999999
 21
-12.028718
 31
0.0
  0
LINE
  5
13C
330
5B7
100
AcDbEntity
  8
1
100
AcDbLine
 10
9.469160999999999
 20
-12.028718
 30
0.0
 11
9.43561
 21
-12.05368
 31
0.0
  0
LINE
  5
13D
330
5B7
100
AcDbEntity
  8
1
100
AcDbLine
 10
9.43561
 20
-12.05368
 30
0.0
 11
9.401042999999999
 21
-12.077876
 31
0.0
  0
LINE
  5
13E
330
5B7
100
AcDbEntity
  8
1
100
AcDbLine
 10
9.401042999999999
 20
-12.077876
 30
0.0
 11
9.365697
 21
-12.101153
 31
0.0
  0
LINE
  5
13F
330
5B7
100
AcDbEntity
  8
1
100
AcDbLine
 10
9.365697
 20
-12.101153
 30
0.0
 11
9.329592999999999
 21
-12.123476
 31
0.0
  0
LINE
  5
140
330
5B7
100
AcDbEntity
  8
1
100
AcDbLine
 10
9.329592999999999
 20
-12.123476
 30
0.0
 11
9.292746000000001
 21
-12.144815
 31
0.0
  0
LINE
  5
141
330
5B7
100
AcDbEntity
  8
1
100
AcDbLine
 10
9.292746000000001
 20
-12.144815
 30
0.0
 11
9.255394
 21
-12.16505
 31
0.0
  0
LINE
  5
142
330
5B7
100
AcDbEntity
  8
1
100
AcDbLine
 10
9.255394
 20
-12.16505
 30
0.0
 11
9.217589999999999
 21
-12.184151
 31
0.0
  0
LINE
  5
143
330
5B7
100
AcDbEntity
  8
1
100
AcDbLine
 10
9.217589999999999
 20
-12.184151
 30
0.0
 11
9.179335
 21
-12.202117
 31
0.0
  0
LINE
  5
144
330
5B7
100
AcDbEntity
  8
1
100
AcDbLine
 10
9.179335
 20
-12.202117
 30
0.0
 11
9.140794999999998
 21
-12.218889
 31
0.0
  0
LINE
  5
145
330
5B7
100
AcDbEntity
  8
1
100
AcDbLine
 10
9.140794999999998
 20
-12.218889
 30
0.0
 11
9.102016
 21
-12.234455
 31
0.0
  0
LINE
  5
146
330
5B7
100
AcDbEntity
  8
1
100
AcDbLine
 10
9.102016
 20
-12.234455
 30
0.0
 11
9.063010999999999
 21
-12.248819
 31
0.0
  0
LINE
  5
147
330
5B7
100
AcDbEntity
  8
1
100
AcDbLine
 10
9.063010999999999
 20
-12.248819
 30
0.0
 11
9.023901999999999
 21
-12.261956
 31
0.0
  0
LINE
  5
148
330
5B7
100
AcDbEntity
  8
1
100
AcDbLine
 10
9.023901999999999
 20
-12.261956
 30
0.0
 11
8.984746000000001
 21
-12.273861
 31
0.0
  0
LINE
  5
149
330
5B7
100
AcDbEntity
  8
1
100
AcDbLine
 10
8.984746000000001
 20
-12.273861
 30
0.0
 11
8.945546999999999
 21
-12.284549
 31
0.0
  0
LINE
  5
14A
330
5B7
100
AcDbEntity
  8
1
100
AcDbLine
 10
8.945546999999999
 20
-12.284549
 30
0.0
 11
8.906347999999999
 21
-12.294025
 31
0.0
  0
LINE
  5
14B
330
5B7
100
AcDbEntity
  8
1
100
AcDbLine
 10
8.906347999999999
 20
-12.294025
 30
0.0
 11
8.867188
 21
-12.302295
 31
0.0
  0
LINE
  5
14C
330
5B7
100
AcDbEntity
  8
1
100
AcDbLine
 10
8.867188
 20
-12.302295
 30
0.0
 11
8.859799999999999
 21
-12.303722
 31
0.0
  0
LINE
  5
14D
330
5B7
100
AcDbEntity
  8
1
100
AcDbLine
 10
9.391548
 20
-14.397745
 30
0.0
 11
9.391548
 21
-14.313586
 31
0.0
  0
LINE
  5
14E
330
5B7
100
AcDbEntity
  8
1
100
AcDbLine
 10
9.707213000000001
 20
-14.625409
 30
0.0
 11
9.391548
 21
-14.397745
 31
0.0
  0
LINE
  5
14F
330
5B7
100
AcDbEntity
  8
1
100
AcDbLine
 10
10.318599
 20
-14.856586
 30
0.0
 11
10.250214
 21
-14.84272
 31
0.0
  0
LINE
  5
150
330
5B7
100
AcDbEntity
  8
1
100
AcDbLine
 10
10.250214
 20
-14.84272
 30
0.0
 11
10.181932
 21
-14.825893
 31
0.0
  0
LINE
  5
151
330
5B7
100
AcDbEntity
  8
1
100
AcDbLine
 10
10.181932
 20
-14.825893
 30
0.0
 11
10.113753
 21
-14.806108
 31
0.0
  0
LINE
  5
152
330
5B7
100
AcDbEntity
  8
1
100
AcDbLine
 10
10.113753
 20
-14.806108
 30
0.0
 11
10.045661
 21
-14.783356
 31
0.0
  0
LINE
  5
153
330
5B7
100
AcDbEntity
  8
1
100
AcDbLine
 10
10.045661
 20
-14.783356
 30
0.0
 11
9.977672
 21
-14.757645
 31
0.0
  0
LINE
  5
154
330
5B7
100
AcDbEntity
  8
1
100
AcDbLine
 10
9.977672
 20
-14.757645
 30
0.0
 11
9.909829
 21
-14.728993
 31
0.0
  0
LINE
  5
155
330
5B7
100
AcDbEntity
  8
1
100
AcDbLine
 10
9.909829
 20
-14.728993
 30
0.0
 11
9.842145
 21
-14.697406
 31
0.0
  0
LINE
  5
156
330
5B7
100
AcDbEntity
  8
1
100
AcDbLine
 10
9.842145
 20
-14.697406
 30
0.0
 11
9.774606
 21
-14.662878
 31
0.0
  0
LINE
  5
157
330
5B7
100
AcDbEntity
  8
1
100
AcDbLine
 10
9.774606
 20
-14.662878
 30
0.0
 11
9.707213000000001
 21
-14.625409
 31
0.0
  0
LINE
  5
158
330
5B7
100
AcDbEntity
  8
1
100
AcDbLine
 10
10.318599
 20
-14.856586
 30
0.0
 11
10.494915
 21
-14.88748
 31
0.0
  0
LINE
  5
159
330
5B7
100
AcDbEntity
  8
1
100
AcDbLine
 10
8.859799999999999
 20
-12.303722
 30
0.0
 11
8.828088000000001
 21
-12.30937
 31
0.0
  0
LINE
  5
15A
330
5B7
100
AcDbEntity
  8
1
100
AcDbLine
 10
8.828088000000001
 20
-12.30937
 30
0.0
 11
8.789058999999999
 21
-12.31526
 31
0.0
  0
LINE
  5
15B
330
5B7
100
AcDbEntity
  8
1
100
AcDbLine
 10
8.789058999999999
 20
-12.31526
 30
0.0
 11
8.750142
 21
-12.319972
 31
0.0
  0
LINE
  5
15C
330
5B7
100
AcDbEntity
  8
1
100
AcDbLine
 10
8.750142
 20
-12.319972
 30
0.0
 11
8.711350999999998
 21
-12.323519
 31
0.0
  0
LINE
  5
15D
330
5B7
100
AcDbEntity
  8
1
100
AcDbLine
 10
8.711350999999998
 20
-12.323519
 30
0.0
 11
8.672663
 21
-12.32591
 31
0.0
  0
LINE
  5
15E
330
5B7
100
AcDbEntity
  8
1
100
AcDbLine
 10
8.672663
 20
-12.32591
 30
0.0
 11
8.634086999999999
 21
-12.327151
 31
0.0
  0
LINE
  5
15F
330
5B7
100
AcDbEntity
  8
1
100
AcDbLine
 10
8.634086999999999
 20
-12.327151
 30
0.0
 11
8.595664999999998
 21
-12.32725
 31
0.0
  0
LINE
  5
160
330
5B7
100
AcDbEntity
  8
1
100
AcDbLine
 10
8.595664999999998
 20
-12.32725
 30
0.0
 11
8.557418999999999
 21
-12.326209
 31
0.0
  0
LINE
  5
161
330
5B7
100
AcDbEntity
  8
1
100
AcDbLine
 10
8.557418999999999
 20
-12.326209
 30
0.0
 11
8.519399999999999
 21
-12.32404
 31
0.0
  0
LINE
  5
162
330
5B7
100
AcDbEntity
  8
1
100
AcDbLine
 10
8.519399999999999
 20
-12.32404
 30
0.0
 11
8.481607999999999
 21
-12.320749
 31
0.0
  0
LINE
  5
163
330
5B7
100
AcDbEntity
  8
1
100
AcDbLine
 10
8.481607999999999
 20
-12.320749
 30
0.0
 11
8.443982999999999
 21
-12.31633
 31
0.0
  0
LINE
  5
164
330
5B7
100
AcDbEntity
  8
1
100
AcDbLine
 10
8.443982999999999
 20
-12.31633
 30
0.0
 11
8.406547999999999
 21
-12.310785
 31
0.0
  0
LINE
  5
165
330
5B7
100
AcDbEntity
  8
1
100
AcDbLine
 10
8.406547999999999
 20
-12.310785
 30
0.0
 11
8.369331999999999
 21
-12.304118
 31
0.0
  0
LINE
  5
166
330
5B7
100
AcDbEntity
  8
1
100
AcDbLine
 10
8.369331999999999
 20
-12.304118
 30
0.0
 11
8.332285
 21
-12.296304
 31
0.0
  0
LINE
  5
167
330
5B7
100
AcDbEntity
  8
1
100
AcDbLine
 10
8.332285
 20
-12.296304
 30
0.0
 11
8.295417
 21
-12.287338
 31
0.0
  0
LINE
  5
168
330
5B7
100
AcDbEntity
  8
1
100
AcDbLine
 10
8.295417
 20
-12.287338
 30
0.0
 11
8.258774
 21
-12.27722
 31
0.0
  0
LINE
  5
169
330
5B7
100
AcDbEntity
  8
1
100
AcDbLine
 10
8.258774
 20
-12.27722
 30
0.0
 11
8.222358999999999
 21
-12.265923
 31
0.0
  0
LINE
  5
16A
330
5B7
100
AcDbEntity
  8
1
100
AcDbLine
 10
8.222358999999999
 20
-12.265923
 30
0.0
 11
8.186147
 21
-12.253425
 31
0.0
  0
LINE
  5
16B
330
5B7
100
AcDbEntity
  8
1
100
AcDbLine
 10
8.186147
 20
-12.253425
 30
0.0
 11
8.150227
 21
-12.23974
 31
0.0
  0
LINE
  5
16C
330
5B7
100
AcDbEntity
  8
1
100
AcDbLine
 10
8.150227
 20
-12.23974
 30
0.0
 11
8.114774
 21
-12.224902
 31
0.0
  0
LINE
  5
16D
330
5B7
100
AcDbEntity
  8
1
100
AcDbLine
 10
8.114774
 20
-12.224902
 30
0.0
 11
8.079814999999999
 21
-12.208919
 31
0.0
  0
LINE
  5
16E
330
5B7
100
AcDbEntity
  8
1
100
AcDbLine
 10
8.079814999999999
 20
-12.208919
 30
0.0
 11
8.045386
 21
-12.191809
 31
0.0
  0
LINE
  5
16F
330
5B7
100
AcDbEntity
  8
1
100
AcDbLine
 10
8.045386
 20
-12.191809
 30
0.0
 11
8.011665999999999
 21
-12.173633
 31
0.0
  0
LINE
  5
170
330
5B7
100
AcDbEntity
  8
1
100
AcDbLine
 10
8.011665999999999
 20
-12.173633
 30
0.0
 11
7.978697999999999
 21
-12.154427
 31
0.0
  0
LINE
  5
171
330
5B7
100
AcDbEntity
  8
1
100
AcDbLine
 10
7.978697999999999
 20
-12.154427
 30
0.0
 11
7.946494999999999
 21
-12.134212
 31
0.0
  0
LINE
  5
172
330
5B7
100
AcDbEntity
  8
1
100
AcDbLine
 10
7.946494999999999
 20
-12.134212
 30
0.0
 11
7.915182
 21
-12.113047
 31
0.0
  0
LINE
  5
173
330
5B7
100
AcDbEntity
  8
1
100
AcDbLine
 10
7.915182
 20
-12.113047
 30
0.0
 11
7.884785
 21
-12.090966
 31
0.0
  0
LINE
  5
174
330
5B7
100
AcDbEntity
  8
1
100
AcDbLine
 10
7.884785
 20
-12.090966
 30
0.0
 11
7.855325999999999
 21
-12.068009
 31
0.0
  0
LINE
  5
175
330
5B7
100
AcDbEntity
  8
1
100
AcDbLine
 10
7.855325999999999
 20
-12.068009
 30
0.0
 11
7.826917999999999
 21
-12.04425
 31
0.0
  0
LINE
  5
176
330
5B7
100
AcDbEntity
  8
1
100
AcDbLine
 10
7.826917999999999
 20
-12.04425
 30
0.0
 11
7.799555
 21
-12.0197
 31
0.0
  0
LINE
  5
177
330
5B7
100
AcDbEntity
  8
1
100
AcDbLine
 10
7.799555
 20
-12.0197
 30
0.0
 11
7.773278999999999
 21
-11.994433
 31
0.0
  0
LINE
  5
178
330
5B7
100
AcDbEntity
  8
1
100
AcDbLine
 10
7.773278999999999
 20
-11.994433
 30
0.0
 11
7.748272
 21
-11.968634
 31
0.0
  0
LINE
  5
179
330
5B7
100
AcDbEntity
  8
1
100
AcDbLine
 10
7.748272
 20
-11.968634
 30
0.0
 11
7.724583999999999
 21
-11.942402
 31
0.0
  0
LINE
  5
17A
330
5B7
100
AcDbEntity
  8
1
100
AcDbLine
 10
7.724583999999999
 20
-11.942402
 30
0.0
 11
7.702169
 21
-11.915745
 31
0.0
  0
LINE
  5
17B
330
5B7
100
AcDbEntity
  8
1
100
AcDbLine
 10
7.702169
 20
-11.915745
 30
0.0
 11
7.681046
 21
-11.888732
 31
0.0
  0
LINE
  5
17C
330
5B7
100
AcDbEntity
  8
1
100
AcDbLine
 10
7.681046
 20
-11.888732
 30
0.0
 11
7.661221
 21
-11.86142
 31
0.0
  0
LINE
  5
17D
330
5B7
100
AcDbEntity
  8
1
100
AcDbLine
 10
7.661221
 20
-11.86142
 30
0.0
 11
7.642684
 21
-11.833851
 31
0.0
  0
LINE
  5
17E
330
5B7
100
AcDbEntity
  8
1
100
AcDbLine
 10
7.642684
 20
-11.833851
 30
0.0
 11
7.62542
 21
-11.806061
 31
0.0
  0
LINE
  5
17F
330
5B7
100
AcDbEntity
  8
1
100
AcDbLine
 10
7.62542
 20
-11.806061
 30
0.0
 11
7.609435999999999
 21
-11.778119
 31
0.0
  0
LINE
  5
180
330
5B7
100
AcDbEntity
  8
1
100
AcDbLine
 10
7.609435999999999
 20
-11.778119
 30
0.0
 11
7.594714999999998
 21
-11.750045
 31
0.0
  0
LINE
  5
181
330
5B7
100
AcDbEntity
  8
1
100
AcDbLine
 10
7.594714999999998
 20
-11.750045
 30
0.0
 11
7.581207
 21
-11.7218
 31
0.0
  0
LINE
  5
182
330
5B7
100
AcDbEntity
  8
1
100
AcDbLine
 10
7.581207
 20
-11.7218
 30
0.0
 11
7.568899
 21
-11.693397
 31
0.0
  0
LINE
  5
183
330
5B7
100
AcDbEntity
  8
1
100
AcDbLine
 10
7.568899
 20
-11.693397
 30
0.0
 11
7.557799
 21
-11.664899
 31
0.0
  0
LINE
  5
184
330
5B7
100
AcDbEntity
  8
1
100
AcDbLine
 10
7.557799
 20
-11.664899
 30
0.0
 11
7.547902999999999
 21
-11.636344
 31
0.0
  0
LINE
  5
185
330
5B7
100
AcDbEntity
  8
1
100
AcDbLine
 10
7.547902999999999
 20
-11.636344
 30
0.0
 11
7.539210999999999
 21
-11.607791
 31
0.0
  0
LINE
  5
186
330
5B7
100
AcDbEntity
  8
1
100
AcDbLine
 10
7.539210999999999
 20
-11.607791
 30
0.0
 11
7.531708999999999
 21
-11.579249
 31
0.0
  0
LINE
  5
187
330
5B7
100
AcDbEntity
  8
1
100
AcDbLine
 10
7.531708999999999
 20
-11.579249
 30
0.0
 11
7.525374
 21
-11.550682
 31
0.0
  0
LINE
  5
188
330
5B7
100
AcDbEntity
  8
1
100
AcDbLine
 10
7.525374
 20
-11.550682
 30
0.0
 11
7.520197
 21
-11.5221
 31
0.0
  0
LINE
  5
189
330
5B7
100
AcDbEntity
  8
1
100
AcDbLine
 10
7.520197
 20
-11.5221
 30
0.0
 11
7.516178999999999
 21
-11.493554
 31
0.0
  0
LINE
  5
18A
330
5B7
100
AcDbEntity
  8
1
100
AcDbLine
 10
7.516178999999999
 20
-11.493554
 30
0.0
 11
7.513314
 21
-11.465064
 31
0.0
  0
LINE
  5
18B
330
5B7
100
AcDbEntity
  8
1
100
AcDbLine
 10
7.513314
 20
-11.465064
 30
0.0
 11
7.511599999999999
 21
-11.436657
 31
0.0
  0
LINE
  5
18C
330
5B7
100
AcDbEntity
  8
1
100
AcDbLine
 10
7.511599999999999
 20
-11.436657
 30
0.0
 11
7.511027999999999
 21
-11.408364
 31
0.0
  0
LINE
  5
18D
330
5B7
100
AcDbEntity
  8
1
100
AcDbLine
 10
7.511027999999999
 20
-11.408364
 30
0.0
 11
7.511592999999999
 21
-11.380212
 31
0.0
  0
LINE
  5
18E
330
5B7
100
AcDbEntity
  8
1
100
AcDbLine
 10
9.548655999999999
 20
-8.671609
 30
0.0
 11
8.599069
 21
-8.922386999999998
 31
0.0
  0
LINE
  5
18F
330
5B7
100
AcDbEntity
  8
1
100
AcDbLine
 10
8.599069
 20
-8.922386999999998
 30
0.0
 11
7.643467
 21
-9.169652000000001
 31
0.0
  0
LINE
  5
190
330
5B7
100
AcDbEntity
  8
1
100
AcDbLine
 10
7.643467
 20
-9.169652000000001
 30
0.0
 11
6.683803
 21
-9.412824999999999
 31
0.0
  0
LINE
  5
191
330
5B7
100
AcDbEntity
  8
1
100
AcDbLine
 10
6.683803
 20
-9.412824999999999
 30
0.0
 11
5.720728
 21
-9.651711999999999
 31
0.0
  0
LINE
  5
192
330
5B7
100
AcDbEntity
  8
1
100
AcDbLine
 10
5.720728
 20
-9.651711999999999
 30
0.0
 11
4.753592
 21
-9.886506999999999
 31
0.0
  0
LINE
  5
193
330
5B7
100
AcDbEntity
  8
1
100
AcDbLine
 10
4.753592
 20
-9.886506999999999
 30
0.0
 11
3.782394
 21
-10.117209
 31
0.0
  0
LINE
  5
194
330
5B7
100
AcDbEntity
  8
1
100
AcDbLine
 10
9.391548
 20
-8.775641999999999
 30
0.0
 11
9.391548
 21
-8.7131
 31
0.0
  0
LINE
  5
195
330
5B7
100
AcDbEntity
  8
1
100
AcDbLine
 10
9.707213000000001
 20
-9.594902000000001
 30
0.0
 11
9.391548
 21
-8.775641999999999
 31
0.0
  0
LINE
  5
196
330
5B7
100
AcDbEntity
  8
1
100
AcDbLine
 10
10.318599
 20
-11.025771
 30
0.0
 11
10.25021
 21
-10.874626
 31
0.0
  0
LINE
  5
197
330
5B7
100
AcDbEntity
  8
1
100
AcDbLine
 10
10.25021
 20
-10.874626
 30
0.0
 11
10.181923
 21
-10.721493
 31
0.0
  0
LINE
  5
198
330
5B7
100
AcDbEntity
  8
1
100
AcDbLine
 10
10.181923
 20
-10.721493
 30
0.0
 11
10.113738
 21
-10.56637
 31
0.0
  0
LINE
  5
199
330
5B7
100
AcDbEntity
  8
1
100
AcDbLine
 10
10.113738
 20
-10.56637
 30
0.0
 11
10.04564
 21
-10.409222
 31
0.0
  0
LINE
  5
19A
330
5B7
100
AcDbEntity
  8
1
100
AcDbLine
 10
10.04564
 20
-10.409222
 30
0.0
 11
9.977644999999998
 21
-10.250084
 31
0.0
  0
LINE
  5
19B
330
5B7
100
AcDbEntity
  8
1
100
AcDbLine
 10
9.977644999999998
 20
-10.250084
 30
0.0
 11
9.9098
 21
-10.089072
 31
0.0
  0
LINE
  5
19C
330
5B7
100
AcDbEntity
  8
1
100
AcDbLine
 10
9.9098
 20
-10.089072
 30
0.0
 11
9.842121
 21
-9.926223
 31
0.0
  0
LINE
  5
19D
330
5B7
100
AcDbEntity
  8
1
100
AcDbLine
 10
9.842121
 20
-9.926223
 30
0.0
 11
9.774592
 21
-9.761499999999999
 31
0.0
  0
LINE
  5
19E
330
5B7
100
AcDbEntity
  8
1
100
AcDbLine
 10
9.774592
 20
-9.761499999999999
 30
0.0
 11
9.707213000000001
 21
-9.594902000000001
 31
0.0
  0
LINE
  5
19F
330
5B7
100
AcDbEntity
  8
1
100
AcDbLine
 10
16.5
 20
-12.779946
 30
0.0
 11
16.5
 21
-9.295066
 31
0.0
  0
LINE
  5
1A0
330
5B7
100
AcDbEntity
  8
1
100
AcDbLine
 10
15.1
 20
-12.934429
 30
0.0
 11
14.725672
 21
-12.979924
 31
0.0
  0
LINE
  5
1A1
330
5B7
100
AcDbEntity
  8
1
100
AcDbLine
 10
14.725672
 20
-12.979924
 30
0.0
 11
14.349076
 21
-13.024901
 31
0.0
  0
LINE
  5
1A2
330
5B7
100
AcDbEntity
  8
1
100
AcDbLine
 10
14.349076
 20
-13.024901
 30
0.0
 11
13.970211
 21
-13.069359
 31
0.0
  0
LINE
  5
1A3
330
5B7
100
AcDbEntity
  8
1
100
AcDbLine
 10
13.970211
 20
-13.069359
 30
0.0
 11
13.589059
 21
-13.113304
 31
0.0
  0
LINE
  5
1A4
330
5B7
100
AcDbEntity
  8
1
100
AcDbLine
 10
13.589059
 20
-13.113304
 30
0.0
 11
13.205638
 21
-13.156731
 31
0.0
  0
LINE
  5
1A5
330
5B7
100
AcDbEntity
  8
1
100
AcDbLine
 10
13.205638
 20
-13.156731
 30
0.0
 11
12.820003
 21
-13.199619
 31
0.0
  0
LINE
  5
1A6
330
5B7
100
AcDbEntity
  8
1
100
AcDbLine
 10
12.820003
 20
-13.199619
 30
0.0
 11
12.432172
 21
-13.241963
 31
0.0
  0
LINE
  5
1A7
330
5B7
100
AcDbEntity
  8
1
100
AcDbLine
 10
12.432172
 20
-13.241963
 30
0.0
 11
12.042128
 21
-13.283768
 31
0.0
  0
LINE
  5
1A8
330
5B7
100
AcDbEntity
  8
1
100
AcDbLine
 10
12.042128
 20
-13.283768
 30
0.0
 11
11.649869
 21
-13.325036
 31
0.0
  0
LINE
  5
1A9
330
5B7
100
AcDbEntity
  8
1
100
AcDbLine
 10
17.0
 20
-14.021236
 30
0.0
 11
15.445819
 21
-15.0
 31
0.0
  0
LINE
  5
1AA
330
5B7
100
AcDbEntity
  8
1
100
AcDbLine
 10
16.5
 20
-12.779946
 30
0.0
 11
16.351405
 21
-12.891833
 31
0.0
  0
LINE
  5
1AB
330
5B7
100
AcDbEntity
  8
1
100
AcDbLine
 10
16.351405
 20
-12.891833
 30
0.0
 11
16.201086
 21
-13.004422
 31
0.0
  0
LINE
  5
1AC
330
5B7
100
AcDbEntity
  8
1
100
AcDbLine
 10
16.201086
 20
-13.004422
 30
0.0
 11
16.049045
 21
-13.117713
 31
0.0
  0
LINE
  5
1AD
330
5B7
100
AcDbEntity
  8
1
100
AcDbLine
 10
16.049045
 20
-13.117713
 30
0.0
 11
15.895305
 21
-13.231693
 31
0.0
  0
LINE
  5
1AE
330
5B7
100
AcDbEntity
  8
1
100
AcDbLine
 10
15.895305
 20
-13.231693
 30
0.0
 11
15.739841
 21
-13.346375
 31
0.0
  0
LINE
  5
1AF
330
5B7
100
AcDbEntity
  8
1
100
AcDbLine
 10
15.739841
 20
-13.346375
 30
0.0
 11
15.582585
 21
-13.461797
 31
0.0
  0
LINE
  5
1B0
330
5B7
100
AcDbEntity
  8
1
100
AcDbLine
 10
15.582585
 20
-13.461797
 30
0.0
 11
15.423515
 21
-13.577969
 31
0.0
  0
LINE
  5
1B1
330
5B7
100
AcDbEntity
  8
1
100
AcDbLine
 10
15.423515
 20
-13.577969
 30
0.0
 11
15.262654
 21
-13.694881
 31
0.0
  0
LINE
  5
1B2
330
5B7
100
AcDbEntity
  8
1
100
AcDbLine
 10
15.262654
 20
-13.694881
 30
0.0
 11
15.1
 21
-13.812532
 31
0.0
  0
LINE
  5
1B3
330
5B7
100
AcDbEntity
  8
1
100
AcDbLine
 10
16.5
 20
-11.777646
 30
0.0
 11
16.352723
 21
-11.902865
 31
0.0
  0
LINE
  5
1B4
330
5B7
100
AcDbEntity
  8
1
100
AcDbLine
 10
16.352723
 20
-11.902865
 30
0.0
 11
16.203398
 21
-12.028899
 31
0.0
  0
LINE
  5
1B5
330
5B7
100
AcDbEntity
  8
1
100
AcDbLine
 10
16.203398
 20
-12.028899
 30
0.0
 11
16.052024
 21
-12.155748
 31
0.0
  0
LINE
  5
1B6
330
5B7
100
AcDbEntity
  8
1
100
AcDbLine
 10
16.052024
 20
-12.155748
 30
0.0
 11
15.898631
 21
-12.283394
 31
0.0
  0
LINE
  5
1B7
330
5B7
100
AcDbEntity
  8
1
100
AcDbLine
 10
15.898631
 20
-12.283394
 30
0.0
 11
15.74319
 21
-12.411855
 31
0.0
  0
LINE
  5
1B8
330
5B7
100
AcDbEntity
  8
1
100
AcDbLine
 10
15.74319
 20
-12.411855
 30
0.0
 11
15.585615
 21
-12.541184
 31
0.0
  0
LINE
  5
1B9
330
5B7
100
AcDbEntity
  8
1
100
AcDbLine
 10
15.585615
 20
-12.541184
 30
0.0
 11
15.425877
 21
-12.671398
 31
0.0
  0
LINE
  5
1BA
330
5B7
100
AcDbEntity
  8
1
100
AcDbLine
 10
15.425877
 20
-12.671398
 30
0.0
 11
15.264006
 21
-12.802479
 31
0.0
  0
LINE
  5
1BB
330
5B7
100
AcDbEntity
  8
1
100
AcDbLine
 10
15.264006
 20
-12.802479
 30
0.0
 11
15.1
 21
-12.934429
 31
0.0
  0
LINE
  5
1BC
330
5B7
100
AcDbEntity
  8
1
100
AcDbLine
 10
17.0
 20
-12.671029
 30
0.0
 11
15.039556
 21
-13.905642
 31
0.0
  0
LINE
  5
1BD
330
5B7
100
AcDbEntity
  8
1
100
AcDbLine
 10
15.1
 20
-13.238938
 30
0.0
 11
15.097444
 21
-13.265985
 31
0.0
  0
LINE
  5
1BE
330
5B7
100
AcDbEntity
  8
1
100
AcDbLine
 10
15.097444
 20
-13.265985
 30
0.0
 11
15.095528
 21
-13.292768
 31
0.0
  0
LINE
  5
1BF
330
5B7
100
AcDbEntity
  8
1
100
AcDbLine
 10
15.095528
 20
-13.292768
 30
0.0
 11
15.09425
 21
-13.319286
 31
0.0
  0
LINE
  5
1C0
330
5B7
100
AcDbEntity
  8
1
100
AcDbLine
 10
15.09425
 20
-13.319286
 30
0.0
 11
15.093611
 21
-13.345538
 31
0.0
  0
LINE
  5
1C1
330
5B7
100
AcDbEntity
  8
1
100
AcDbLine
 10
15.093611
 20
-13.345538
 30
0.0
 11
15.093611
 21
-13.371525
 31
0.0
  0
LINE
  5
1C2
330
5B7
100
AcDbEntity
  8
1
100
AcDbLine
 10
15.093611
 20
-13.371525
 30
0.0
 11
15.09425
 21
-13.397256
 31
0.0
  0
LINE
  5
1C3
330
5B7
100
AcDbEntity
  8
1
100
AcDbLine
 10
15.09425
 20
-13.397256
 30
0.0
 11
15.095528
 21
-13.422734
 31
0.0
  0
LINE
  5
1C4
330
5B7
100
AcDbEntity
  8
1
100
AcDbLine
 10
15.095528
 20
-13.422734
 30
0.0
 11
15.097444
 21
-13.447955
 31
0.0
  0
LINE
  5
1C5
330
5B7
100
AcDbEntity
  8
1
100
AcDbLine
 10
15.097444
 20
-13.447955
 30
0.0
 11
15.1
 21
-13.472921
 31
0.0
  0
LINE
  5
1C6
330
5B7
100
AcDbEntity
  8
1
100
AcDbLine
 10
15.1
 20
-13.472921
 30
0.0
 11
15.1
 21
-13.812532
 31
0.0
  0
LINE
  5
1C7
330
5B7
100
AcDbEntity
  8
1
100
AcDbLine
 10
15.1
 20
-12.934429
 30
0.0
 11
15.1
 21
-13.238938
 31
0.0
  0
LINE
  5
1C8
330
5B7
100
AcDbEntity
  8
1
100
AcDbLine
 10
15.1
 20
-13.238938
 30
0.0
 11
15.106676
 21
-13.255857
 31
0.0
  0
LINE
  5
1C9
330
5B7
100
AcDbEntity
  8
1
100
AcDbLine
 10
15.106676
 20
-13.255857
 30
0.0
 11
15.112132
 21
-13.273216
 31
0.0
  0
LINE
  5
1CA
330
5B7
100
AcDbEntity
  8
1
100
AcDbLine
 10
15.112132
 20
-13.273216
 30
0.0
 11
15.11637
 21
-13.291017
 31
0.0
  0
LINE
  5
1CB
330
5B7
100
AcDbEntity
  8
1
100
AcDbLine
 10
15.11637
 20
-13.291017
 30
0.0
 11
15.119382
 21
-13.309243
 31
0.0
  0
LINE
  5
1CC
330
5B7
100
AcDbEntity
  8
1
100
AcDbLine
 10
15.119382
 20
-13.309243
 30
0.0
 11
15.121176
 21
-13.327909
 31
0.0
  0
LINE
  5
1CD
330
5B7
100
AcDbEntity
  8
1
100
AcDbLine
 10
15.121176
 20
-13.327909
 30
0.0
 11
15.121769
 21
-13.347064
 31
0.0
  0
LINE
  5
1CE
330
5B7
100
AcDbEntity
  8
1
100
AcDbLine
 10
15.121769
 20
-13.347064
 30
0.0
 11
15.121176
 21
-13.366703
 31
0.0
  0
LINE
  5
1CF
330
5B7
100
AcDbEntity
  8
1
100
AcDbLine
 10
15.121176
 20
-13.366703
 30
0.0
 11
15.119382
 21
-13.38683
 31
0.0
  0
LINE
  5
1D0
330
5B7
100
AcDbEntity
  8
1
100
AcDbLine
 10
15.119382
 20
-13.38683
 30
0.0
 11
15.11637
 21
-13.407509
 31
0.0
  0
LINE
  5
1D1
330
5B7
100
AcDbEntity
  8
1
100
AcDbLine
 10
15.11637
 20
-13.407509
 30
0.0
 11
15.112132
 21
-13.428761
 31
0.0
  0
LINE
  5
1D2
330
5B7
100
AcDbEntity
  8
1
100
AcDbLine
 10
15.112132
 20
-13.428761
 30
0.0
 11
15.106676
 21
-13.450565
 31
0.0
  0
LINE
  5
1D3
330
5B7
100
AcDbEntity
  8
1
100
AcDbLine
 10
15.106676
 20
-13.450565
 30
0.0
 11
15.1
 21
-13.472921
 31
0.0
  0
LINE
  5
1D4
330
5B7
100
AcDbEntity
  8
1
100
AcDbLine
 10
15.60665499999999
 20
-9.907380999999999
 30
0.0
 11
15.110259
 21
-10.028456
 31
0.0
  0
LINE
  5
1D5
330
5B7
100
AcDbEntity
  8
1
100
AcDbLine
 10
15.110259
 20
-10.028456
 30
0.0
 11
14.613233
 21
-10.14837
 31
0.0
  0
LINE
  5
1D6
330
5B7
100
AcDbEntity
  8
1
100
AcDbLine
 10
14.613233
 20
-10.14837
 30
0.0
 11
14.115576
 21
-10.267123
 31
0.0
  0
LINE
  5
1D7
330
5B7
100
AcDbEntity
  8
1
100
AcDbLine
 10
14.115576
 20
-10.267123
 30
0.0
 11
13.617206
 21
-10.384736
 31
0.0
  0
LINE
  5
1D8
330
5B7
100
AcDbEntity
  8
1
100
AcDbLine
 10
13.617206
 20
-10.384736
 30
0.0
 11
13.118205
 21
-10.501187
 31
0.0
  0
LINE
  5
1D9
330
5B7
100
AcDbEntity
  8
1
100
AcDbLine
 10
13.118205
 20
-10.501187
 30
0.0
 11
12.61882
 21
-10.616416
 31
0.0
  0
LINE
  5
1DA
330
5B7
100
AcDbEntity
  8
1
100
AcDbLine
 10
12.61882
 20
-10.616416
 30
0.0
 11
12.119131
 21
-10.730403
 31
0.0
  0
LINE
  5
1DB
330
5B7
100
AcDbEntity
  8
1
100
AcDbLine
 10
12.119131
 20
-10.730403
 30
0.0
 11
11.619057
 21
-10.843167
 31
0.0
  0
LINE
  5
1DC
330
5B7
100
AcDbEntity
  8
1
100
AcDbLine
 10
11.619057
 20
-10.843167
 30
0.0
 11
11.118599
 21
-10.95471
 31
0.0
  0
LINE
  5
1DD
330
5B7
100
AcDbEntity
  8
1
100
AcDbLine
 10
15.494209
 20
-9.674535
 30
0.0
 11
15.010212
 21
-9.794634
 31
0.0
  0
LINE
  5
1DE
330
5B7
100
AcDbEntity
  8
1
100
AcDbLine
 10
15.010212
 20
-9.794634
 30
0.0
 11
14.525665
 21
-9.913691
 31
0.0
  0
LINE
  5
1DF
330
5B7
100
AcDbEntity
  8
1
100
AcDbLine
 10
14.525665
 20
-9.913691
 30
0.0
 11
14.040566
 21
-10.031689
 31
0.0
  0
LINE
  5
1E0
330
5B7
100
AcDbEntity
  8
1
100
AcDbLine
 10
14.040566
 20
-10.031689
 30
0.0
 11
13.554909
 21
-10.148604
 31
0.0
  0
LINE
  5
1E1
330
5B7
100
AcDbEntity
  8
1
100
AcDbLine
 10
13.554909
 20
-10.148604
 30
0.0
 11
13.068702
 21
-10.264432
 31
0.0
  0
LINE
  5
1E2
330
5B7
100
AcDbEntity
  8
1
100
AcDbLine
 10
13.068702
 20
-10.264432
 30
0.0
 11
12.581965
 21
-10.379194
 31
0.0
  0
LINE
  5
1E3
330
5B7
100
AcDbEntity
  8
1
100
AcDbLine
 10
12.581965
 20
-10.379194
 30
0.0
 11
12.094706
 21
-10.492885
 31
0.0
  0
LINE
  5
1E4
330
5B7
100
AcDbEntity
  8
1
100
AcDbLine
 10
12.094706
 20
-10.492885
 30
0.0
 11
11.606917
 21
-10.605479
 31
0.0
  0
LINE
  5
1E5
330
5B7
100
AcDbEntity
  8
1
100
AcDbLine
 10
11.606917
 20
-10.605479
 30
0.0
 11
11.118599
 21
-10.716961
 31
0.0
  0
LINE
  5
1E6
330
5B7
100
AcDbEntity
  8
1
100
AcDbLine
 10
11.118599
 20
-10.716961
 30
0.0
 11
11.118599
 21
-10.95471
 31
0.0
  0
LINE
  5
1E7
330
5B7
100
AcDbEntity
  8
1
100
AcDbLine
 10
10.583385
 20
-11.002621
 30
0.0
 11
11.118599
 21
-10.95471
 31
0.0
  0
LINE
  5
1E8
330
5B7
100
AcDbEntity
  8
1
100
AcDbLine
 10
15.1
 20
-5.719597
 30
0.0
 11
15.097444
 21
-5.778846999999999
 31
0.0
  0
LINE
  5
1E9
330
5B7
100
AcDbEntity
  8
1
100
AcDbLine
 10
15.097444
 20
-5.778846999999999
 30
0.0
 11
15.095528
 21
-5.837970999999999
 31
0.0
  0
LINE
  5
1EA
330
5B7
100
AcDbEntity
  8
1
100
AcDbLine
 10
15.095528
 20
-5.837970999999999
 30
0.0
 11
15.09425
 21
-5.896969
 31
0.0
  0
LINE
  5
1EB
330
5B7
100
AcDbEntity
  8
1
100
AcDbLine
 10
15.09425
 20
-5.896969
 30
0.0
 11
15.093611
 21
-5.955835999999999
 31
0.0
  0
LINE
  5
1EC
330
5B7
100
AcDbEntity
  8
1
100
AcDbLine
 10
15.093611
 20
-5.955835999999999
 30
0.0
 11
15.093611
 21
-6.014577
 31
0.0
  0
LINE
  5
1ED
330
5B7
100
AcDbEntity
  8
1
100
AcDbLine
 10
15.093611
 20
-6.014577
 30
0.0
 11
15.09425
 21
-6.073210999999999
 31
0.0
  0
LINE
  5
1EE
330
5B7
100
AcDbEntity
  8
1
100
AcDbLine
 10
15.09425
 20
-6.073210999999999
 30
0.0
 11
15.095528
 21
-6.131743
 31
0.0
  0
LINE
  5
1EF
330
5B7
100
AcDbEntity
  8
1
100
AcDbLine
 10
15.095528
 20
-6.131743
 30
0.0
 11
15.097444
 21
-6.190166999999999
 31
0.0
  0
LINE
  5
1F0
330
5B7
100
AcDbEntity
  8
1
100
AcDbLine
 10
15.097444
 20
-6.190166999999999
 30
0.0
 11
15.1
 21
-6.248483999999999
 31
0.0
  0
LINE
  5
1F1
330
5B7
100
AcDbEntity
  8
1
100
AcDbLine
 10
15.1
 20
-6.248483999999999
 30
0.0
 11
15.1
 21
-7.099649
 31
0.0
  0
LINE
  5
1F2
330
5B7
100
AcDbEntity
  8
1
100
AcDbLine
 10
15.1
 20
-5.719597
 30
0.0
 11
15.106676
 21
-5.762767
 31
0.0
  0
LINE
  5
1F3
330
5B7
100
AcDbEntity
  8
1
100
AcDbLine
 10
15.106676
 20
-5.762767
 30
0.0
 11
15.112132
 21
-5.806033
 31
0.0
  0
LINE
  5
1F4
330
5B7
100
AcDbEntity
  8
1
100
AcDbLine
 10
15.112132
 20
-5.806033
 30
0.0
 11
15.11637
 21
-5.849396999999999
 31
0.0
  0
LINE
  5
1F5
330
5B7
100
AcDbEntity
  8
1
100
AcDbLine
 10
15.11637
 20
-5.849396999999999
 30
0.0
 11
15.119382
 21
-5.892816999999999
 31
0.0
  0
LINE
  5
1F6
330
5B7
100
AcDbEntity
  8
1
100
AcDbLine
 10
15.119382
 20
-5.892816999999999
 30
0.0
 11
15.121176
 21
-5.936333
 31
0.0
  0
LINE
  5
1F7
330
5B7
100
AcDbEntity
  8
1
100
AcDbLine
 10
15.121176
 20
-5.936333
 30
0.0
 11
15.121769
 21
-5.980069
 31
0.0
  0
LINE
  5
1F8
330
5B7
100
AcDbEntity
  8
1
100
AcDbLine
 10
15.121769
 20
-5.980069
 30
0.0
 11
15.121176
 21
-6.024022
 31
0.0
  0
LINE
  5
1F9
330
5B7
100
AcDbEntity
  8
1
100
AcDbLine
 10
15.121176
 20
-6.024022
 30
0.0
 11
15.119382
 21
-6.068192999999999
 31
0.0
  0
LINE
  5
1FA
330
5B7
100
AcDbEntity
  8
1
100
AcDbLine
 10
15.119382
 20
-6.068192999999999
 30
0.0
 11
15.11637
 21
-6.112712
 31
0.0
  0
LINE
  5
1FB
330
5B7
100
AcDbEntity
  8
1
100
AcDbLine
 10
15.11637
 20
-6.112712
 30
0.0
 11
15.112132
 21
-6.157621999999999
 31
0.0
  0
LINE
  5
1FC
330
5B7
100
AcDbEntity
  8
1
100
AcDbLine
 10
15.112132
 20
-6.157621999999999
 30
0.0
 11
15.106676
 21
-6.202879
 31
0.0
  0
LINE
  5
1FD
330
5B7
100
AcDbEntity
  8
1
100
AcDbLine
 10
15.106676
 20
-6.202879
 30
0.0
 11
15.1
 21
-6.248483999999999
 31
0.0
  0
LINE
  5
1FE
330
5B7
100
AcDbEntity
  8
1
100
AcDbLine
 10
15.494218
 20
-9.674219
 30
0.0
 11
15.434931
 21
-9.378274000000001
 31
0.0
  0
LINE
  5
1FF
330
5B7
100
AcDbEntity
  8
1
100
AcDbLine
 10
15.434931
 20
-9.378274000000001
 30
0.0
 11
15.377849
 21
-9.087073
 31
0.0
  0
LINE
  5
200
330
5B7
100
AcDbEntity
  8
1
100
AcDbLine
 10
15.377849
 20
-9.087073
 30
0.0
 11
15.322975
 21
-8.800615999999999
 31
0.0
  0
LINE
  5
201
330
5B7
100
AcDbEntity
  8
1
100
AcDbLine
 10
15.322975
 20
-8.800615999999999
 30
0.0
 11
15.270324
 21
-8.518886
 31
0.0
  0
LINE
  5
202
330
5B7
100
AcDbEntity
  8
1
100
AcDbLine
 10
15.270324
 20
-8.518886
 30
0.0
 11
15.21988
 21
-8.241899
 31
0.0
  0
LINE
  5
203
330
5B7
100
AcDbEntity
  8
1
100
AcDbLine
 10
15.21988
 20
-8.241899
 30
0.0
 11
15.171587
 21
-7.969711
 31
0.0
  0
LINE
  5
204
330
5B7
100
AcDbEntity
  8
1
100
AcDbLine
 10
15.171587
 20
-7.969711
 30
0.0
 11
15.125426
 21
-7.702336999999999
 31
0.0
  0
LINE
  5
205
330
5B7
100
AcDbEntity
  8
1
100
AcDbLine
 10
15.125426
 20
-7.702336999999999
 30
0.0
 11
15.081416
 21
-7.439761999999999
 31
0.0
  0
LINE
  5
206
330
5B7
100
AcDbEntity
  8
1
100
AcDbLine
 10
15.081416
 20
-7.439761999999999
 30
0.0
 11
15.039556
 21
-7.181985
 31
0.0
  0
LINE
  5
207
330
5B7
100
AcDbEntity
  8
1
100
AcDbLine
 10
17.0
 20
-8.952355999999999
 30
0.0
 11
15.60665499999999
 21
-9.907380999999999
 31
0.0
  0
LINE
  5
208
330
5B7
100
AcDbEntity
  8
1
100
AcDbLine
 10
15.494218
 20
-9.674219
 30
0.0
 11
17.0
 21
-8.642127999999999
 31
0.0
  0
LINE
  5
209
330
5B7
100
AcDbEntity
  8
1
100
AcDbLine
 10
17.0
 20
-5.83826
 30
0.0
 11
15.039556
 21
-7.181985
 31
0.0
  0
LINE
  5
20A
330
5B7
100
AcDbEntity
  8
1
100
AcDbLine
 10
15.423515
 20
-6.854997999999999
 30
0.0
 11
15.1
 21
-7.099649
 31
0.0
  0
LINE
  5
20B
330
5B7
100
AcDbEntity
  8
1
100
AcDbLine
 10
16.5
 20
-6.027908999999999
 30
0.0
 11
16.351405
 21
-6.143364
 31
0.0
  0
LINE
  5
20C
330
5B7
100
AcDbEntity
  8
1
100
AcDbLine
 10
16.351405
 20
-6.143364
 30
0.0
 11
16.201086
 21
-6.259714999999999
 31
0.0
  0
LINE
  5
20D
330
5B7
100
AcDbEntity
  8
1
100
AcDbLine
 10
16.201086
 20
-6.259714999999999
 30
0.0
 11
16.049045
 21
-6.376962
 31
0.0
  0
LINE
  5
20E
330
5B7
100
AcDbEntity
  8
1
100
AcDbLine
 10
16.049045
 20
-6.376962
 30
0.0
 11
15.895305
 21
-6.495091
 31
0.0
  0
LINE
  5
20F
330
5B7
100
AcDbEntity
  8
1
100
AcDbLine
 10
15.895305
 20
-6.495091
 30
0.0
 11
15.739841
 21
-6.614117
 31
0.0
  0
LINE
  5
210
330
5B7
100
AcDbEntity
  8
1
100
AcDbLine
 10
15.739841
 20
-6.614117
 30
0.0
 11
15.582585
 21
-6.734080999999999
 31
0.0
  0
LINE
  5
211
330
5B7
100
AcDbEntity
  8
1
100
AcDbLine
 10
15.582585
 20
-6.734080999999999
 30
0.0
 11
15.423515
 21
-6.854997999999999
 31
0.0
  0
LINE
  5
212
330
5B7
100
AcDbEntity
  8
1
100
AcDbLine
 10
15.494102
 20
-9.674298
 30
0.0
 11
15.511965
 21
-9.713359
 31
0.0
  0
LINE
  5
213
330
5B7
100
AcDbEntity
  8
1
100
AcDbLine
 10
15.511965
 20
-9.713359
 30
0.0
 11
15.530187
 21
-9.752333999999999
 31
0.0
  0
LINE
  5
214
330
5B7
100
AcDbEntity
  8
1
100
AcDbLine
 10
15.530187
 20
-9.752333999999999
 30
0.0
 11
15.548767
 21
-9.791223
 31
0.0
  0
LINE
  5
215
330
5B7
100
AcDbEntity
  8
1
100
AcDbLine
 10
15.548767
 20
-9.791223
 30
0.0
 11
15.567705
 21
-9.830028
 31
0.0
  0
LINE
  5
216
330
5B7
100
AcDbEntity
  8
1
100
AcDbLine
 10
15.567705
 20
-9.830028
 30
0.0
 11
15.587001
 21
-9.868747
 31
0.0
  0
LINE
  5
217
330
5B7
100
AcDbEntity
  8
1
100
AcDbLine
 10
15.587001
 20
-9.868747
 30
0.0
 11
15.60665499999999
 21
-9.907380999999999
 31
0.0
  0
LINE
  5
218
330
5B7
100
AcDbEntity
  8
1
100
AcDbLine
 10
16.5
 20
-10.2
 30
0.0
 11
17.0
 21
-10.2
 31
0.0
  0
LINE
  5
219
330
5B7
100
AcDbEntity
  8
1
100
AcDbLine
 10
16.5
 20
-10.375052
 30
0.0
 11
17.0
 21
-10.375052
 31
0.0
  0
LINE
  5
21A
330
5B7
100
AcDbEntity
  8
1
100
AcDbLine
 10
9.707213000000001
 20
11.201113
 30
0.0
 11
9.761903999999999
 21
11.152833
 31
0.0
  0
LINE
  5
21B
330
5B7
100
AcDbEntity
  8
1
100
AcDbLine
 10
9.761903999999999
 20
11.152833
 30
0.0
 11
9.822136
 21
11.104277
 31
0.0
  0
LINE
  5
21C
330
5B7
100
AcDbEntity
  8
1
100
AcDbLine
 10
9.822136
 20
11.104277
 30
0.0
 11
9.887911
 21
11.055421
 31
0.0
  0
LINE
  5
21D
330
5B7
100
AcDbEntity
  8
1
100
AcDbLine
 10
9.887911
 20
11.055421
 30
0.0
 11
9.959182999999999
 21
11.006019
 31
0.0
  0
LINE
  5
21E
330
5B7
100
AcDbEntity
  8
1
100
AcDbLine
 10
9.959182999999999
 20
11.006019
 30
0.0
 11
10.035997
 21
10.956267
 31
0.0
  0
LINE
  5
21F
330
5B7
100
AcDbEntity
  8
1
100
AcDbLine
 10
10.035997
 20
10.956267
 30
0.0
 11
10.118485
 21
10.906823
 31
0.0
  0
LINE
  5
220
330
5B7
100
AcDbEntity
  8
1
100
AcDbLine
 10
10.118485
 20
10.906823
 30
0.0
 11
10.206663
 21
10.857759
 31
0.0
  0
LINE
  5
221
330
5B7
100
AcDbEntity
  8
1
100
AcDbLine
 10
10.206663
 20
10.857759
 30
0.0
 11
10.300515
 21
10.808985
 31
0.0
  0
LINE
  5
222
330
5B7
100
AcDbEntity
  8
1
100
AcDbLine
 10
10.300515
 20
10.808985
 30
0.0
 11
10.400133
 21
10.760932
 31
0.0
  0
LINE
  5
223
330
5B7
100
AcDbEntity
  8
1
100
AcDbLine
 10
10.400133
 20
10.760932
 30
0.0
 11
10.505568
 21
10.71364
 31
0.0
  0
LINE
  5
224
330
5B7
100
AcDbEntity
  8
1
100
AcDbLine
 10
10.505568
 20
10.71364
 30
0.0
 11
10.616768
 21
10.667068
 31
0.0
  0
LINE
  5
225
330
5B7
100
AcDbEntity
  8
1
100
AcDbLine
 10
10.616768
 20
10.667068
 30
0.0
 11
10.733677
 21
10.621552
 31
0.0
  0
LINE
  5
226
330
5B7
100
AcDbEntity
  8
1
100
AcDbLine
 10
10.733677
 20
10.621552
 30
0.0
 11
10.856276
 21
10.57721
 31
0.0
  0
LINE
  5
227
330
5B7
100
AcDbEntity
  8
1
100
AcDbLine
 10
10.856276
 20
10.57721
 30
0.0
 11
10.984583
 21
10.533938
 31
0.0
  0
LINE
  5
228
330
5B7
100
AcDbEntity
  8
1
100
AcDbLine
 10
10.984583
 20
10.533938
 30
0.0
 11
11.118599
 21
10.491744
 31
0.0
  0
LINE
  5
229
330
5B7
100
AcDbEntity
  8
1
100
AcDbLine
 10
9.707213000000001
 20
1.135762
 30
0.0
 11
9.774503999999998
 21
1.032242
 31
0.0
  0
LINE
  5
22A
330
5B7
100
AcDbEntity
  8
1
100
AcDbLine
 10
9.774503999999998
 20
1.032242
 30
0.0
 11
9.850846
 21
0.9270749999999999
 31
0.0
  0
LINE
  5
22B
330
5B7
100
AcDbEntity
  8
1
100
AcDbLine
 10
9.850846
 20
0.9270749999999999
 30
0.0
 11
9.936238000000001
 21
0.8202239999999999
 31
0.0
  0
LINE
  5
22C
330
5B7
100
AcDbEntity
  8
1
100
AcDbLine
 10
9.936238000000001
 20
0.8202239999999999
 30
0.0
 11
10.030607
 21
0.711003
 31
0.0
  0
LINE
  5
22D
330
5B7
100
AcDbEntity
  8
1
100
AcDbLine
 10
10.030607
 20
0.711003
 30
0.0
 11
10.134027
 21
0.600024
 31
0.0
  0
LINE
  5
22E
330
5B7
100
AcDbEntity
  8
1
100
AcDbLine
 10
10.134027
 20
0.600024
 30
0.0
 11
10.24672
 21
0.489211
 31
0.0
  0
LINE
  5
22F
330
5B7
100
AcDbEntity
  8
1
100
AcDbLine
 10
10.24672
 20
0.489211
 30
0.0
 11
10.368739
 21
0.378801
 31
0.0
  0
LINE
  5
230
330
5B7
100
AcDbEntity
  8
1
100
AcDbLine
 10
10.368739
 20
0.378801
 30
0.0
 11
10.50003
 21
0.2685
 31
0.0
  0
LINE
  5
231
330
5B7
100
AcDbEntity
  8
1
100
AcDbLine
 10
10.50003
 20
0.2685
 30
0.0
 11
10.640655
 21
0.159449
 31
0.0
  0
LINE
  5
232
330
5B7
100
AcDbEntity
  8
1
100
AcDbLine
 10
10.640655
 20
0.159449
 30
0.0
 11
10.790635
 21
0.052015
 31
0.0
  0
LINE
  5
233
330
5B7
100
AcDbEntity
  8
1
100
AcDbLine
 10
10.790635
 20
0.052015
 30
0.0
 11
10.94995
 21
-0.054212
 31
0.0
  0
LINE
  5
234
330
5B7
100
AcDbEntity
  8
1
100
AcDbLine
 10
10.94995
 20
-0.054212
 30
0.0
 11
11.118599
 21
-0.159252
 31
0.0
  0
LINE
  5
235
330
5B7
100
AcDbEntity
  8
1
100
AcDbLine
 10
11.649869
 20
13.89504
 30
0.0
 11
11.561715
 21
13.888612
 31
0.0
  0
LINE
  5
236
330
5B7
100
AcDbEntity
  8
1
100
AcDbLine
 10
11.561715
 20
13.888612
 30
0.0
 11
11.473112
 21
13.882958
 31
0.0
  0
LINE
  5
237
330
5B7
100
AcDbEntity
  8
1
100
AcDbLine
 10
11.473112
 20
13.882958
 30
0.0
 11
11.384059
 21
13.878088
 31
0.0
  0
LINE
  5
238
330
5B7
100
AcDbEntity
  8
1
100
AcDbLine
 10
11.384059
 20
13.878088
 30
0.0
 11
11.294515
 21
13.874033
 31
0.0
  0
LINE
  5
239
330
5B7
100
AcDbEntity
  8
1
100
AcDbLine
 10
11.294515
 20
13.874033
 30
0.0
 11
11.204521
 21
13.870777
 31
0.0
  0
LINE
  5
23A
330
5B7
100
AcDbEntity
  8
1
100
AcDbLine
 10
11.204521
 20
13.870777
 30
0.0
 11
11.114206
 21
13.868254
 31
0.0
  0
LINE
  5
23B
330
5B7
100
AcDbEntity
  8
1
100
AcDbLine
 10
11.114206
 20
13.868254
 30
0.0
 11
11.023629
 21
13.866469
 31
0.0
  0
LINE
  5
23C
330
5B7
100
AcDbEntity
  8
1
100
AcDbLine
 10
11.023629
 20
13.866469
 30
0.0
 11
10.932731
 21
13.865423
 31
0.0
  0
LINE
  5
23D
330
5B7
100
AcDbEntity
  8
1
100
AcDbLine
 10
10.932731
 20
13.865423
 30
0.0
 11
10.841465
 21
13.865042
 31
0.0
  0
LINE
  5
23E
330
5B7
100
AcDbEntity
  8
1
100
AcDbLine
 10
10.841465
 20
13.865042
 30
0.0
 11
10.74988
 21
13.865322
 31
0.0
  0
LINE
  5
23F
330
5B7
100
AcDbEntity
  8
1
100
AcDbLine
 10
10.74988
 20
13.865322
 30
0.0
 11
10.657927
 21
13.866267
 31
0.0
  0
LINE
  5
240
330
5B7
100
AcDbEntity
  8
1
100
AcDbLine
 10
10.657927
 20
13.866267
 30
0.0
 11
10.565403
 21
13.867814
 31
0.0
  0
LINE
  5
241
330
5B7
100
AcDbEntity
  8
1
100
AcDbLine
 10
10.565403
 20
13.867814
 30
0.0
 11
10.472275
 21
13.869958
 31
0.0
  0
LINE
  5
242
330
5B7
100
AcDbEntity
  8
1
100
AcDbLine
 10
10.472275
 20
13.869958
 30
0.0
 11
10.378577
 21
13.8727
 31
0.0
  0
LINE
  5
243
330
5B7
100
AcDbEntity
  8
1
100
AcDbLine
 10
10.378577
 20
13.8727
 30
0.0
 11
10.284213
 21
13.87599
 31
0.0
  0
LINE
  5
244
330
5B7
100
AcDbEntity
  8
1
100
AcDbLine
 10
10.284213
 20
13.87599
 30
0.0
 11
10.189181
 21
13.879821
 31
0.0
  0
LINE
  5
245
330
5B7
100
AcDbEntity
  8
1
100
AcDbLine
 10
10.189181
 20
13.879821
 30
0.0
 11
10.093484
 21
13.884192
 31
0.0
  0
LINE
  5
246
330
5B7
100
AcDbEntity
  8
1
100
AcDbLine
 10
10.093484
 20
13.884192
 30
0.0
 11
9.997027
 21
13.889059
 31
0.0
  0
LINE
  5
247
330
5B7
100
AcDbEntity
  8
1
100
AcDbLine
 10
9.997027
 20
13.889059
 30
0.0
 11
9.899953999999999
 21
13.894403
 31
0.0
  0
LINE
  5
248
330
5B7
100
AcDbEntity
  8
1
100
AcDbLine
 10
9.899953999999999
 20
13.894403
 30
0.0
 11
9.802122
 21
13.900233
 31
0.0
  0
LINE
  5
249
330
5B7
100
AcDbEntity
  8
1
100
AcDbLine
 10
9.802122
 20
13.900233
 30
0.0
 11
9.703008999999999
 21
13.906545
 31
0.0
  0
LINE
  5
24A
330
5B7
100
AcDbEntity
  8
1
100
AcDbLine
 10
9.703008999999999
 20
13.906545
 30
0.0
 11
9.602646999999999
 21
13.913322
 31
0.0
  0
LINE
  5
24B
330
5B7
100
AcDbEntity
  8
1
100
AcDbLine
 10
9.602646999999999
 20
13.913322
 30
0.0
 11
9.501005000000001
 21
13.920567
 31
0.0
  0
LINE
  5
24C
330
5B7
100
AcDbEntity
  8
1
100
AcDbLine
 10
9.391548
 20
11.770754
 30
0.0
 11
10.033571
 21
11.896885
 31
0.0
  0
LINE
  5
24D
330
5B7
100
AcDbEntity
  8
1
100
AcDbLine
 10
10.033571
 20
11.896885
 30
0.0
 11
10.671991
 21
12.020213
 31
0.0
  0
LINE
  5
24E
330
5B7
100
AcDbEntity
  8
1
100
AcDbLine
 10
10.671991
 20
12.020213
 30
0.0
 11
11.306808
 21
12.140738
 31
0.0
  0
LINE
  5
24F
330
5B7
100
AcDbEntity
  8
1
100
AcDbLine
 10
11.306808
 20
12.140738
 30
0.0
 11
11.938041
 21
12.258452
 31
0.0
  0
LINE
  5
250
330
5B7
100
AcDbEntity
  8
1
100
AcDbLine
 10
11.938041
 20
12.258452
 30
0.0
 11
12.565671
 21
12.373362
 31
0.0
  0
LINE
  5
251
330
5B7
100
AcDbEntity
  8
1
100
AcDbLine
 10
12.565671
 20
12.373362
 30
0.0
 11
13.189642
 21
12.485495
 31
0.0
  0
LINE
  5
252
330
5B7
100
AcDbEntity
  8
1
100
AcDbLine
 10
13.189642
 20
12.485495
 30
0.0
 11
13.809938
 21
12.594859
 31
0.0
  0
LINE
  5
253
330
5B7
100
AcDbEntity
  8
1
100
AcDbLine
 10
13.809938
 20
12.594859
 30
0.0
 11
14.426576
 21
12.701445
 31
0.0
  0
LINE
  5
254
330
5B7
100
AcDbEntity
  8
1
100
AcDbLine
 10
14.426576
 20
12.701445
 30
0.0
 11
15.039556
 21
12.805255
 31
0.0
  0
LINE
  5
255
330
5B7
100
AcDbEntity
  8
1
100
AcDbLine
 10
10.839609
 20
5.878426
 30
0.0
 11
10.816347
 21
5.878472
 31
0.0
  0
LINE
  5
256
330
5B7
100
AcDbEntity
  8
1
100
AcDbLine
 10
10.816347
 20
5.878472
 30
0.0
 11
10.730007
 21
5.879734
 31
0.0
  0
LINE
  5
257
330
5B7
100
AcDbEntity
  8
1
100
AcDbLine
 10
10.730007
 20
5.879734
 30
0.0
 11
10.642839
 21
5.882638
 31
0.0
  0
LINE
  5
258
330
5B7
100
AcDbEntity
  8
1
100
AcDbLine
 10
10.642839
 20
5.882638
 30
0.0
 11
10.554809
 21
5.887173
 31
0.0
  0
LINE
  5
259
330
5B7
100
AcDbEntity
  8
1
100
AcDbLine
 10
10.554809
 20
5.887173
 30
0.0
 11
10.465949
 21
5.893348
 31
0.0
  0
LINE
  5
25A
330
5B7
100
AcDbEntity
  8
1
100
AcDbLine
 10
10.465949
 20
5.893348
 30
0.0
 11
10.376107
 21
5.901097
 31
0.0
  0
LINE
  5
25B
330
5B7
100
AcDbEntity
  8
1
100
AcDbLine
 10
10.376107
 20
5.901097
 30
0.0
 11
10.285263
 21
5.910414
 31
0.0
  0
LINE
  5
25C
330
5B7
100
AcDbEntity
  8
1
100
AcDbLine
 10
10.285263
 20
5.910414
 30
0.0
 11
10.193437
 21
5.921301999999999
 31
0.0
  0
LINE
  5
25D
330
5B7
100
AcDbEntity
  8
1
100
AcDbLine
 10
10.193437
 20
5.921301999999999
 30
0.0
 11
10.100533
 21
5.933703999999999
 31
0.0
  0
LINE
  5
25E
330
5B7
100
AcDbEntity
  8
1
100
AcDbLine
 10
10.100533
 20
5.933703999999999
 30
0.0
 11
10.006675
 21
5.947587999999999
 31
0.0
  0
LINE
  5
25F
330
5B7
100
AcDbEntity
  8
1
100
AcDbLine
 10
10.006675
 20
5.947587999999999
 30
0.0
 11
9.911739
 21
5.962983999999999
 31
0.0
  0
LINE
  5
260
330
5B7
100
AcDbEntity
  8
1
100
AcDbLine
 10
9.911739
 20
5.962983999999999
 30
0.0
 11
9.815258
 21
5.979924999999999
 31
0.0
  0
LINE
  5
261
330
5B7
100
AcDbEntity
  8
1
100
AcDbLine
 10
9.815258
 20
5.979924999999999
 30
0.0
 11
9.717394999999999
 21
5.998349
 31
0.0
  0
LINE
  5
262
330
5B7
100
AcDbEntity
  8
1
100
AcDbLine
 10
9.717394999999999
 20
5.998349
 30
0.0
 11
9.617988999999999
 21
6.018314
 31
0.0
  0
LINE
  5
263
330
5B7
100
AcDbEntity
  8
1
100
AcDbLine
 10
9.617988999999999
 20
6.018314
 30
0.0
 11
9.516085999999999
 21
6.040033
 31
0.0
  0
LINE
  5
264
330
5B7
100
AcDbEntity
  8
1
100
AcDbLine
 10
9.516085999999999
 20
6.040033
 30
0.0
 11
9.411632
 21
6.063485
 31
0.0
  0
LINE
  5
265
330
5B7
100
AcDbEntity
  8
1
100
AcDbLine
 10
9.411632
 20
6.063485
 30
0.0
 11
9.304683
 21
6.088683999999999
 31
0.0
  0
LINE
  5
266
330
5B7
100
AcDbEntity
  8
1
100
AcDbLine
 10
9.304683
 20
6.088683999999999
 30
0.0
 11
9.194452999999999
 21
6.115896
 31
0.0
  0
LINE
  5
267
330
5B7
100
AcDbEntity
  8
1
100
AcDbLine
 10
9.194452999999999
 20
6.115896
 30
0.0
 11
9.080882
 21
6.145116999999999
 31
0.0
  0
LINE
  5
268
330
5B7
100
AcDbEntity
  8
1
100
AcDbLine
 10
9.080882
 20
6.145116999999999
 30
0.0
 11
8.964032000000001
 21
6.176339999999999
 31
0.0
  0
LINE
  5
269
330
5B7
100
AcDbEntity
  8
1
100
AcDbLine
 10
8.964032000000001
 20
6.176339999999999
 30
0.0
 11
8.843296
 21
6.209831999999999
 31
0.0
  0
LINE
  5
26A
330
5B7
100
AcDbEntity
  8
1
100
AcDbLine
 10
8.843296
 20
6.209831999999999
 30
0.0
 11
8.718667999999999
 21
6.245580999999999
 31
0.0
  0
LINE
  5
26B
330
5B7
100
AcDbEntity
  8
1
100
AcDbLine
 10
8.718667999999999
 20
6.245580999999999
 30
0.0
 11
8.590154
 21
6.283582
 31
0.0
  0
LINE
  5
26C
330
5B7
100
AcDbEntity
  8
1
100
AcDbLine
 10
8.590154
 20
6.283582
 30
0.0
 11
8.457169999999999
 21
6.324113999999999
 31
0.0
  0
LINE
  5
26D
330
5B7
100
AcDbEntity
  8
1
100
AcDbLine
 10
8.457169999999999
 20
6.324113999999999
 30
0.0
 11
8.319744999999999
 21
6.367150999999999
 31
0.0
  0
LINE
  5
26E
330
5B7
100
AcDbEntity
  8
1
100
AcDbLine
 10
8.319744999999999
 20
6.367150999999999
 30
0.0
 11
8.177847999999999
 21
6.412694
 31
0.0
  0
LINE
  5
26F
330
5B7
100
AcDbEntity
  8
1
100
AcDbLine
 10
8.177847999999999
 20
6.412694
 30
0.0
 11
8.030806
 21
6.461053999999999
 31
0.0
  0
LINE
  5
270
330
5B7
100
AcDbEntity
  8
1
100
AcDbLine
 10
8.030806
 20
6.461053999999999
 30
0.0
 11
7.878619
 21
6.512214
 31
0.0
  0
LINE
  5
271
330
5B7
100
AcDbEntity
  8
1
100
AcDbLine
 10
7.878619
 20
6.512214
 30
0.0
 11
7.721286
 21
6.566158
 31
0.0
  0
LINE
  5
272
330
5B7
100
AcDbEntity
  8
1
100
AcDbLine
 10
7.721286
 20
6.566158
 30
0.0
 11
7.558135
 21
6.623192999999999
 31
0.0
  0
LINE
  5
273
330
5B7
100
AcDbEntity
  8
1
100
AcDbLine
 10
7.558135
 20
6.623192999999999
 30
0.0
 11
7.389166999999999
 21
6.683297999999999
 31
0.0
  0
LINE
  5
274
330
5B7
100
AcDbEntity
  8
1
100
AcDbLine
 10
7.389166999999999
 20
6.683297999999999
 30
0.0
 11
7.21438
 21
6.746448
 31
0.0
  0
LINE
  5
275
330
5B7
100
AcDbEntity
  8
1
100
AcDbLine
 10
7.21438
 20
6.746448
 30
0.0
 11
7.033102
 21
6.812933999999999
 31
0.0
  0
LINE
  5
276
330
5B7
100
AcDbEntity
  8
1
100
AcDbLine
 10
7.033102
 20
6.812933999999999
 30
0.0
 11
6.845342999999999
 21
6.882727
 31
0.0
  0
LINE
  5
277
330
5B7
100
AcDbEntity
  8
1
100
AcDbLine
 10
6.845342999999999
 20
6.882727
 30
0.0
 11
6.651092999999999
 21
6.955794
 31
0.0
  0
LINE
  5
278
330
5B7
100
AcDbEntity
  8
1
100
AcDbLine
 10
6.651092999999999
 20
6.955794
 30
0.0
 11
6.449648
 21
7.032413
 31
0.0
  0
LINE
  5
279
330
5B7
100
AcDbEntity
  8
1
100
AcDbLine
 10
6.449648
 20
7.032413
 30
0.0
 11
6.241007999999999
 21
7.112550999999999
 31
0.0
  0
LINE
  5
27A
330
5B7
100
AcDbEntity
  8
1
100
AcDbLine
 10
6.241007999999999
 20
7.112550999999999
 30
0.0
 11
6.025172
 21
7.196158999999999
 31
0.0
  0
LINE
  5
27B
330
5B7
100
AcDbEntity
  8
1
100
AcDbLine
 10
6.025172
 20
7.196158999999999
 30
0.0
 11
5.801433
 21
7.283488
 31
0.0
  0
LINE
  5
27C
330
5B7
100
AcDbEntity
  8
1
100
AcDbLine
 10
5.801433
 20
7.283488
 30
0.0
 11
5.569554
 21
7.374585
 31
0.0
  0
LINE
  5
27D
330
5B7
100
AcDbEntity
  8
1
100
AcDbLine
 10
5.569554
 20
7.374585
 30
0.0
 11
5.329771
 21
7.469294999999999
 31
0.0
  0
LINE
  5
27E
330
5B7
100
AcDbEntity
  8
1
100
AcDbLine
 10
5.329771
 20
7.469294999999999
 30
0.0
 11
5.082085
 21
7.567558999999999
 31
0.0
  0
LINE
  5
27F
330
5B7
100
AcDbEntity
  8
1
100
AcDbLine
 10
10.318599
 20
-0.75541
 30
0.0
 11
11.118599
 21
-0.5030750000000001
 31
0.0
  0
LINE
  5
280
330
5B7
100
AcDbEntity
  8
1
100
AcDbLine
 10
16.5
 20
0.443982
 30
0.0
 11
10.508038
 21
-1.500256
 31
0.0
  0
LINE
  5
281
330
5B7
100
AcDbEntity
  8
1
100
AcDbLine
 10
10.318599
 20
6.841596
 30
0.0
 11
17.0
 21
8.454902999999999
 31
0.0
  0
LINE
  5
282
330
5B7
100
AcDbEntity
  8
1
100
AcDbLine
 10
9.391548
 20
2.117863999999999
 30
0.0
 11
11.306808
 21
2.74655
 31
0.0
  0
LINE
  5
283
330
5B7
100
AcDbEntity
  8
1
100
AcDbLine
 10
15.1
 20
4.000738
 30
0.0
 11
14.194241
 21
3.701745999999999
 31
0.0
  0
LINE
  5
284
330
5B7
100
AcDbEntity
  8
1
100
AcDbLine
 10
14.194241
 20
3.701745999999999
 30
0.0
 11
13.280697
 21
3.400551999999999
 31
0.0
  0
LINE
  5
285
330
5B7
100
AcDbEntity
  8
1
100
AcDbLine
 10
13.280697
 20
3.400551999999999
 30
0.0
 11
12.359366
 21
3.097157
 31
0.0
  0
LINE
  5
286
330
5B7
100
AcDbEntity
  8
1
100
AcDbLine
 10
12.359366
 20
3.097157
 30
0.0
 11
11.429659
 21
2.791363999999999
 31
0.0
  0
LINE
  5
287
330
5B7
100
AcDbEntity
  8
1
100
AcDbLine
 10
11.429659
 20
2.791363999999999
 30
0.0
 11
10.492165
 21
2.483368999999999
 31
0.0
  0
LINE
  5
288
330
5B7
100
AcDbEntity
  8
1
100
AcDbLine
 10
16.5
 20
7.552782999999999
 30
0.0
 11
10.508038
 21
6.105949999999999
 31
0.0
  0
LINE
  5
289
330
5B7
100
AcDbEntity
  8
1
100
AcDbLine
 10
10.318599
 20
9.957461
 30
0.0
 11
10.716483
 21
10.099976
 31
0.0
  0
LINE
  5
28A
330
5B7
100
AcDbEntity
  8
1
100
AcDbLine
 10
11.649869
 20
-5.203014999999999
 30
0.0
 11
11.566904
 21
-5.221487
 31
0.0
  0
LINE
  5
28B
330
5B7
100
AcDbEntity
  8
1
100
AcDbLine
 10
11.566904
 20
-5.221487
 30
0.0
 11
11.48341
 21
-5.237798
 31
0.0
  0
LINE
  5
28C
330
5B7
100
AcDbEntity
  8
1
100
AcDbLine
 10
11.48341
 20
-5.237798
 30
0.0
 11
11.399387
 21
-5.251949999999999
 31
0.0
  0
LINE
  5
28D
330
5B7
100
AcDbEntity
  8
1
100
AcDbLine
 10
11.399387
 20
-5.251949999999999
 30
0.0
 11
11.314816
 21
-5.263894999999999
 31
0.0
  0
LINE
  5
28E
330
5B7
100
AcDbEntity
  8
1
100
AcDbLine
 10
11.314816
 20
-5.263894999999999
 30
0.0
 11
11.229716
 21
-5.273687
 31
0.0
  0
LINE
  5
28F
330
5B7
100
AcDbEntity
  8
1
100
AcDbLine
 10
11.229716
 20
-5.273687
 30
0.0
 11
11.14414
 21
-5.281476999999999
 31
0.0
  0
LINE
  5
290
330
5B7
100
AcDbEntity
  8
1
100
AcDbLine
 10
11.14414
 20
-5.281476999999999
 30
0.0
 11
11.058118
 21
-5.287263999999999
 31
0.0
  0
LINE
  5
291
330
5B7
100
AcDbEntity
  8
1
100
AcDbLine
 10
11.058118
 20
-5.287263999999999
 30
0.0
 11
10.97162
 21
-5.291051
 31
0.0
  0
LINE
  5
292
330
5B7
100
AcDbEntity
  8
1
100
AcDbLine
 10
10.97162
 20
-5.291051
 30
0.0
 11
10.884605
 21
-5.293001
 31
0.0
  0
LINE
  5
293
330
5B7
100
AcDbEntity
  8
1
100
AcDbLine
 10
10.884605
 20
-5.293001
 30
0.0
 11
10.797137
 21
-5.293124999999999
 31
0.0
  0
LINE
  5
294
330
5B7
100
AcDbEntity
  8
1
100
AcDbLine
 10
10.797137
 20
-5.293124999999999
 30
0.0
 11
10.709153
 21
-5.291411
 31
0.0
  0
LINE
  5
295
330
5B7
100
AcDbEntity
  8
1
100
AcDbLine
 10
10.709153
 20
-5.291411
 30
0.0
 11
10.620415
 21
-5.287986
 31
0.0
  0
LINE
  5
296
330
5B7
100
AcDbEntity
  8
1
100
AcDbLine
 10
10.620415
 20
-5.287986
 30
0.0
 11
10.53089
 21
-5.282862
 31
0.0
  0
LINE
  5
297
330
5B7
100
AcDbEntity
  8
1
100
AcDbLine
 10
10.53089
 20
-5.282862
 30
0.0
 11
10.440613
 21
-5.276025999999999
 31
0.0
  0
LINE
  5
298
330
5B7
100
AcDbEntity
  8
1
100
AcDbLine
 10
10.440613
 20
-5.276025999999999
 30
0.0
 11
10.349451
 21
-5.267566999999999
 31
0.0
  0
LINE
  5
299
330
5B7
100
AcDbEntity
  8
1
100
AcDbLine
 10
10.349451
 20
-5.267566999999999
 30
0.0
 11
10.257388
 21
-5.257488999999999
 31
0.0
  0
LINE
  5
29A
330
5B7
100
AcDbEntity
  8
1
100
AcDbLine
 10
10.257388
 20
-5.257488999999999
 30
0.0
 11
10.16444
 21
-5.245785999999999
 31
0.0
  0
LINE
  5
29B
330
5B7
100
AcDbEntity
  8
1
100
AcDbLine
 10
10.16444
 20
-5.245785999999999
 30
0.0
 11
10.070521
 21
-5.232531999999999
 31
0.0
  0
LINE
  5
29C
330
5B7
100
AcDbEntity
  8
1
100
AcDbLine
 10
10.070521
 20
-5.232531999999999
 30
0.0
 11
9.975774000000001
 21
-5.217761
 31
0.0
  0
LINE
  5
29D
330
5B7
100
AcDbEntity
  8
1
100
AcDbLine
 10
9.975774000000001
 20
-5.217761
 30
0.0
 11
9.880055999999999
 21
-5.201436
 31
0.0
  0
LINE
  5
29E
330
5B7
100
AcDbEntity
  8
1
100
AcDbLine
 10
9.880055999999999
 20
-5.201436
 30
0.0
 11
9.782856999999999
 21
-5.183519999999999
 31
0.0
  0
LINE
  5
29F
330
5B7
100
AcDbEntity
  8
1
100
AcDbLine
 10
9.782856999999999
 20
-5.183519999999999
 30
0.0
 11
9.684305
 21
-5.164066
 31
0.0
  0
LINE
  5
2A0
330
5B7
100
AcDbEntity
  8
1
100
AcDbLine
 10
9.684305
 20
-5.164066
 30
0.0
 11
9.584272
 21
-5.143016999999999
 31
0.0
  0
LINE
  5
2A1
330
5B7
100
AcDbEntity
  8
1
100
AcDbLine
 10
9.584272
 20
-5.143016999999999
 30
0.0
 11
9.481863
 21
-5.120165
 31
0.0
  0
LINE
  5
2A2
330
5B7
100
AcDbEntity
  8
1
100
AcDbLine
 10
9.481863
 20
-5.120165
 30
0.0
 11
9.377053
 21
-5.095534999999999
 31
0.0
  0
LINE
  5
2A3
330
5B7
100
AcDbEntity
  8
1
100
AcDbLine
 10
9.377053
 20
-5.095534999999999
 30
0.0
 11
9.269867999999998
 21
-5.069096
 31
0.0
  0
LINE
  5
2A4
330
5B7
100
AcDbEntity
  8
1
100
AcDbLine
 10
9.269867999999998
 20
-5.069096
 30
0.0
 11
9.159489999999999
 21
-5.040564999999999
 31
0.0
  0
LINE
  5
2A5
330
5B7
100
AcDbEntity
  8
1
100
AcDbLine
 10
9.159489999999999
 20
-5.040564999999999
 30
0.0
 11
9.045835
 21
-5.009930999999999
 31
0.0
  0
LINE
  5
2A6
330
5B7
100
AcDbEntity
  8
1
100
AcDbLine
 10
9.045835
 20
-5.009930999999999
 30
0.0
 11
8.928986999999999
 21
-4.977197
 31
0.0
  0
LINE
  5
2A7
330
5B7
100
AcDbEntity
  8
1
100
AcDbLine
 10
8.928986999999999
 20
-4.977197
 30
0.0
 11
8.808380999999998
 21
-4.942091
 31
0.0
  0
LINE
  5
2A8
330
5B7
100
AcDbEntity
  8
1
100
AcDbLine
 10
8.808380999999998
 20
-4.942091
 30
0.0
 11
8.683982999999999
 21
-4.904601999999999
 31
0.0
  0
LINE
  5
2A9
330
5B7
100
AcDbEntity
  8
1
100
AcDbLine
 10
8.683982999999999
 20
-4.904601999999999
 30
0.0
 11
8.555825999999999
 21
-4.864729
 31
0.0
  0
LINE
  5
2AA
330
5B7
100
AcDbEntity
  8
1
100
AcDbLine
 10
8.555825999999999
 20
-4.864729
 30
0.0
 11
8.423447999999998
 21
-4.822217
 31
0.0
  0
LINE
  5
2AB
330
5B7
100
AcDbEntity
  8
1
100
AcDbLine
 10
8.423447999999998
 20
-4.822217
 30
0.0
 11
8.286929999999999
 21
-4.777088
 31
0.0
  0
LINE
  5
2AC
330
5B7
100
AcDbEntity
  8
1
100
AcDbLine
 10
8.286929999999999
 20
-4.777088
 30
0.0
 11
8.146189999999998
 21
-4.729301999999999
 31
0.0
  0
LINE
  5
2AD
330
5B7
100
AcDbEntity
  8
1
100
AcDbLine
 10
8.146189999999998
 20
-4.729301999999999
 30
0.0
 11
8.000529999999999
 21
-4.678516
 31
0.0
  0
LINE
  5
2AE
330
5B7
100
AcDbEntity
  8
1
100
AcDbLine
 10
8.000529999999999
 20
-4.678516
 30
0.0
 11
7.849972999999999
 21
-4.624730999999999
 31
0.0
  0
LINE
  5
2AF
330
5B7
100
AcDbEntity
  8
1
100
AcDbLine
 10
7.849972999999999
 20
-4.624730999999999
 30
0.0
 11
7.694494999999999
 21
-4.567923999999999
 31
0.0
  0
LINE
  5
2B0
330
5B7
100
AcDbEntity
  8
1
100
AcDbLine
 10
7.694494999999999
 20
-4.567923999999999
 30
0.0
 11
7.533325999999999
 21
-4.507706999999999
 31
0.0
  0
LINE
  5
2B1
330
5B7
100
AcDbEntity
  8
1
100
AcDbLine
 10
7.533325999999999
 20
-4.507706999999999
 30
0.0
 11
7.366464999999999
 21
-4.444067999999999
 31
0.0
  0
LINE
  5
2B2
330
5B7
100
AcDbEntity
  8
1
100
AcDbLine
 10
7.366464999999999
 20
-4.444067999999999
 30
0.0
 11
7.193913
 21
-4.376992999999999
 31
0.0
  0
LINE
  5
2B3
330
5B7
100
AcDbEntity
  8
1
100
AcDbLine
 10
7.193913
 20
-4.376992999999999
 30
0.0
 11
7.014900999999999
 21
-4.306087
 31
0.0
  0
LINE
  5
2B4
330
5B7
100
AcDbEntity
  8
1
100
AcDbLine
 10
7.014900999999999
 20
-4.306087
 30
0.0
 11
6.829436999999999
 21
-4.231333999999999
 31
0.0
  0
LINE
  5
2B5
330
5B7
100
AcDbEntity
  8
1
100
AcDbLine
 10
6.829436999999999
 20
-4.231333999999999
 30
0.0
 11
6.637514
 21
-4.152718
 31
0.0
  0
LINE
  5
2B6
330
5B7
100
AcDbEntity
  8
1
100
AcDbLine
 10
6.637514
 20
-4.152718
 30
0.0
 11
6.438333999999999
 21
-4.069833999999999
 31
0.0
  0
LINE
  5
2B7
330
5B7
100
AcDbEntity
  8
1
100
AcDbLine
 10
6.438333999999999
 20
-4.069833999999999
 30
0.0
 11
6.231898
 21
-3.982658999999999
 31
0.0
  0
LINE
  5
2B8
330
5B7
100
AcDbEntity
  8
1
100
AcDbLine
 10
6.231898
 20
-3.982658999999999
 30
0.0
 11
6.018205
 21
-3.891178
 31
0.0
  0
LINE
  5
2B9
330
5B7
100
AcDbEntity
  8
1
100
AcDbLine
 10
6.018205
 20
-3.891178
 30
0.0
 11
5.796458
 21
-3.794994
 31
0.0
  0
LINE
  5
2BA
330
5B7
100
AcDbEntity
  8
1
100
AcDbLine
 10
5.796458
 20
-3.794994
 30
0.0
 11
5.566389
 21
-3.693958999999999
 31
0.0
  0
LINE
  5
2BB
330
5B7
100
AcDbEntity
  8
1
100
AcDbLine
 10
5.566389
 20
-3.693958999999999
 30
0.0
 11
5.328265
 21
-3.588179
 31
0.0
  0
LINE
  5
2BC
330
5B7
100
AcDbEntity
  8
1
100
AcDbLine
 10
5.328265
 20
-3.588179
 30
0.0
 11
5.082085
 21
-3.477631999999999
 31
0.0
  0
LINE
  5
2BD
330
5B7
100
AcDbEntity
  8
1
100
AcDbLine
 10
10.04564
 20
0.087352
 30
0.0
 11
9.774592
 21
0.9267149999999999
 31
0.0
  0
LINE
  5
2BE
330
5B7
100
AcDbEntity
  8
1
100
AcDbLine
 10
9.390244
 20
2.121840999999999
 30
0.0
 11
7.643467
 21
1.549672999999999
 31
0.0
  0
LINE
  5
2BF
330
5B7
100
AcDbEntity
  8
1
100
AcDbLine
 10
7.643467
 20
1.549672999999999
 30
0.0
 11
6.683803
 21
1.235854999999999
 31
0.0
  0
LINE
  5
2C0
330
5B7
100
AcDbEntity
  8
1
100
AcDbLine
 10
6.683803
 20
1.235854999999999
 30
0.0
 11
5.720728
 21
0.9212849999999999
 31
0.0
  0
LINE
  5
2C1
330
5B7
100
AcDbEntity
  8
1
100
AcDbLine
 10
5.720728
 20
0.9212849999999999
 30
0.0
 11
4.753592
 21
0.605746
 31
0.0
  0
LINE
  5
2C2
330
5B7
100
AcDbEntity
  8
1
100
AcDbLine
 10
4.753592
 20
0.605746
 30
0.0
 11
3.782394
 21
0.289241
 31
0.0
  0
LINE
  5
2C3
330
5B7
100
AcDbEntity
  8
1
100
AcDbLine
 10
6.691291
 20
-2.819272999999999
 30
0.0
 11
6.474616
 21
-2.900884999999999
 31
0.0
  0
LINE
  5
2C4
330
5B7
100
AcDbEntity
  8
1
100
AcDbLine
 10
5.082085
 20
-3.477631999999999
 30
0.0
 11
4.962326
 21
-3.169637999999999
 31
0.0
  0
LINE
  5
2C5
330
5B7
100
AcDbEntity
  8
1
100
AcDbLine
 10
4.962326
 20
-3.169637999999999
 30
0.0
 11
4.844591
 21
-2.859706999999999
 31
0.0
  0
LINE
  5
2C6
330
5B7
100
AcDbEntity
  8
1
100
AcDbLine
 10
4.844591
 20
-2.859706999999999
 30
0.0
 11
4.728880999999999
 21
-2.547978
 31
0.0
  0
LINE
  5
2C7
330
5B7
100
AcDbEntity
  8
1
100
AcDbLine
 10
4.728880999999999
 20
-2.547978
 30
0.0
 11
4.615180999999999
 21
-2.234379999999999
 31
0.0
  0
LINE
  5
2C8
330
5B7
100
AcDbEntity
  8
1
100
AcDbLine
 10
4.615180999999999
 20
-2.234379999999999
 30
0.0
 11
4.503505999999999
 21
-1.919267999999999
 31
0.0
  0
LINE
  5
2C9
330
5B7
100
AcDbEntity
  8
1
100
AcDbLine
 10
4.503505999999999
 20
-1.919267999999999
 30
0.0
 11
4.393895999999999
 21
-1.603432999999999
 31
0.0
  0
LINE
  5
2CA
330
5B7
100
AcDbEntity
  8
1
100
AcDbLine
 10
4.393895999999999
 20
-1.603432999999999
 30
0.0
 11
4.286262
 21
-1.286953
 31
0.0
  0
LINE
  5
2CB
330
5B7
100
AcDbEntity
  8
1
100
AcDbLine
 10
4.286262
 20
-1.286953
 30
0.0
 11
4.180692999999999
 21
-0.970053
 31
0.0
  0
LINE
  5
2CC
330
5B7
100
AcDbEntity
  8
1
100
AcDbLine
 10
4.180692999999999
 20
-0.970053
 30
0.0
 11
4.077491999999999
 21
-0.653745
 31
0.0
  0
LINE
  5
2CD
330
5B7
100
AcDbEntity
  8
1
100
AcDbLine
 10
4.077491999999999
 20
-0.653745
 30
0.0
 11
3.976758999999999
 21
-0.338472
 31
0.0
  0
LINE
  5
2CE
330
5B7
100
AcDbEntity
  8
1
100
AcDbLine
 10
3.976758999999999
 20
-0.338472
 30
0.0
 11
3.878392999999999
 21
-0.024094
 31
0.0
  0
LINE
  5
2CF
330
5B7
100
AcDbEntity
  8
1
100
AcDbLine
 10
3.878392999999999
 20
-0.024094
 30
0.0
 11
3.782394
 21
0.289241
 31
0.0
  0
LINE
  5
2D0
330
5B7
100
AcDbEntity
  8
1
100
AcDbLine
 10
6.268985999999999
 20
-2.979521
 30
0.0
 11
6.074962999999999
 21
-3.054966999999999
 31
0.0
  0
LINE
  5
2D1
330
5B7
100
AcDbEntity
  8
1
100
AcDbLine
 10
6.074962999999999
 20
-3.054966999999999
 30
0.0
 11
5.893078
 21
-3.127015999999999
 31
0.0
  0
LINE
  5
2D2
330
5B7
100
AcDbEntity
  8
1
100
AcDbLine
 10
5.893078
 20
-3.127015999999999
 30
0.0
 11
5.806845
 21
-3.161704
 31
0.0
  0
LINE
  5
2D3
330
5B7
100
AcDbEntity
  8
1
100
AcDbLine
 10
5.806845
 20
-3.161704
 30
0.0
 11
5.723830999999999
 21
-3.19547
 31
0.0
  0
LINE
  5
2D4
330
5B7
100
AcDbEntity
  8
1
100
AcDbLine
 10
5.723830999999999
 20
-3.19547
 30
0.0
 11
5.644091999999999
 21
-3.22829
 31
0.0
  0
LINE
  5
2D5
330
5B7
100
AcDbEntity
  8
1
100
AcDbLine
 10
5.644091999999999
 20
-3.22829
 30
0.0
 11
5.567683
 21
-3.260140999999999
 31
0.0
  0
LINE
  5
2D6
330
5B7
100
AcDbEntity
  8
1
100
AcDbLine
 10
5.567683
 20
-3.260140999999999
 30
0.0
 11
5.494657
 21
-3.291002999999999
 31
0.0
  0
LINE
  5
2D7
330
5B7
100
AcDbEntity
  8
1
100
AcDbLine
 10
5.494657
 20
-3.291002999999999
 30
0.0
 11
5.425063999999999
 21
-3.320854
 31
0.0
  0
LINE
  5
2D8
330
5B7
100
AcDbEntity
  8
1
100
AcDbLine
 10
5.425063999999999
 20
-3.320854
 30
0.0
 11
5.35895
 21
-3.349673999999999
 31
0.0
  0
LINE
  5
2D9
330
5B7
100
AcDbEntity
  8
1
100
AcDbLine
 10
5.35895
 20
-3.349673999999999
 30
0.0
 11
5.296362
 21
-3.377441999999999
 31
0.0
  0
LINE
  5
2DA
330
5B7
100
AcDbEntity
  8
1
100
AcDbLine
 10
5.296362
 20
-3.377441999999999
 30
0.0
 11
5.237343
 21
-3.404139999999999
 31
0.0
  0
LINE
  5
2DB
330
5B7
100
AcDbEntity
  8
1
100
AcDbLine
 10
5.237343
 20
-3.404139999999999
 30
0.0
 11
5.181931999999999
 21
-3.429748999999999
 31
0.0
  0
LINE
  5
2DC
330
5B7
100
AcDbEntity
  8
1
100
AcDbLine
 10
5.181931999999999
 20
-3.429748999999999
 30
0.0
 11
5.130168
 21
-3.454251999999999
 31
0.0
  0
LINE
  5
2DD
330
5B7
100
AcDbEntity
  8
1
100
AcDbLine
 10
5.130168
 20
-3.454251999999999
 30
0.0
 11
5.082085
 21
-3.477631999999999
 31
0.0
  0
LINE
  5
2DE
330
5B7
100
AcDbEntity
  8
1
100
AcDbLine
 10
6.474616
 20
-2.900884999999999
 30
0.0
 11
6.268985999999999
 21
-2.979521
 31
0.0
  0
LINE
  5
2DF
330
5B7
100
AcDbEntity
  8
1
100
AcDbLine
 10
10.318599
 20
-0.75541
 30
0.0
 11
10.04564
 21
0.087352
 31
0.0
  0
LINE
  5
2E0
330
5B7
100
AcDbEntity
  8
1
100
AcDbLine
 10
10.191274
 20
-3.856678
 30
0.0
 11
10.183966
 21
-3.875005999999999
 31
0.0
  0
LINE
  5
2E1
330
5B7
100
AcDbEntity
  8
1
100
AcDbLine
 10
10.183966
 20
-3.875005999999999
 30
0.0
 11
10.175479
 21
-3.893695999999999
 31
0.0
  0
LINE
  5
2E2
330
5B7
100
AcDbEntity
  8
1
100
AcDbLine
 10
10.175479
 20
-3.893695999999999
 30
0.0
 11
10.165787
 21
-3.912712999999999
 31
0.0
  0
LINE
  5
2E3
330
5B7
100
AcDbEntity
  8
1
100
AcDbLine
 10
10.165787
 20
-3.912712999999999
 30
0.0
 11
10.154862
 21
-3.932028999999999
 31
0.0
  0
LINE
  5
2E4
330
5B7
100
AcDbEntity
  8
1
100
AcDbLine
 10
10.154862
 20
-3.932028999999999
 30
0.0
 11
10.14268
 21
-3.951594999999999
 31
0.0
  0
LINE
  5
2E5
330
5B7
100
AcDbEntity
  8
1
100
AcDbLine
 10
10.14268
 20
-3.951594999999999
 30
0.0
 11
10.129225
 21
-3.971347
 31
0.0
  0
LINE
  5
2E6
330
5B7
100
AcDbEntity
  8
1
100
AcDbLine
 10
10.129225
 20
-3.971347
 30
0.0
 11
10.114481
 21
-3.991233
 31
0.0
  0
LINE
  5
2E7
330
5B7
100
AcDbEntity
  8
1
100
AcDbLine
 10
10.114481
 20
-3.991233
 30
0.0
 11
10.09842
 21
-4.011231999999999
 31
0.0
  0
LINE
  5
2E8
330
5B7
100
AcDbEntity
  8
1
100
AcDbLine
 10
10.09842
 20
-4.011231999999999
 30
0.0
 11
10.081006
 21
-4.031323
 31
0.0
  0
LINE
  5
2E9
330
5B7
100
AcDbEntity
  8
1
100
AcDbLine
 10
10.081006
 20
-4.031323
 30
0.0
 11
10.062207
 21
-4.051471
 31
0.0
  0
LINE
  5
2EA
330
5B7
100
AcDbEntity
  8
1
100
AcDbLine
 10
10.062207
 20
-4.051471
 30
0.0
 11
10.042009
 21
-4.071626999999999
 31
0.0
  0
LINE
  5
2EB
330
5B7
100
AcDbEntity
  8
1
100
AcDbLine
 10
10.042009
 20
-4.071626999999999
 30
0.0
 11
10.020403
 21
-4.091738999999999
 31
0.0
  0
LINE
  5
2EC
330
5B7
100
AcDbEntity
  8
1
100
AcDbLine
 10
10.020403
 20
-4.091738999999999
 30
0.0
 11
9.997352000000001
 21
-4.111773999999999
 31
0.0
  0
LINE
  5
2ED
330
5B7
100
AcDbEntity
  8
1
100
AcDbLine
 10
9.997352000000001
 20
-4.111773999999999
 30
0.0
 11
9.972847999999999
 21
-4.131673
 31
0.0
  0
LINE
  5
2EE
330
5B7
100
AcDbEntity
  8
1
100
AcDbLine
 10
9.972847999999999
 20
-4.131673
 30
0.0
 11
9.951924999999999
 21
-4.147655
 31
0.0
  0
LINE
  5
2EF
330
5B7
100
AcDbEntity
  8
1
100
AcDbLine
 10
9.951924999999999
 20
-4.147655
 30
0.0
 11
9.946927999999999
 21
-4.151346
 31
0.0
  0
LINE
  5
2F0
330
5B7
100
AcDbEntity
  8
1
100
AcDbLine
 10
9.946927999999999
 20
-4.151346
 30
0.0
 11
9.919529999999999
 21
-4.170776
 31
0.0
  0
LINE
  5
2F1
330
5B7
100
AcDbEntity
  8
1
100
AcDbLine
 10
9.919529999999999
 20
-4.170776
 30
0.0
 11
9.890677
 21
-4.189884999999999
 31
0.0
  0
LINE
  5
2F2
330
5B7
100
AcDbEntity
  8
1
100
AcDbLine
 10
9.890677
 20
-4.189884999999999
 30
0.0
 11
9.860547
 21
-4.208498
 31
0.0
  0
LINE
  5
2F3
330
5B7
100
AcDbEntity
  8
1
100
AcDbLine
 10
9.860547
 20
-4.208498
 30
0.0
 11
9.829124
 21
-4.226586
 31
0.0
  0
LINE
  5
2F4
330
5B7
100
AcDbEntity
  8
1
100
AcDbLine
 10
9.829124
 20
-4.226586
 30
0.0
 11
9.796412
 21
-4.244105999999999
 31
0.0
  0
LINE
  5
2F5
330
5B7
100
AcDbEntity
  8
1
100
AcDbLine
 10
9.796412
 20
-4.244105999999999
 30
0.0
 11
9.762630999999998
 21
-4.260890999999999
 31
0.0
  0
LINE
  5
2F6
330
5B7
100
AcDbEntity
  8
1
100
AcDbLine
 10
9.762630999999998
 20
-4.260890999999999
 30
0.0
 11
9.727797
 21
-4.276914999999999
 31
0.0
  0
LINE
  5
2F7
330
5B7
100
AcDbEntity
  8
1
100
AcDbLine
 10
9.727797
 20
-4.276914999999999
 30
0.0
 11
9.691907999999999
 21
-4.292159999999999
 31
0.0
  0
LINE
  5
2F8
330
5B7
100
AcDbEntity
  8
1
100
AcDbLine
 10
9.691907999999999
 20
-4.292159999999999
 30
0.0
 11
9.655169
 21
-4.306497
 31
0.0
  0
LINE
  5
2F9
330
5B7
100
AcDbEntity
  8
1
100
AcDbLine
 10
9.655169
 20
-4.306497
 30
0.0
 11
9.617569999999998
 21
-4.319923
 31
0.0
  0
LINE
  5
2FA
330
5B7
100
AcDbEntity
  8
1
100
AcDbLine
 10
9.617569999999998
 20
-4.319923
 30
0.0
 11
9.579150999999999
 21
-4.332419999999999
 31
0.0
  0
LINE
  5
2FB
330
5B7
100
AcDbEntity
  8
1
100
AcDbLine
 10
9.579150999999999
 20
-4.332419999999999
 30
0.0
 11
9.540212999999999
 21
-4.343861
 31
0.0
  0
LINE
  5
2FC
330
5B7
100
AcDbEntity
  8
1
100
AcDbLine
 10
9.540212999999999
 20
-4.343861
 30
0.0
 11
9.500810000000001
 21
-4.354244999999999
 31
0.0
  0
LINE
  5
2FD
330
5B7
100
AcDbEntity
  8
1
100
AcDbLine
 10
9.500810000000001
 20
-4.354244999999999
 30
0.0
 11
9.460941
 21
-4.363595
 31
0.0
  0
LINE
  5
2FE
330
5B7
100
AcDbEntity
  8
1
100
AcDbLine
 10
9.460941
 20
-4.363595
 30
0.0
 11
9.420836999999998
 21
-4.371845999999999
 31
0.0
  0
LINE
  5
2FF
330
5B7
100
AcDbEntity
  8
1
100
AcDbLine
 10
9.420836999999998
 20
-4.371845999999999
 30
0.0
 11
9.380582
 21
-4.37901
 31
0.0
  0
LINE
  5
300
330
5B7
100
AcDbEntity
  8
1
100
AcDbLine
 10
9.380582
 20
-4.37901
 30
0.0
 11
9.340157000000001
 21
-4.385123999999999
 31
0.0
  0
LINE
  5
301
330
5B7
100
AcDbEntity
  8
1
100
AcDbLine
 10
9.340157000000001
 20
-4.385123999999999
 30
0.0
 11
9.299647999999999
 21
-4.390176999999999
 31
0.0
  0
LINE
  5
302
330
5B7
100
AcDbEntity
  8
1
100
AcDbLine
 10
9.299647999999999
 20
-4.390176999999999
 30
0.0
 11
9.259086999999999
 21
-4.394191999999999
 31
0.0
  0
LINE
  5
303
330
5B7
100
AcDbEntity
  8
1
100
AcDbLine
 10
9.259086999999999
 20
-4.394191999999999
 30
0.0
 11
9.218505999999999
 21
-4.397199999999999
 31
0.0
  0
LINE
  5
304
330
5B7
100
AcDbEntity
  8
1
100
AcDbLine
 10
9.218505999999999
 20
-4.397199999999999
 30
0.0
 11
9.177986
 21
-4.399202999999999
 31
0.0
  0
LINE
  5
305
330
5B7
100
AcDbEntity
  8
1
100
AcDbLine
 10
9.177986
 20
-4.399202999999999
 30
0.0
 11
9.137582
 21
-4.400227
 31
0.0
  0
LINE
  5
306
330
5B7
100
AcDbEntity
  8
1
100
AcDbLine
 10
9.137582
 20
-4.400227
 30
0.0
 11
9.097300999999999
 21
-4.400307999999999
 31
0.0
  0
LINE
  5
307
330
5B7
100
AcDbEntity
  8
1
100
AcDbLine
 10
9.097300999999999
 20
-4.400307999999999
 30
0.0
 11
9.057154999999999
 21
-4.399455999999999
 31
0.0
  0
LINE
  5
308
330
5B7
100
AcDbEntity
  8
1
100
AcDbLine
 10
9.057154999999999
 20
-4.399455999999999
 30
0.0
 11
9.017185000000001
 21
-4.3977
 31
0.0
  0
LINE
  5
309
330
5B7
100
AcDbEntity
  8
1
100
AcDbLine
 10
9.017185000000001
 20
-4.3977
 30
0.0
 11
8.977408
 21
-4.395070999999999
 31
0.0
  0
LINE
  5
30A
330
5B7
100
AcDbEntity
  8
1
100
AcDbLine
 10
8.977408
 20
-4.395070999999999
 30
0.0
 11
8.937796999999999
 21
-4.391577999999999
 31
0.0
  0
LINE
  5
30B
330
5B7
100
AcDbEntity
  8
1
100
AcDbLine
 10
8.937796999999999
 20
-4.391577999999999
 30
0.0
 11
8.898367999999999
 21
-4.387243999999999
 31
0.0
  0
LINE
  5
30C
330
5B7
100
AcDbEntity
  8
1
100
AcDbLine
 10
8.898367999999999
 20
-4.387243999999999
 30
0.0
 11
8.859159
 21
-4.382099
 31
0.0
  0
LINE
  5
30D
330
5B7
100
AcDbEntity
  8
1
100
AcDbLine
 10
8.859159
 20
-4.382099
 30
0.0
 11
8.820171999999999
 21
-4.376148999999999
 31
0.0
  0
LINE
  5
30E
330
5B7
100
AcDbEntity
  8
1
100
AcDbLine
 10
8.820171999999999
 20
-4.376148999999999
 30
0.0
 11
8.781455000000001
 21
-4.369425999999999
 31
0.0
  0
LINE
  5
30F
330
5B7
100
AcDbEntity
  8
1
100
AcDbLine
 10
8.781455000000001
 20
-4.369425999999999
 30
0.0
 11
8.743013000000001
 21
-4.361951999999999
 31
0.0
  0
LINE
  5
310
330
5B7
100
AcDbEntity
  8
1
100
AcDbLine
 10
8.743013000000001
 20
-4.361951999999999
 30
0.0
 11
8.704779999999999
 21
-4.353715
 31
0.0
  0
LINE
  5
311
330
5B7
100
AcDbEntity
  8
1
100
AcDbLine
 10
8.704779999999999
 20
-4.353715
 30
0.0
 11
8.666772999999999
 21
-4.344737
 31
0.0
  0
LINE
  5
312
330
5B7
100
AcDbEntity
  8
1
100
AcDbLine
 10
8.666772999999999
 20
-4.344737
 30
0.0
 11
8.629028999999999
 21
-4.335042999999999
 31
0.0
  0
LINE
  5
313
330
5B7
100
AcDbEntity
  8
1
100
AcDbLine
 10
8.629028999999999
 20
-4.335042999999999
 30
0.0
 11
8.591505999999998
 21
-4.324608999999999
 31
0.0
  0
LINE
  5
314
330
5B7
100
AcDbEntity
  8
1
100
AcDbLine
 10
8.591505999999998
 20
-4.324608999999999
 30
0.0
 11
8.554228999999999
 21
-4.313461
 31
0.0
  0
LINE
  5
315
330
5B7
100
AcDbEntity
  8
1
100
AcDbLine
 10
8.554228999999999
 20
-4.313461
 30
0.0
 11
8.517230999999998
 21
-4.301619999999999
 31
0.0
  0
LINE
  5
316
330
5B7
100
AcDbEntity
  8
1
100
AcDbLine
 10
8.517230999999998
 20
-4.301619999999999
 30
0.0
 11
8.480486
 21
-4.289051
 31
0.0
  0
LINE
  5
317
330
5B7
100
AcDbEntity
  8
1
100
AcDbLine
 10
8.480486
 20
-4.289051
 30
0.0
 11
8.443982999999999
 21
-4.275763999999999
 31
0.0
  0
LINE
  5
318
330
5B7
100
AcDbEntity
  8
1
100
AcDbLine
 10
8.443982999999999
 20
-4.275763999999999
 30
0.0
 11
8.407799
 21
-4.261798999999999
 31
0.0
  0
LINE
  5
319
330
5B7
100
AcDbEntity
  8
1
100
AcDbLine
 10
8.407799
 20
-4.261798999999999
 30
0.0
 11
8.372042999999999
 21
-4.24716
 31
0.0
  0
LINE
  5
31A
330
5B7
100
AcDbEntity
  8
1
100
AcDbLine
 10
8.372042999999999
 20
-4.24716
 30
0.0
 11
8.33675
 21
-4.231878
 31
0.0
  0
LINE
  5
31B
330
5B7
100
AcDbEntity
  8
1
100
AcDbLine
 10
8.33675
 20
-4.231878
 30
0.0
 11
8.301951999999999
 21
-4.215983
 31
0.0
  0
LINE
  5
31C
330
5B7
100
AcDbEntity
  8
1
100
AcDbLine
 10
8.301951999999999
 20
-4.215983
 30
0.0
 11
8.267763999999999
 21
-4.199487
 31
0.0
  0
LINE
  5
31D
330
5B7
100
AcDbEntity
  8
1
100
AcDbLine
 10
8.267763999999999
 20
-4.199487
 30
0.0
 11
8.234156
 21
-4.182386
 31
0.0
  0
LINE
  5
31E
330
5B7
100
AcDbEntity
  8
1
100
AcDbLine
 10
8.234156
 20
-4.182386
 30
0.0
 11
8.201227000000001
 21
-4.164754
 31
0.0
  0
LINE
  5
31F
330
5B7
100
AcDbEntity
  8
1
100
AcDbLine
 10
8.201227000000001
 20
-4.164754
 30
0.0
 11
8.169267999999998
 21
-4.146716999999999
 31
0.0
  0
LINE
  5
320
330
5B7
100
AcDbEntity
  8
1
100
AcDbLine
 10
8.169267999999998
 20
-4.146716999999999
 30
0.0
 11
8.138335000000001
 21
-4.128322999999999
 31
0.0
  0
LINE
  5
321
330
5B7
100
AcDbEntity
  8
1
100
AcDbLine
 10
8.138335000000001
 20
-4.128322999999999
 30
0.0
 11
8.108417999999998
 21
-4.109604
 31
0.0
  0
LINE
  5
322
330
5B7
100
AcDbEntity
  8
1
100
AcDbLine
 10
8.108417999999998
 20
-4.109604
 30
0.0
 11
8.079682
 21
-4.090659999999999
 31
0.0
  0
LINE
  5
323
330
5B7
100
AcDbEntity
  8
1
100
AcDbLine
 10
8.079682
 20
-4.090659999999999
 30
0.0
 11
8.052164999999998
 21
-4.071537999999999
 31
0.0
  0
LINE
  5
324
330
5B7
100
AcDbEntity
  8
1
100
AcDbLine
 10
8.052164999999998
 20
-4.071537999999999
 30
0.0
 11
8.025852999999999
 21
-4.052267999999999
 31
0.0
  0
LINE
  5
325
330
5B7
100
AcDbEntity
  8
1
100
AcDbLine
 10
8.025852999999999
 20
-4.052267999999999
 30
0.0
 11
8.000823
 21
-4.032919999999999
 31
0.0
  0
LINE
  5
326
330
5B7
100
AcDbEntity
  8
1
100
AcDbLine
 10
8.000823
 20
-4.032919999999999
 30
0.0
 11
7.977103999999999
 21
-4.013544
 31
0.0
  0
LINE
  5
327
330
5B7
100
AcDbEntity
  8
1
100
AcDbLine
 10
7.977103999999999
 20
-4.013544
 30
0.0
 11
7.954672
 21
-3.994153999999999
 31
0.0
  0
LINE
  5
328
330
5B7
100
AcDbEntity
  8
1
100
AcDbLine
 10
7.954672
 20
-3.994153999999999
 30
0.0
 11
7.933514999999998
 21
-3.974764
 31
0.0
  0
LINE
  5
329
330
5B7
100
AcDbEntity
  8
1
100
AcDbLine
 10
7.933514999999998
 20
-3.974764
 30
0.0
 11
7.913624
 21
-3.955388999999999
 31
0.0
  0
LINE
  5
32A
330
5B7
100
AcDbEntity
  8
1
100
AcDbLine
 10
7.913624
 20
-3.955388999999999
 30
0.0
 11
7.895008999999999
 21
-3.936068
 31
0.0
  0
LINE
  5
32B
330
5B7
100
AcDbEntity
  8
1
100
AcDbLine
 10
7.895008999999999
 20
-3.936068
 30
0.0
 11
7.877683
 21
-3.916844
 31
0.0
  0
LINE
  5
32C
330
5B7
100
AcDbEntity
  8
1
100
AcDbLine
 10
7.877683
 20
-3.916844
 30
0.0
 11
7.86166
 21
-3.897762999999999
 31
0.0
  0
LINE
  5
32D
330
5B7
100
AcDbEntity
  8
1
100
AcDbLine
 10
7.86166
 20
-3.897762999999999
 30
0.0
 11
7.846911999999999
 21
-3.878819
 31
0.0
  0
LINE
  5
32E
330
5B7
100
AcDbEntity
  8
1
100
AcDbLine
 10
7.846911999999999
 20
-3.878819
 30
0.0
 11
7.833386999999999
 21
-3.859979
 31
0.0
  0
LINE
  5
32F
330
5B7
100
AcDbEntity
  8
1
100
AcDbLine
 10
7.833386999999999
 20
-3.859979
 30
0.0
 11
7.821082999999999
 21
-3.841272
 31
0.0
  0
LINE
  5
330
330
5B7
100
AcDbEntity
  8
1
100
AcDbLine
 10
7.821082999999999
 20
-3.841272
 30
0.0
 11
7.809994999999999
 21
-3.822705
 31
0.0
  0
LINE
  5
331
330
5B7
100
AcDbEntity
  8
1
100
AcDbLine
 10
7.809994999999999
 20
-3.822705
 30
0.0
 11
7.800084
 21
-3.804215
 31
0.0
  0
LINE
  5
332
330
5B7
100
AcDbEntity
  8
1
100
AcDbLine
 10
7.800084
 20
-3.804215
 30
0.0
 11
7.791338
 21
-3.785801
 31
0.0
  0
LINE
  5
333
330
5B7
100
AcDbEntity
  8
1
100
AcDbLine
 10
7.791338
 20
-3.785801
 30
0.0
 11
7.783772999999999
 21
-3.767505
 31
0.0
  0
LINE
  5
334
330
5B7
100
AcDbEntity
  8
1
100
AcDbLine
 10
7.783772999999999
 20
-3.767505
 30
0.0
 11
7.777402999999999
 21
-3.74933
 31
0.0
  0
LINE
  5
335
330
5B7
100
AcDbEntity
  8
1
100
AcDbLine
 10
7.777402999999999
 20
-3.74933
 30
0.0
 11
7.772228
 21
-3.731289999999999
 31
0.0
  0
LINE
  5
336
330
5B7
100
AcDbEntity
  8
1
100
AcDbLine
 10
7.772228
 20
-3.731289999999999
 30
0.0
 11
7.768246
 21
-3.713405999999999
 31
0.0
  0
LINE
  5
337
330
5B7
100
AcDbEntity
  8
1
100
AcDbLine
 10
7.768246
 20
-3.713405999999999
 30
0.0
 11
7.765467999999999
 21
-3.695697
 31
0.0
  0
LINE
  5
338
330
5B7
100
AcDbEntity
  8
1
100
AcDbLine
 10
7.765467999999999
 20
-3.695697
 30
0.0
 11
7.763892999999999
 21
-3.678176999999999
 31
0.0
  0
LINE
  5
339
330
5B7
100
AcDbEntity
  8
1
100
AcDbLine
 10
7.763892999999999
 20
-3.678176999999999
 30
0.0
 11
7.763513999999999
 21
-3.66086
 31
0.0
  0
LINE
  5
33A
330
5B7
100
AcDbEntity
  8
1
100
AcDbLine
 10
7.763513999999999
 20
-3.66086
 30
0.0
 11
7.764327
 21
-3.643758
 31
0.0
  0
LINE
  5
33B
330
5B7
100
AcDbEntity
  8
1
100
AcDbLine
 10
7.764327
 20
-3.643758
 30
0.0
 11
7.766275999999999
 21
-3.6272
 31
0.0
  0
LINE
  5
33C
330
5B7
100
AcDbEntity
  8
1
100
AcDbLine
 10
7.766275999999999
 20
-3.6272
 30
0.0
 11
7.769389999999999
 21
-3.610803999999999
 31
0.0
  0
LINE
  5
33D
330
5B7
100
AcDbEntity
  8
1
100
AcDbLine
 10
7.769389999999999
 20
-3.610803999999999
 30
0.0
 11
7.773666999999999
 21
-3.594587999999999
 31
0.0
  0
LINE
  5
33E
330
5B7
100
AcDbEntity
  8
1
100
AcDbLine
 10
7.773666999999999
 20
-3.594587999999999
 30
0.0
 11
7.779100999999999
 21
-3.578577999999999
 31
0.0
  0
LINE
  5
33F
330
5B7
100
AcDbEntity
  8
1
100
AcDbLine
 10
7.779100999999999
 20
-3.578577999999999
 30
0.0
 11
7.785696999999999
 21
-3.562776
 31
0.0
  0
LINE
  5
340
330
5B7
100
AcDbEntity
  8
1
100
AcDbLine
 10
7.785696999999999
 20
-3.562776
 30
0.0
 11
7.79348
 21
-3.547166
 31
0.0
  0
LINE
  5
341
330
5B7
100
AcDbEntity
  8
1
100
AcDbLine
 10
7.79348
 20
-3.547166
 30
0.0
 11
7.802438
 21
-3.531778
 31
0.0
  0
LINE
  5
342
330
5B7
100
AcDbEntity
  8
1
100
AcDbLine
 10
7.802438
 20
-3.531778
 30
0.0
 11
7.812582
 21
-3.516612999999999
 31
0.0
  0
LINE
  5
343
330
5B7
100
AcDbEntity
  8
1
100
AcDbLine
 10
7.812582
 20
-3.516612999999999
 30
0.0
 11
7.823982
 21
-3.501609999999999
 31
0.0
  0
LINE
  5
344
330
5B7
100
AcDbEntity
  8
1
100
AcDbLine
 10
7.823982
 20
-3.501609999999999
 30
0.0
 11
7.836653
 21
-3.486777999999999
 31
0.0
  0
LINE
  5
345
330
5B7
100
AcDbEntity
  8
1
100
AcDbLine
 10
7.836653
 20
-3.486777999999999
 30
0.0
 11
7.850591
 21
-3.472158
 31
0.0
  0
LINE
  5
346
330
5B7
100
AcDbEntity
  8
1
100
AcDbLine
 10
7.850591
 20
-3.472158
 30
0.0
 11
7.865839999999999
 21
-3.457739
 31
0.0
  0
LINE
  5
347
330
5B7
100
AcDbEntity
  8
1
100
AcDbLine
 10
7.865839999999999
 20
-3.457739
 30
0.0
 11
7.882386
 21
-3.443560999999999
 31
0.0
  0
LINE
  5
348
330
5B7
100
AcDbEntity
  8
1
100
AcDbLine
 10
7.882386
 20
-3.443560999999999
 30
0.0
 11
7.900597999999999
 21
-3.429372
 31
0.0
  0
LINE
  5
349
330
5B7
100
AcDbEntity
  8
1
100
AcDbLine
 10
7.900597999999999
 20
-3.429372
 30
0.0
 11
7.919535
 21
-3.415901
 31
0.0
  0
LINE
  5
34A
330
5B7
100
AcDbEntity
  8
1
100
AcDbLine
 10
7.919535
 20
-3.415901
 30
0.0
 11
7.940261999999999
 21
-3.402394999999999
 31
0.0
  0
LINE
  5
34B
330
5B7
100
AcDbEntity
  8
1
100
AcDbLine
 10
7.940261999999999
 20
-3.402394999999999
 30
0.0
 11
7.962425999999999
 21
-3.389151
 31
0.0
  0
LINE
  5
34C
330
5B7
100
AcDbEntity
  8
1
100
AcDbLine
 10
7.962425999999999
 20
-3.389151
 30
0.0
 11
7.9861
 21
-3.376155
 31
0.0
  0
LINE
  5
34D
330
5B7
100
AcDbEntity
  8
1
100
AcDbLine
 10
7.9861
 20
-3.376155
 30
0.0
 11
8.011282000000001
 21
-3.363444999999999
 31
0.0
  0
LINE
  5
34E
330
5B7
100
AcDbEntity
  8
1
100
AcDbLine
 10
8.011282000000001
 20
-3.363444999999999
 30
0.0
 11
8.037983999999999
 21
-3.351048999999999
 31
0.0
  0
LINE
  5
34F
330
5B7
100
AcDbEntity
  8
1
100
AcDbLine
 10
8.037983999999999
 20
-3.351048999999999
 30
0.0
 11
8.066305999999999
 21
-3.338945999999999
 31
0.0
  0
LINE
  5
350
330
5B7
100
AcDbEntity
  8
1
100
AcDbLine
 10
8.066305999999999
 20
-3.338945999999999
 30
0.0
 11
8.096264999999998
 21
-3.327167999999999
 31
0.0
  0
LINE
  5
351
330
5B7
100
AcDbEntity
  8
1
100
AcDbLine
 10
8.096264999999998
 20
-3.327167999999999
 30
0.0
 11
8.127852
 21
-3.315757
 31
0.0
  0
LINE
  5
352
330
5B7
100
AcDbEntity
  8
1
100
AcDbLine
 10
8.127852
 20
-3.315757
 30
0.0
 11
8.161138000000001
 21
-3.304712999999999
 31
0.0
  0
LINE
  5
353
330
5B7
100
AcDbEntity
  8
1
100
AcDbLine
 10
8.161138000000001
 20
-3.304712999999999
 30
0.0
 11
8.196123
 21
-3.294072
 31
0.0
  0
LINE
  5
354
330
5B7
100
AcDbEntity
  8
1
100
AcDbLine
 10
8.196123
 20
-3.294072
 30
0.0
 11
8.232805
 21
-3.283873
 31
0.0
  0
LINE
  5
355
330
5B7
100
AcDbEntity
  8
1
100
AcDbLine
 10
8.232805
 20
-3.283873
 30
0.0
 11
8.271243999999999
 21
-3.274125999999999
 31
0.0
  0
LINE
  5
356
330
5B7
100
AcDbEntity
  8
1
100
AcDbLine
 10
8.271243999999999
 20
-3.274125999999999
 30
0.0
 11
8.311458999999999
 21
-3.264858999999999
 31
0.0
  0
LINE
  5
357
330
5B7
100
AcDbEntity
  8
1
100
AcDbLine
 10
8.311458999999999
 20
-3.264858999999999
 30
0.0
 11
8.353419
 21
-3.256117999999999
 31
0.0
  0
LINE
  5
358
330
5B7
100
AcDbEntity
  8
1
100
AcDbLine
 10
8.353419
 20
-3.256117999999999
 30
0.0
 11
8.397105999999999
 21
-3.247943
 31
0.0
  0
LINE
  5
359
330
5B7
100
AcDbEntity
  8
1
100
AcDbLine
 10
8.397105999999999
 20
-3.247943
 30
0.0
 11
8.442529999999999
 21
-3.240353999999999
 31
0.0
  0
LINE
  5
35A
330
5B7
100
AcDbEntity
  8
1
100
AcDbLine
 10
8.442529999999999
 20
-3.240353999999999
 30
0.0
 11
8.489651
 21
-3.233391
 31
0.0
  0
LINE
  5
35B
330
5B7
100
AcDbEntity
  8
1
100
AcDbLine
 10
8.489651
 20
-3.233391
 30
0.0
 11
8.538377
 21
-3.227117999999999
 31
0.0
  0
LINE
  5
35C
330
5B7
100
AcDbEntity
  8
1
100
AcDbLine
 10
8.538377
 20
-3.227117999999999
 30
0.0
 11
8.588751
 21
-3.221537
 31
0.0
  0
LINE
  5
35D
330
5B7
100
AcDbEntity
  8
1
100
AcDbLine
 10
8.588751
 20
-3.221537
 30
0.0
 11
8.640678999999998
 21
-3.216686
 31
0.0
  0
LINE
  5
35E
330
5B7
100
AcDbEntity
  8
1
100
AcDbLine
 10
8.640678999999998
 20
-3.216686
 30
0.0
 11
8.693855
 21
-3.212666999999999
 31
0.0
  0
LINE
  5
35F
330
5B7
100
AcDbEntity
  8
1
100
AcDbLine
 10
8.693855
 20
-3.212666999999999
 30
0.0
 11
8.748274999999999
 21
-3.209461
 31
0.0
  0
LINE
  5
360
330
5B7
100
AcDbEntity
  8
1
100
AcDbLine
 10
8.748274999999999
 20
-3.209461
 30
0.0
 11
8.803864
 21
-3.207079
 31
0.0
  0
LINE
  5
361
330
5B7
100
AcDbEntity
  8
1
100
AcDbLine
 10
8.803864
 20
-3.207079
 30
0.0
 11
8.8602
 21
-3.205636999999999
 31
0.0
  0
LINE
  5
362
330
5B7
100
AcDbEntity
  8
1
100
AcDbLine
 10
8.8602
 20
-3.205636999999999
 30
0.0
 11
8.917324999999999
 21
-3.205095
 31
0.0
  0
LINE
  5
363
330
5B7
100
AcDbEntity
  8
1
100
AcDbLine
 10
8.917324999999999
 20
-3.205095
 30
0.0
 11
8.975099
 21
-3.205440999999999
 31
0.0
  0
LINE
  5
364
330
5B7
100
AcDbEntity
  8
1
100
AcDbLine
 10
8.975099
 20
-3.205440999999999
 30
0.0
 11
9.032813
 21
-3.206783
 31
0.0
  0
LINE
  5
365
330
5B7
100
AcDbEntity
  8
1
100
AcDbLine
 10
9.032813
 20
-3.206783
 30
0.0
 11
9.090419999999999
 21
-3.209061
 31
0.0
  0
LINE
  5
366
330
5B7
100
AcDbEntity
  8
1
100
AcDbLine
 10
9.090419999999999
 20
-3.209061
 30
0.0
 11
9.147863
 21
-3.212216999999999
 31
0.0
  0
LINE
  5
367
330
5B7
100
AcDbEntity
  8
1
100
AcDbLine
 10
9.147863
 20
-3.212216999999999
 30
0.0
 11
9.204418999999999
 21
-3.216320999999999
 31
0.0
  0
LINE
  5
368
330
5B7
100
AcDbEntity
  8
1
100
AcDbLine
 10
9.204418999999999
 20
-3.216320999999999
 30
0.0
 11
9.259919999999999
 21
-3.221292
 31
0.0
  0
LINE
  5
369
330
5B7
100
AcDbEntity
  8
1
100
AcDbLine
 10
9.259919999999999
 20
-3.221292
 30
0.0
 11
9.314446999999999
 21
-3.227052999999999
 31
0.0
  0
LINE
  5
36A
330
5B7
100
AcDbEntity
  8
1
100
AcDbLine
 10
9.314446999999999
 20
-3.227052999999999
 30
0.0
 11
9.367655
 21
-3.233656
 31
0.0
  0
LINE
  5
36B
330
5B7
100
AcDbEntity
  8
1
100
AcDbLine
 10
9.367655
 20
-3.233656
 30
0.0
 11
9.419458999999999
 21
-3.241032
 31
0.0
  0
LINE
  5
36C
330
5B7
100
AcDbEntity
  8
1
100
AcDbLine
 10
9.419458999999999
 20
-3.241032
 30
0.0
 11
9.469880999999999
 21
-3.249102999999999
 31
0.0
  0
LINE
  5
36D
330
5B7
100
AcDbEntity
  8
1
100
AcDbLine
 10
9.469880999999999
 20
-3.249102999999999
 30
0.0
 11
9.518746999999999
 21
-3.257909999999999
 31
0.0
  0
LINE
  5
36E
330
5B7
100
AcDbEntity
  8
1
100
AcDbLine
 10
9.518746999999999
 20
-3.257909999999999
 30
0.0
 11
9.566031
 21
-3.267402999999999
 31
0.0
  0
LINE
  5
36F
330
5B7
100
AcDbEntity
  8
1
100
AcDbLine
 10
9.566031
 20
-3.267402999999999
 30
0.0
 11
9.611715999999999
 21
-3.277505999999999
 31
0.0
  0
LINE
  5
370
330
5B7
100
AcDbEntity
  8
1
100
AcDbLine
 10
9.611715999999999
 20
-3.277505999999999
 30
0.0
 11
9.655650999999998
 21
-3.288226999999999
 31
0.0
  0
LINE
  5
371
330
5B7
100
AcDbEntity
  8
1
100
AcDbLine
 10
9.655650999999998
 20
-3.288226999999999
 30
0.0
 11
9.697801
 21
-3.299522
 31
0.0
  0
LINE
  5
372
330
5B7
100
AcDbEntity
  8
1
100
AcDbLine
 10
9.697801
 20
-3.299522
 30
0.0
 11
9.738178999999998
 21
-3.311328
 31
0.0
  0
LINE
  5
373
330
5B7
100
AcDbEntity
  8
1
100
AcDbLine
 10
9.738178999999998
 20
-3.311328
 30
0.0
 11
9.776707
 21
-3.323626999999999
 31
0.0
  0
LINE
  5
374
330
5B7
100
AcDbEntity
  8
1
100
AcDbLine
 10
9.776707
 20
-3.323626999999999
 30
0.0
 11
9.813385
 21
-3.336395999999999
 31
0.0
  0
LINE
  5
375
330
5B7
100
AcDbEntity
  8
1
100
AcDbLine
 10
9.813385
 20
-3.336395999999999
 30
0.0
 11
9.848211
 21
-3.349573999999999
 31
0.0
  0
LINE
  5
376
330
5B7
100
AcDbEntity
  8
1
100
AcDbLine
 10
9.848211
 20
-3.349573999999999
 30
0.0
 11
9.881111
 21
-3.363083
 31
0.0
  0
LINE
  5
377
330
5B7
100
AcDbEntity
  8
1
100
AcDbLine
 10
9.881111
 20
-3.363083
 30
0.0
 11
9.912072999999999
 21
-3.376908999999999
 31
0.0
  0
LINE
  5
378
330
5B7
100
AcDbEntity
  8
1
100
AcDbLine
 10
9.912072999999999
 20
-3.376908999999999
 30
0.0
 11
9.941131
 21
-3.391004
 31
0.0
  0
LINE
  5
379
330
5B7
100
AcDbEntity
  8
1
100
AcDbLine
 10
9.941131
 20
-3.391004
 30
0.0
 11
9.968278999999999
 21
-3.405245999999999
 31
0.0
  0
LINE
  5
37A
330
5B7
100
AcDbEntity
  8
1
100
AcDbLine
 10
9.968278999999999
 20
-3.405245999999999
 30
0.0
 11
9.993489
 21
-3.419607
 31
0.0
  0
LINE
  5
37B
330
5B7
100
AcDbEntity
  8
1
100
AcDbLine
 10
9.993489
 20
-3.419607
 30
0.0
 11
10.016834
 21
-3.434076
 31
0.0
  0
LINE
  5
37C
330
5B7
100
AcDbEntity
  8
1
100
AcDbLine
 10
10.016834
 20
-3.434076
 30
0.0
 11
10.038472
 21
-3.448573999999999
 31
0.0
  0
LINE
  5
37D
330
5B7
100
AcDbEntity
  8
1
100
AcDbLine
 10
10.038472
 20
-3.448573999999999
 30
0.0
 11
10.058403
 21
-3.463069999999999
 31
0.0
  0
LINE
  5
37E
330
5B7
100
AcDbEntity
  8
1
100
AcDbLine
 10
10.058403
 20
-3.463069999999999
 30
0.0
 11
10.076676
 21
-3.477574999999999
 31
0.0
  0
LINE
  5
37F
330
5B7
100
AcDbEntity
  8
1
100
AcDbLine
 10
10.076676
 20
-3.477574999999999
 30
0.0
 11
10.093524
 21
-3.492072
 31
0.0
  0
LINE
  5
380
330
5B7
100
AcDbEntity
  8
1
100
AcDbLine
 10
10.093524
 20
-3.492072
 30
0.0
 11
10.108979
 21
-3.506558
 31
0.0
  0
LINE
  5
381
330
5B7
100
AcDbEntity
  8
1
100
AcDbLine
 10
10.108979
 20
-3.506558
 30
0.0
 11
10.123048
 21
-3.521027999999999
 31
0.0
  0
LINE
  5
382
330
5B7
100
AcDbEntity
  8
1
100
AcDbLine
 10
10.123048
 20
-3.521027999999999
 30
0.0
 11
10.135909
 21
-3.535464
 31
0.0
  0
LINE
  5
383
330
5B7
100
AcDbEntity
  8
1
100
AcDbLine
 10
10.135909
 20
-3.535464
 30
0.0
 11
10.147574
 21
-3.549837999999999
 31
0.0
  0
LINE
  5
384
330
5B7
100
AcDbEntity
  8
1
100
AcDbLine
 10
10.147574
 20
-3.549837999999999
 30
0.0
 11
10.158065
 21
-3.564175
 31
0.0
  0
LINE
  5
385
330
5B7
100
AcDbEntity
  8
1
100
AcDbLine
 10
10.158065
 20
-3.564175
 30
0.0
 11
10.167561
 21
-3.578537
 31
0.0
  0
LINE
  5
386
330
5B7
100
AcDbEntity
  8
1
100
AcDbLine
 10
10.167561
 20
-3.578537
 30
0.0
 11
10.176092
 21
-3.592924
 31
0.0
  0
LINE
  5
387
330
5B7
100
AcDbEntity
  8
1
100
AcDbLine
 10
10.176092
 20
-3.592924
 30
0.0
 11
10.183647
 21
-3.607330999999999
 31
0.0
  0
LINE
  5
388
330
5B7
100
AcDbEntity
  8
1
100
AcDbLine
 10
10.183647
 20
-3.607330999999999
 30
0.0
 11
10.190326
 21
-3.621805999999999
 31
0.0
  0
LINE
  5
389
330
5B7
100
AcDbEntity
  8
1
100
AcDbLine
 10
10.190326
 20
-3.621805999999999
 30
0.0
 11
10.196147
 21
-3.636348
 31
0.0
  0
LINE
  5
38A
330
5B7
100
AcDbEntity
  8
1
100
AcDbLine
 10
10.196147
 20
-3.636348
 30
0.0
 11
10.201103
 21
-3.650949999999999
 31
0.0
  0
LINE
  5
38B
330
5B7
100
AcDbEntity
  8
1
100
AcDbLine
 10
10.201103
 20
-3.650949999999999
 30
0.0
 11
10.205247
 21
-3.665651999999999
 31
0.0
  0
LINE
  5
38C
330
5B7
100
AcDbEntity
  8
1
100
AcDbLine
 10
10.205247
 20
-3.665651999999999
 30
0.0
 11
10.208589
 21
-3.680422
 31
0.0
  0
LINE
  5
38D
330
5B7
100
AcDbEntity
  8
1
100
AcDbLine
 10
10.208589
 20
-3.680422
 30
0.0
 11
10.211122
 21
-3.695282
 31
0.0
  0
LINE
  5
38E
330
5B7
100
AcDbEntity
  8
1
100
AcDbLine
 10
10.211122
 20
-3.695282
 30
0.0
 11
10.212875
 21
-3.710341
 31
0.0
  0
LINE
  5
38F
330
5B7
100
AcDbEntity
  8
1
100
AcDbLine
 10
10.212875
 20
-3.710341
 30
0.0
 11
10.213854
 21
-3.725589999999999
 31
0.0
  0
LINE
  5
390
330
5B7
100
AcDbEntity
  8
1
100
AcDbLine
 10
10.213854
 20
-3.725589999999999
 30
0.0
 11
10.214039
 21
-3.741017999999999
 31
0.0
  0
LINE
  5
391
330
5B7
100
AcDbEntity
  8
1
100
AcDbLine
 10
10.214039
 20
-3.741017999999999
 30
0.0
 11
10.213406
 21
-3.756716
 31
0.0
  0
LINE
  5
392
330
5B7
100
AcDbEntity
  8
1
100
AcDbLine
 10
10.213406
 20
-3.756716
 30
0.0
 11
10.211951
 21
-3.772669999999999
 31
0.0
  0
LINE
  5
393
330
5B7
100
AcDbEntity
  8
1
100
AcDbLine
 10
10.211951
 20
-3.772669999999999
 30
0.0
 11
10.209654
 21
-3.788862
 31
0.0
  0
LINE
  5
394
330
5B7
100
AcDbEntity
  8
1
100
AcDbLine
 10
10.209654
 20
-3.788862
 30
0.0
 11
10.20646
 21
-3.805372
 31
0.0
  0
LINE
  5
395
330
5B7
100
AcDbEntity
  8
1
100
AcDbLine
 10
10.20646
 20
-3.805372
 30
0.0
 11
10.202336
 21
-3.822208999999999
 31
0.0
  0
LINE
  5
396
330
5B7
100
AcDbEntity
  8
1
100
AcDbLine
 10
10.202336
 20
-3.822208999999999
 30
0.0
 11
10.197279
 21
-3.839319
 31
0.0
  0
LINE
  5
397
330
5B7
100
AcDbEntity
  8
1
100
AcDbLine
 10
10.197279
 20
-3.839319
 30
0.0
 11
10.191274
 21
-3.856678
 31
0.0
  0
LINE
  5
398
330
5B7
100
AcDbEntity
  8
1
100
AcDbLine
 10
10.508038
 20
-1.500256
 30
0.0
 11
10.209539
 21
-1.597540999999999
 31
0.0
  0
LINE
  5
399
330
5B7
100
AcDbEntity
  8
1
100
AcDbLine
 10
10.209539
 20
-1.597540999999999
 30
0.0
 11
9.911858
 21
-1.69542
 31
0.0
  0
LINE
  5
39A
330
5B7
100
AcDbEntity
  8
1
100
AcDbLine
 10
9.911858
 20
-1.69542
 30
0.0
 11
9.615809
 21
-1.793624
 31
0.0
  0
LINE
  5
39B
330
5B7
100
AcDbEntity
  8
1
100
AcDbLine
 10
9.615809
 20
-1.793624
 30
0.0
 11
9.322202
 21
-1.891884
 31
0.0
  0
LINE
  5
39C
330
5B7
100
AcDbEntity
  8
1
100
AcDbLine
 10
9.322202
 20
-1.891884
 30
0.0
 11
9.031842999999998
 21
-1.989931999999999
 31
0.0
  0
LINE
  5
39D
330
5B7
100
AcDbEntity
  8
1
100
AcDbLine
 10
9.031842999999998
 20
-1.989931999999999
 30
0.0
 11
8.745527
 21
-2.087499999999999
 31
0.0
  0
LINE
  5
39E
330
5B7
100
AcDbEntity
  8
1
100
AcDbLine
 10
8.745527
 20
-2.087499999999999
 30
0.0
 11
8.464036
 21
-2.184318999999999
 31
0.0
  0
LINE
  5
39F
330
5B7
100
AcDbEntity
  8
1
100
AcDbLine
 10
8.464036
 20
-2.184318999999999
 30
0.0
 11
8.188141999999999
 21
-2.280124
 31
0.0
  0
LINE
  5
3A0
330
5B7
100
AcDbEntity
  8
1
100
AcDbLine
 10
8.188141999999999
 20
-2.280124
 30
0.0
 11
7.918600999999999
 21
-2.374654
 31
0.0
  0
LINE
  5
3A1
330
5B7
100
AcDbEntity
  8
1
100
AcDbLine
 10
7.918600999999999
 20
-2.374654
 30
0.0
 11
7.65615
 21
-2.467649999999999
 31
0.0
  0
LINE
  5
3A2
330
5B7
100
AcDbEntity
  8
1
100
AcDbLine
 10
7.65615
 20
-2.467649999999999
 30
0.0
 11
7.401507999999999
 21
-2.558857
 31
0.0
  0
LINE
  5
3A3
330
5B7
100
AcDbEntity
  8
1
100
AcDbLine
 10
7.401507999999999
 20
-2.558857
 30
0.0
 11
7.155371999999999
 21
-2.648024
 31
0.0
  0
LINE
  5
3A4
330
5B7
100
AcDbEntity
  8
1
100
AcDbLine
 10
7.155371999999999
 20
-2.648024
 30
0.0
 11
6.918416999999999
 21
-2.734909
 31
0.0
  0
LINE
  5
3A5
330
5B7
100
AcDbEntity
  8
1
100
AcDbLine
 10
6.918416999999999
 20
-2.734909
 30
0.0
 11
6.691291
 21
-2.819272999999999
 31
0.0
  0
LINE
  5
3A6
330
5B7
100
AcDbEntity
  8
1
100
AcDbLine
 10
9.774592
 20
0.9267149999999999
 30
0.0
 11
9.391548
 21
2.117863999999999
 31
0.0
  0
LINE
  5
3A7
330
5B7
100
AcDbEntity
  8
1
100
AcDbLine
 10
9.391548
 20
2.117863999999999
 30
0.0
 11
9.391548
 21
2.122268
 31
0.0
  0
LINE
  5
3A8
330
5B7
100
AcDbEntity
  8
1
100
AcDbLine
 10
10.492165
 20
2.483368999999999
 30
0.0
 11
9.390244
 21
2.121840999999999
 31
0.0
  0
LINE
  5
3A9
330
5B7
100
AcDbEntity
  8
1
100
AcDbLine
 10
10.508038
 20
6.105949999999999
 30
0.0
 11
10.358738
 21
6.071273999999999
 31
0.0
  0
LINE
  5
3AA
330
5B7
100
AcDbEntity
  8
1
100
AcDbLine
 10
10.358738
 20
6.071273999999999
 30
0.0
 11
10.209539
 21
6.039369999999999
 31
0.0
  0
LINE
  5
3AB
330
5B7
100
AcDbEntity
  8
1
100
AcDbLine
 10
10.209539
 20
6.039369999999999
 30
0.0
 11
10.060545
 21
6.010260999999999
 31
0.0
  0
LINE
  5
3AC
330
5B7
100
AcDbEntity
  8
1
100
AcDbLine
 10
10.060545
 20
6.010260999999999
 30
0.0
 11
9.911858
 21
5.983966
 31
0.0
  0
LINE
  5
3AD
330
5B7
100
AcDbEntity
  8
1
100
AcDbLine
 10
9.911858
 20
5.983966
 30
0.0
 11
9.848939999999998
 21
5.974010999999999
 31
0.0
  0
LINE
  5
3AE
330
5B7
100
AcDbEntity
  8
1
100
AcDbLine
 10
0.0
 20
14.6
 30
0.0
 11
4.113271
 21
14.6
 31
0.0
  0
LINE
  5
3AF
330
5B7
100
AcDbEntity
  8
1
100
AcDbLine
 10
9.402349
 20
11.716595
 30
0.0
 11
8.599069
 21
11.556394
 31
0.0
  0
LINE
  5
3B0
330
5B7
100
AcDbEntity
  8
1
100
AcDbLine
 10
8.599069
 20
11.556394
 30
0.0
 11
7.643467
 21
11.361221
 31
0.0
  0
LINE
  5
3B1
330
5B7
100
AcDbEntity
  8
1
100
AcDbLine
 10
7.643467
 20
11.361221
 30
0.0
 11
6.683803
 21
11.160588
 31
0.0
  0
LINE
  5
3B2
330
5B7
100
AcDbEntity
  8
1
100
AcDbLine
 10
6.683803
 20
11.160588
 30
0.0
 11
5.720728
 21
10.954605
 31
0.0
  0
LINE
  5
3B3
330
5B7
100
AcDbEntity
  8
1
100
AcDbLine
 10
5.720728
 20
10.954605
 30
0.0
 11
4.753592
 21
10.743161
 31
0.0
  0
LINE
  5
3B4
330
5B7
100
AcDbEntity
  8
1
100
AcDbLine
 10
4.753592
 20
10.743161
 30
0.0
 11
3.782394
 21
10.526257
 31
0.0
  0
LINE
  5
3B5
330
5B7
100
AcDbEntity
  8
1
100
AcDbLine
 10
9.271969999999999
 20
8.933041000000001
 30
0.0
 11
9.117933
 21
8.897314999999998
 31
0.0
  0
LINE
  5
3B6
330
5B7
100
AcDbEntity
  8
1
100
AcDbLine
 10
9.117933
 20
8.897314999999998
 30
0.0
 11
8.96423
 21
8.864577999999999
 31
0.0
  0
LINE
  5
3B7
330
5B7
100
AcDbEntity
  8
1
100
AcDbLine
 10
8.96423
 20
8.864577999999999
 30
0.0
 11
8.810863000000001
 21
8.83483
 31
0.0
  0
LINE
  5
3B8
330
5B7
100
AcDbEntity
  8
1
100
AcDbLine
 10
8.810863000000001
 20
8.83483
 30
0.0
 11
8.657719999999999
 21
8.808052999999999
 31
0.0
  0
LINE
  5
3B9
330
5B7
100
AcDbEntity
  8
1
100
AcDbLine
 10
8.657719999999999
 20
8.808052999999999
 30
0.0
 11
8.504913
 21
8.784266
 31
0.0
  0
LINE
  5
3BA
330
5B7
100
AcDbEntity
  8
1
100
AcDbLine
 10
8.504913
 20
8.784266
 30
0.0
 11
8.352774
 21
8.763519
 31
0.0
  0
LINE
  5
3BB
330
5B7
100
AcDbEntity
  8
1
100
AcDbLine
 10
8.352774
 20
8.763519
 30
0.0
 11
8.201303999999998
 21
8.74582
 31
0.0
  0
LINE
  5
3BC
330
5B7
100
AcDbEntity
  8
1
100
AcDbLine
 10
8.201303999999998
 20
8.74582
 30
0.0
 11
8.050501999999999
 21
8.731161
 31
0.0
  0
LINE
  5
3BD
330
5B7
100
AcDbEntity
  8
1
100
AcDbLine
 10
8.050501999999999
 20
8.731161
 30
0.0
 11
7.900697
 21
8.719575
 31
0.0
  0
LINE
  5
3BE
330
5B7
100
AcDbEntity
  8
1
100
AcDbLine
 10
7.900697
 20
8.719575
 30
0.0
 11
7.751891
 21
8.711069
 31
0.0
  0
LINE
  5
3BF
330
5B7
100
AcDbEntity
  8
1
100
AcDbLine
 10
7.751891
 20
8.711069
 30
0.0
 11
7.604080999999999
 21
8.705635
 31
0.0
  0
LINE
  5
3C0
330
5B7
100
AcDbEntity
  8
1
100
AcDbLine
 10
7.604080999999999
 20
8.705635
 30
0.0
 11
7.457589999999999
 21
8.703285000000001
 31
0.0
  0
LINE
  5
3C1
330
5B7
100
AcDbEntity
  8
1
100
AcDbLine
 10
7.457589999999999
 20
8.703285000000001
 30
0.0
 11
7.312421
 21
8.704026999999999
 31
0.0
  0
LINE
  5
3C2
330
5B7
100
AcDbEntity
  8
1
100
AcDbLine
 10
7.312421
 20
8.704026999999999
 30
0.0
 11
7.168569999999999
 21
8.707853
 31
0.0
  0
LINE
  5
3C3
330
5B7
100
AcDbEntity
  8
1
100
AcDbLine
 10
7.168569999999999
 20
8.707853
 30
0.0
 11
7.026350999999999
 21
8.714755
 31
0.0
  0
LINE
  5
3C4
330
5B7
100
AcDbEntity
  8
1
100
AcDbLine
 10
7.026350999999999
 20
8.714755
 30
0.0
 11
6.885766999999999
 21
8.724739999999998
 31
0.0
  0
LINE
  5
3C5
330
5B7
100
AcDbEntity
  8
1
100
AcDbLine
 10
6.885766999999999
 20
8.724739999999998
 30
0.0
 11
6.746815999999999
 21
8.737800999999999
 31
0.0
  0
LINE
  5
3C6
330
5B7
100
AcDbEntity
  8
1
100
AcDbLine
 10
6.746815999999999
 20
8.737800999999999
 30
0.0
 11
6.609799
 21
8.753910000000001
 31
0.0
  0
LINE
  5
3C7
330
5B7
100
AcDbEntity
  8
1
100
AcDbLine
 10
6.609799
 20
8.753910000000001
 30
0.0
 11
6.474720999999999
 21
8.773073
 31
0.0
  0
LINE
  5
3C8
330
5B7
100
AcDbEntity
  8
1
100
AcDbLine
 10
6.474720999999999
 20
8.773073
 30
0.0
 11
6.341578
 21
8.795282999999999
 31
0.0
  0
LINE
  5
3C9
330
5B7
100
AcDbEntity
  8
1
100
AcDbLine
 10
6.341578
 20
8.795282999999999
 30
0.0
 11
6.210658999999999
 21
8.820492999999999
 31
0.0
  0
LINE
  5
3CA
330
5B7
100
AcDbEntity
  8
1
100
AcDbLine
 10
6.210658999999999
 20
8.820492999999999
 30
0.0
 11
6.08197
 21
8.848708999999999
 31
0.0
  0
LINE
  5
3CB
330
5B7
100
AcDbEntity
  8
1
100
AcDbLine
 10
6.08197
 20
8.848708999999999
 30
0.0
 11
5.955505999999999
 21
8.879924
 31
0.0
  0
LINE
  5
3CC
330
5B7
100
AcDbEntity
  8
1
100
AcDbLine
 10
5.955505999999999
 20
8.879924
 30
0.0
 11
5.831541999999999
 21
8.914068999999999
 31
0.0
  0
LINE
  5
3CD
330
5B7
100
AcDbEntity
  8
1
100
AcDbLine
 10
5.831541999999999
 20
8.914068999999999
 30
0.0
 11
5.710083
 21
8.951152999999999
 31
0.0
  0
LINE
  5
3CE
330
5B7
100
AcDbEntity
  8
1
100
AcDbLine
 10
5.710083
 20
8.951152999999999
 30
0.0
 11
5.591124999999999
 21
8.991168
 31
0.0
  0
LINE
  5
3CF
330
5B7
100
AcDbEntity
  8
1
100
AcDbLine
 10
5.591124999999999
 20
8.991168
 30
0.0
 11
5.474925999999999
 21
9.034025999999999
 31
0.0
  0
LINE
  5
3D0
330
5B7
100
AcDbEntity
  8
1
100
AcDbLine
 10
5.474925999999999
 20
9.034025999999999
 30
0.0
 11
5.361492
 21
9.079735000000001
 31
0.0
  0
LINE
  5
3D1
330
5B7
100
AcDbEntity
  8
1
100
AcDbLine
 10
5.361492
 20
9.079735000000001
 30
0.0
 11
5.250816999999999
 21
9.128288000000001
 31
0.0
  0
LINE
  5
3D2
330
5B7
100
AcDbEntity
  8
1
100
AcDbLine
 10
5.250816999999999
 20
9.128288000000001
 30
0.0
 11
5.143143
 21
9.179579999999999
 31
0.0
  0
LINE
  5
3D3
330
5B7
100
AcDbEntity
  8
1
100
AcDbLine
 10
5.143143
 20
9.179579999999999
 30
0.0
 11
5.038476
 21
9.233614999999998
 31
0.0
  0
LINE
  5
3D4
330
5B7
100
AcDbEntity
  8
1
100
AcDbLine
 10
5.038476
 20
9.233614999999998
 30
0.0
 11
4.936808999999999
 21
9.290388999999999
 31
0.0
  0
LINE
  5
3D5
330
5B7
100
AcDbEntity
  8
1
100
AcDbLine
 10
4.936808999999999
 20
9.290388999999999
 30
0.0
 11
4.838362999999999
 21
9.349776999999999
 31
0.0
  0
LINE
  5
3D6
330
5B7
100
AcDbEntity
  8
1
100
AcDbLine
 10
4.838362999999999
 20
9.349776999999999
 30
0.0
 11
4.743147
 21
9.411785
 31
0.0
  0
LINE
  5
3D7
330
5B7
100
AcDbEntity
  8
1
100
AcDbLine
 10
4.743147
 20
9.411785
 30
0.0
 11
4.651151999999999
 21
9.476408000000001
 31
0.0
  0
LINE
  5
3D8
330
5B7
100
AcDbEntity
  8
1
100
AcDbLine
 10
4.651151999999999
 20
9.476408000000001
 30
0.0
 11
4.56258
 21
9.543504999999999
 31
0.0
  0
LINE
  5
3D9
330
5B7
100
AcDbEntity
  8
1
100
AcDbLine
 10
4.56258
 20
9.543504999999999
 30
0.0
 11
4.477437
 21
9.613080999999999
 31
0.0
  0
LINE
  5
3DA
330
5B7
100
AcDbEntity
  8
1
100
AcDbLine
 10
4.477437
 20
9.613080999999999
 30
0.0
 11
4.395716999999999
 21
9.68513
 31
0.0
  0
LINE
  5
3DB
330
5B7
100
AcDbEntity
  8
1
100
AcDbLine
 10
4.395716999999999
 20
9.68513
 30
0.0
 11
4.317595999999999
 21
9.759496999999999
 31
0.0
  0
LINE
  5
3DC
330
5B7
100
AcDbEntity
  8
1
100
AcDbLine
 10
4.317595999999999
 20
9.759496999999999
 30
0.0
 11
4.243083999999999
 21
9.836185
 31
0.0
  0
LINE
  5
3DD
330
5B7
100
AcDbEntity
  8
1
100
AcDbLine
 10
4.243083999999999
 20
9.836185
 30
0.0
 11
4.172171999999999
 21
9.915189999999999
 31
0.0
  0
LINE
  5
3DE
330
5B7
100
AcDbEntity
  8
1
100
AcDbLine
 10
4.615583999999999
 20
8.621282
 30
0.0
 11
3.782394
 21
10.526257
 31
0.0
  0
LINE
  5
3DF
330
5B7
100
AcDbEntity
  8
1
100
AcDbLine
 10
5.082085
 20
7.567558999999999
 30
0.0
 11
4.962422
 21
7.836046999999999
 31
0.0
  0
LINE
  5
3E0
330
5B7
100
AcDbEntity
  8
1
100
AcDbLine
 10
4.962422
 20
7.836046999999999
 30
0.0
 11
4.844786
 21
8.101226999999999
 31
0.0
  0
LINE
  5
3E1
330
5B7
100
AcDbEntity
  8
1
100
AcDbLine
 10
4.844786
 20
8.101226999999999
 30
0.0
 11
4.729179
 21
8.362958
 31
0.0
  0
LINE
  5
3E2
330
5B7
100
AcDbEntity
  8
1
100
AcDbLine
 10
4.729179
 20
8.362958
 30
0.0
 11
4.615583999999999
 21
8.621282
 31
0.0
  0
LINE
  5
3E3
330
5B7
100
AcDbEntity
  8
1
100
AcDbLine
 10
4.172171999999999
 20
9.915189999999999
 30
0.0
 11
4.105013999999999
 21
9.99634
 31
0.0
  0
LINE
  5
3E4
330
5B7
100
AcDbEntity
  8
1
100
AcDbLine
 10
4.105013999999999
 20
9.99634
 30
0.0
 11
4.041618999999999
 21
10.079639
 31
0.0
  0
LINE
  5
3E5
330
5B7
100
AcDbEntity
  8
1
100
AcDbLine
 10
4.041618999999999
 20
10.079639
 30
0.0
 11
3.981978999999999
 21
10.165083
 31
0.0
  0
LINE
  5
3E6
330
5B7
100
AcDbEntity
  8
1
100
AcDbLine
 10
3.981978999999999
 20
10.165083
 30
0.0
 11
3.926223999999999
 21
10.252485
 31
0.0
  0
LINE
  5
3E7
330
5B7
100
AcDbEntity
  8
1
100
AcDbLine
 10
3.926223999999999
 20
10.252485
 30
0.0
 11
3.874395999999999
 21
10.341784
 31
0.0
  0
LINE
  5
3E8
330
5B7
100
AcDbEntity
  8
1
100
AcDbLine
 10
3.874395999999999
 20
10.341784
 30
0.0
 11
3.826452999999999
 21
10.433041
 31
0.0
  0
LINE
  5
3E9
330
5B7
100
AcDbEntity
  8
1
100
AcDbLine
 10
3.826452999999999
 20
10.433041
 30
0.0
 11
3.782394
 21
10.526257
 31
0.0
  0
LINE
  5
3EA
330
5B7
100
AcDbEntity
  8
1
100
AcDbLine
 10
10.318599
 20
9.957461
 30
0.0
 11
10.25021
 21
10.104599
 31
0.0
  0
LINE
  5
3EB
330
5B7
100
AcDbEntity
  8
1
100
AcDbLine
 10
10.25021
 20
10.104599
 30
0.0
 11
10.181923
 21
10.249522
 31
0.0
  0
LINE
  5
3EC
330
5B7
100
AcDbEntity
  8
1
100
AcDbLine
 10
10.181923
 20
10.249522
 30
0.0
 11
10.113738
 21
10.392231
 31
0.0
  0
LINE
  5
3ED
330
5B7
100
AcDbEntity
  8
1
100
AcDbLine
 10
10.113738
 20
10.392231
 30
0.0
 11
10.04564
 21
10.532756
 31
0.0
  0
LINE
  5
3EE
330
5B7
100
AcDbEntity
  8
1
100
AcDbLine
 10
10.04564
 20
10.532756
 30
0.0
 11
9.977644999999998
 21
10.671066
 31
0.0
  0
LINE
  5
3EF
330
5B7
100
AcDbEntity
  8
1
100
AcDbLine
 10
9.977644999999998
 20
10.671066
 30
0.0
 11
9.9098
 21
10.807066
 31
0.0
  0
LINE
  5
3F0
330
5B7
100
AcDbEntity
  8
1
100
AcDbLine
 10
9.9098
 20
10.807066
 30
0.0
 11
9.842121
 21
10.940725
 31
0.0
  0
LINE
  5
3F1
330
5B7
100
AcDbEntity
  8
1
100
AcDbLine
 10
9.842121
 20
10.940725
 30
0.0
 11
9.774592
 21
11.072074
 31
0.0
  0
LINE
  5
3F2
330
5B7
100
AcDbEntity
  8
1
100
AcDbLine
 10
9.774592
 20
11.072074
 30
0.0
 11
9.707213000000001
 21
11.201113
 31
0.0
  0
LINE
  5
3F3
330
5B7
100
AcDbEntity
  8
1
100
AcDbLine
 10
9.707213000000001
 20
11.201113
 30
0.0
 11
9.391548
 21
11.770754
 31
0.0
  0
LINE
  5
3F4
330
5B7
100
AcDbEntity
  8
1
100
AcDbLine
 10
9.391548
 20
9.079047
 30
0.0
 11
9.468802
 21
8.785220999999999
 31
0.0
  0
LINE
  5
3F5
330
5B7
100
AcDbEntity
  8
1
100
AcDbLine
 10
10.318599
 20
6.841596
 30
0.0
 11
9.468802
 21
8.785220999999999
 31
0.0
  0
LINE
  5
3F6
330
5B7
100
AcDbEntity
  8
1
100
AcDbLine
 10
10.318599
 20
9.957461
 30
0.0
 11
10.318599
 21
6.841596
 31
0.0
  0
LINE
  5
3F7
330
5B7
100
AcDbEntity
  8
1
100
AcDbLine
 10
9.391548
 20
11.770754
 30
0.0
 11
9.391548
 21
9.079047
 31
0.0
  0
LINE
  5
3F8
330
5B7
100
AcDbEntity
  8
1
100
AcDbLine
 10
9.418272999999999
 20
8.968367
 30
0.0
 11
9.271969999999999
 21
8.933041000000001
 31
0.0
  0
LINE
  5
3F9
330
5B7
100
AcDbEntity
  8
1
100
AcDbLine
 10
6.973163999999999
 20
14.161051
 30
0.0
 11
6.412702999999999
 21
14.217619
 31
0.0
  0
LINE
  5
3FA
330
5B7
100
AcDbEntity
  8
1
100
AcDbLine
 10
9.386283
 20
14.313917
 30
0.0
 11
8.599069
 21
14.363363
 31
0.0
  0
LINE
  5
3FB
330
5B7
100
AcDbEntity
  8
1
100
AcDbLine
 10
8.599069
 20
14.363363
 30
0.0
 11
7.643467
 21
14.416521
 31
0.0
  0
LINE
  5
3FC
330
5B7
100
AcDbEntity
  8
1
100
AcDbLine
 10
7.643467
 20
14.416521
 30
0.0
 11
6.683803
 21
14.462983
 31
0.0
  0
LINE
  5
3FD
330
5B7
100
AcDbEntity
  8
1
100
AcDbLine
 10
6.683803
 20
14.462983
 30
0.0
 11
5.720728
 21
14.502681
 31
0.0
  0
LINE
  5
3FE
330
5B7
100
AcDbEntity
  8
1
100
AcDbLine
 10
5.082085
 20
14.342349
 30
0.0
 11
4.966956999999999
 21
14.396084
 31
0.0
  0
LINE
  5
3FF
330
5B7
100
AcDbEntity
  8
1
100
AcDbLine
 10
4.966956999999999
 20
14.396084
 30
0.0
 11
4.853717999999999
 21
14.443637
 31
0.0
  0
LINE
  5
400
330
5B7
100
AcDbEntity
  8
1
100
AcDbLine
 10
4.853717999999999
 20
14.443637
 30
0.0
 11
4.742366999999999
 21
14.484965
 31
0.0
  0
LINE
  5
401
330
5B7
100
AcDbEntity
  8
1
100
AcDbLine
 10
4.742366999999999
 20
14.484965
 30
0.0
 11
4.632931
 21
14.520033
 31
0.0
  0
LINE
  5
402
330
5B7
100
AcDbEntity
  8
1
100
AcDbLine
 10
4.632931
 20
14.520033
 30
0.0
 11
4.525383999999999
 21
14.54879
 31
0.0
  0
LINE
  5
403
330
5B7
100
AcDbEntity
  8
1
100
AcDbLine
 10
4.525383999999999
 20
14.54879
 30
0.0
 11
4.419651999999999
 21
14.571181
 31
0.0
  0
LINE
  5
404
330
5B7
100
AcDbEntity
  8
1
100
AcDbLine
 10
4.419651999999999
 20
14.571181
 30
0.0
 11
4.31571
 21
14.587184
 31
0.0
  0
LINE
  5
405
330
5B7
100
AcDbEntity
  8
1
100
AcDbLine
 10
4.31571
 20
14.587184
 30
0.0
 11
4.213582999999999
 21
14.596795
 31
0.0
  0
LINE
  5
406
330
5B7
100
AcDbEntity
  8
1
100
AcDbLine
 10
4.213582999999999
 20
14.596795
 30
0.0
 11
4.113271
 21
14.6
 31
0.0
  0
LINE
  5
407
330
5B7
100
AcDbEntity
  8
1
100
AcDbLine
 10
6.412702999999999
 20
14.217619
 30
0.0
 11
6.002654999999999
 21
14.257774
 31
0.0
  0
LINE
  5
408
330
5B7
100
AcDbEntity
  8
1
100
AcDbLine
 10
6.002654999999999
 20
14.257774
 30
0.0
 11
5.785461999999999
 21
14.278489
 31
0.0
  0
LINE
  5
409
330
5B7
100
AcDbEntity
  8
1
100
AcDbLine
 10
5.785461999999999
 20
14.278489
 30
0.0
 11
5.559463
 21
14.299576
 31
0.0
  0
LINE
  5
40A
330
5B7
100
AcDbEntity
  8
1
100
AcDbLine
 10
5.559463
 20
14.299576
 30
0.0
 11
5.325003999999999
 21
14.320898
 31
0.0
  0
LINE
  5
40B
330
5B7
100
AcDbEntity
  8
1
100
AcDbLine
 10
5.325003999999999
 20
14.320898
 30
0.0
 11
5.082085
 21
14.342349
 31
0.0
  0
LINE
  5
40C
330
5B7
100
AcDbEntity
  8
1
100
AcDbLine
 10
5.720728
 20
14.502681
 30
0.0
 11
4.753592
 21
14.535684
 31
0.0
  0
LINE
  5
40D
330
5B7
100
AcDbEntity
  8
1
100
AcDbLine
 10
4.753592
 20
14.535684
 30
0.0
 11
4.554198999999999
 21
14.541085
 31
0.0
  0
LINE
  5
40E
330
5B7
100
AcDbEntity
  8
1
100
AcDbLine
 10
7.632821
 20
14.093386
 30
0.0
 11
6.973163999999999
 21
14.161051
 31
0.0
  0
LINE
  5
40F
330
5B7
100
AcDbEntity
  8
1
100
AcDbLine
 10
8.073816
 20
14.048628
 30
0.0
 11
7.632821
 21
14.093386
 31
0.0
  0
LINE
  5
410
330
5B7
100
AcDbEntity
  8
1
100
AcDbLine
 10
8.346875999999999
 20
14.021583
 30
0.0
 11
8.073816
 21
14.048628
 31
0.0
  0
LINE
  5
411
330
5B7
100
AcDbEntity
  8
1
100
AcDbLine
 10
8.604600999999998
 20
13.996822
 30
0.0
 11
8.346875999999999
 21
14.021583
 31
0.0
  0
LINE
  5
412
330
5B7
100
AcDbEntity
  8
1
100
AcDbLine
 10
8.846825
 20
13.974446
 30
0.0
 11
8.604600999999998
 21
13.996822
 31
0.0
  0
LINE
  5
413
330
5B7
100
AcDbEntity
  8
1
100
AcDbLine
 10
9.074737999999999
 20
13.954448
 30
0.0
 11
8.846825
 21
13.974446
 31
0.0
  0
LINE
  5
414
330
5B7
100
AcDbEntity
  8
1
100
AcDbLine
 10
9.292052999999999
 20
13.936523
 30
0.0
 11
9.074737999999999
 21
13.954448
 31
0.0
  0
LINE
  5
415
330
5B7
100
AcDbEntity
  8
1
100
AcDbLine
 10
9.501005000000001
 20
13.920567
 30
0.0
 11
9.292052999999999
 21
13.936523
 31
0.0
  0
LINE
  5
416
330
5B7
100
AcDbEntity
  8
1
100
AcDbLine
 10
10.318599
 20
14.856586
 30
0.0
 11
10.318599
 21
13.874792
 31
0.0
  0
LINE
  5
417
330
5B7
100
AcDbEntity
  8
1
100
AcDbLine
 10
9.391548
 20
14.397745
 30
0.0
 11
9.391548
 21
13.928768
 31
0.0
  0
LINE
  5
418
330
5B7
100
AcDbEntity
  8
1
100
AcDbLine
 10
10.318599
 20
14.856586
 30
0.0
 11
10.250214
 21
14.84272
 31
0.0
  0
LINE
  5
419
330
5B7
100
AcDbEntity
  8
1
100
AcDbLine
 10
10.250214
 20
14.84272
 30
0.0
 11
10.181932
 21
14.825893
 31
0.0
  0
LINE
  5
41A
330
5B7
100
AcDbEntity
  8
1
100
AcDbLine
 10
10.181932
 20
14.825893
 30
0.0
 11
10.113753
 21
14.806108
 31
0.0
  0
LINE
  5
41B
330
5B7
100
AcDbEntity
  8
1
100
AcDbLine
 10
10.113753
 20
14.806108
 30
0.0
 11
10.045661
 21
14.783356
 31
0.0
  0
LINE
  5
41C
330
5B7
100
AcDbEntity
  8
1
100
AcDbLine
 10
10.045661
 20
14.783356
 30
0.0
 11
9.977672
 21
14.757645
 31
0.0
  0
LINE
  5
41D
330
5B7
100
AcDbEntity
  8
1
100
AcDbLine
 10
9.977672
 20
14.757645
 30
0.0
 11
9.909829
 21
14.728993
 31
0.0
  0
LINE
  5
41E
330
5B7
100
AcDbEntity
  8
1
100
AcDbLine
 10
9.909829
 20
14.728993
 30
0.0
 11
9.842145
 21
14.697406
 31
0.0
  0
LINE
  5
41F
330
5B7
100
AcDbEntity
  8
1
100
AcDbLine
 10
9.842145
 20
14.697406
 30
0.0
 11
9.774606
 21
14.662878
 31
0.0
  0
LINE
  5
420
330
5B7
100
AcDbEntity
  8
1
100
AcDbLine
 10
9.774606
 20
14.662878
 30
0.0
 11
9.707213000000001
 21
14.625409
 31
0.0
  0
LINE
  5
421
330
5B7
100
AcDbEntity
  8
1
100
AcDbLine
 10
9.707213000000001
 20
14.625409
 30
0.0
 11
9.391548
 21
14.397745
 31
0.0
  0
LINE
  5
422
330
5B7
100
AcDbEntity
  8
1
100
AcDbLine
 10
17.0
 20
1.456253
 30
0.0
 11
17.0
 21
8.363774000000001
 31
0.0
  0
LINE
  5
423
330
5B7
100
AcDbEntity
  8
1
100
AcDbLine
 10
16.5
 20
4.509043
 30
0.0
 11
16.5
 21
8.334172
 31
0.0
  0
LINE
  5
424
330
5B7
100
AcDbEntity
  8
1
100
AcDbLine
 10
15.1
 20
6.772041999999999
 30
0.0
 11
15.1
 21
5.454218
 31
0.0
  0
LINE
  5
425
330
5B7
100
AcDbEntity
  8
1
100
AcDbLine
 10
13.205638
 20
6.329333999999999
 30
0.0
 11
12.042128
 21
6.058161
 31
0.0
  0
LINE
  5
426
330
5B7
100
AcDbEntity
  8
1
100
AcDbLine
 10
12.042128
 20
6.058161
 30
0.0
 11
11.649869
 21
5.966860999999999
 31
0.0
  0
LINE
  5
427
330
5B7
100
AcDbEntity
  8
1
100
AcDbLine
 10
13.068702
 20
0.475061
 30
0.0
 11
11.606917
 21
-0.000492
 31
0.0
  0
LINE
  5
428
330
5B7
100
AcDbEntity
  8
1
100
AcDbLine
 10
11.606917
 20
-0.000492
 30
0.0
 11
11.118599
 21
-0.159252
 31
0.0
  0
LINE
  5
429
330
5B7
100
AcDbEntity
  8
1
100
AcDbLine
 10
14.115576
 20
0.471903
 30
0.0
 11
12.61882
 21
-0.015438
 31
0.0
  0
LINE
  5
42A
330
5B7
100
AcDbEntity
  8
1
100
AcDbLine
 10
15.1
 20
-4.357465
 30
0.0
 11
14.725672
 21
-4.451578999999999
 31
0.0
  0
LINE
  5
42B
330
5B7
100
AcDbEntity
  8
1
100
AcDbLine
 10
14.725672
 20
-4.451578999999999
 30
0.0
 11
14.349076
 21
-4.545658
 31
0.0
  0
LINE
  5
42C
330
5B7
100
AcDbEntity
  8
1
100
AcDbLine
 10
14.349076
 20
-4.545658
 30
0.0
 11
13.970211
 21
-4.639701
 31
0.0
  0
LINE
  5
42D
330
5B7
100
AcDbEntity
  8
1
100
AcDbLine
 10
13.970211
 20
-4.639701
 30
0.0
 11
13.589059
 21
-4.733716999999999
 31
0.0
  0
LINE
  5
42E
330
5B7
100
AcDbEntity
  8
1
100
AcDbLine
 10
13.589059
 20
-4.733716999999999
 30
0.0
 11
13.205638
 21
-4.827698999999999
 31
0.0
  0
LINE
  5
42F
330
5B7
100
AcDbEntity
  8
1
100
AcDbLine
 10
13.205638
 20
-4.827698999999999
 30
0.0
 11
12.820003
 21
-4.921621
 31
0.0
  0
LINE
  5
430
330
5B7
100
AcDbEntity
  8
1
100
AcDbLine
 10
12.820003
 20
-4.921621
 30
0.0
 11
12.432173
 21
-5.015477999999999
 31
0.0
  0
LINE
  5
431
330
5B7
100
AcDbEntity
  8
1
100
AcDbLine
 10
12.432173
 20
-5.015477999999999
 30
0.0
 11
12.042128
 21
-5.109276
 31
0.0
  0
LINE
  5
432
330
5B7
100
AcDbEntity
  8
1
100
AcDbLine
 10
12.042128
 20
-5.109276
 30
0.0
 11
11.649869
 21
-5.203014999999999
 31
0.0
  0
LINE
  5
433
330
5B7
100
AcDbEntity
  8
1
100
AcDbLine
 10
11.118599
 20
-0.159252
 30
0.0
 11
11.118599
 21
-0.5030750000000001
 31
0.0
  0
LINE
  5
434
330
5B7
100
AcDbEntity
  8
1
100
AcDbLine
 10
12.61882
 20
-0.015438
 30
0.0
 11
11.118599
 21
-0.5030750000000001
 31
0.0
  0
LINE
  5
435
330
5B7
100
AcDbEntity
  8
1
100
AcDbLine
 10
16.5
 20
-3.253690999999999
 30
0.0
 11
16.352723
 21
-3.372494
 31
0.0
  0
LINE
  5
436
330
5B7
100
AcDbEntity
  8
1
100
AcDbLine
 10
16.352723
 20
-3.372494
 30
0.0
 11
16.203398
 21
-3.492243
 31
0.0
  0
LINE
  5
437
330
5B7
100
AcDbEntity
  8
1
100
AcDbLine
 10
16.203398
 20
-3.492243
 30
0.0
 11
16.052024
 21
-3.612938999999999
 31
0.0
  0
LINE
  5
438
330
5B7
100
AcDbEntity
  8
1
100
AcDbLine
 10
16.052024
 20
-3.612938999999999
 30
0.0
 11
15.898631
 21
-3.734562
 31
0.0
  0
LINE
  5
439
330
5B7
100
AcDbEntity
  8
1
100
AcDbLine
 10
15.898631
 20
-3.734562
 30
0.0
 11
15.74319
 21
-3.857132
 31
0.0
  0
LINE
  5
43A
330
5B7
100
AcDbEntity
  8
1
100
AcDbLine
 10
15.74319
 20
-3.857132
 30
0.0
 11
15.585615
 21
-3.980701999999999
 31
0.0
  0
LINE
  5
43B
330
5B7
100
AcDbEntity
  8
1
100
AcDbLine
 10
15.585615
 20
-3.980701999999999
 30
0.0
 11
15.425877
 21
-4.105288999999999
 31
0.0
  0
LINE
  5
43C
330
5B7
100
AcDbEntity
  8
1
100
AcDbLine
 10
15.425877
 20
-4.105288999999999
 30
0.0
 11
15.264006
 21
-4.230876999999999
 31
0.0
  0
LINE
  5
43D
330
5B7
100
AcDbEntity
  8
1
100
AcDbLine
 10
15.264006
 20
-4.230876999999999
 30
0.0
 11
15.1
 21
-4.357465
 31
0.0
  0
LINE
  5
43E
330
5B7
100
AcDbEntity
  8
1
100
AcDbLine
 10
16.5
 20
-2.561656999999999
 30
0.0
 11
17.0
 21
-2.723894
 31
0.0
  0
LINE
  5
43F
330
5B7
100
AcDbEntity
  8
1
100
AcDbLine
 10
16.5
 20
-4.240724
 30
0.0
 11
17.0
 21
-4.132016999999999
 31
0.0
  0
LINE
  5
440
330
5B7
100
AcDbEntity
  8
1
100
AcDbLine
 10
15.494209
 20
1.264687999999999
 30
0.0
 11
13.068702
 21
0.475061
 31
0.0
  0
LINE
  5
441
330
5B7
100
AcDbEntity
  8
1
100
AcDbLine
 10
15.60665499999999
 20
0.9582239999999998
 30
0.0
 11
14.115576
 21
0.471903
 31
0.0
  0
LINE
  5
442
330
5B7
100
AcDbEntity
  8
1
100
AcDbLine
 10
13.189642
 20
3.366074999999999
 30
0.0
 11
15.039556
 21
3.976251999999999
 31
0.0
  0
LINE
  5
443
330
5B7
100
AcDbEntity
  8
1
100
AcDbLine
 10
11.306808
 20
2.74655
 30
0.0
 11
13.189642
 21
3.366074999999999
 31
0.0
  0
LINE
  5
444
330
5B7
100
AcDbEntity
  8
1
100
AcDbLine
 10
11.649869
 20
5.966860999999999
 30
0.0
 11
11.568958
 21
5.949216999999999
 31
0.0
  0
LINE
  5
445
330
5B7
100
AcDbEntity
  8
1
100
AcDbLine
 10
11.568958
 20
5.949216999999999
 30
0.0
 11
11.4875
 21
5.933568
 31
0.0
  0
LINE
  5
446
330
5B7
100
AcDbEntity
  8
1
100
AcDbLine
 10
11.4875
 20
5.933568
 30
0.0
 11
11.405493
 21
5.919919
 31
0.0
  0
LINE
  5
447
330
5B7
100
AcDbEntity
  8
1
100
AcDbLine
 10
11.405493
 20
5.919919
 30
0.0
 11
11.322933
 21
5.908312999999999
 31
0.0
  0
LINE
  5
448
330
5B7
100
AcDbEntity
  8
1
100
AcDbLine
 10
11.322933
 20
5.908312999999999
 30
0.0
 11
11.239825
 21
5.898711
 31
0.0
  0
LINE
  5
449
330
5B7
100
AcDbEntity
  8
1
100
AcDbLine
 10
11.239825
 20
5.898711
 30
0.0
 11
11.156186
 21
5.890986999999999
 31
0.0
  0
LINE
  5
44A
330
5B7
100
AcDbEntity
  8
1
100
AcDbLine
 10
11.156186
 20
5.890986999999999
 30
0.0
 11
11.072039
 21
5.885142
 31
0.0
  0
LINE
  5
44B
330
5B7
100
AcDbEntity
  8
1
100
AcDbLine
 10
11.072039
 20
5.885142
 30
0.0
 11
10.987363
 21
5.881175999999999
 31
0.0
  0
LINE
  5
44C
330
5B7
100
AcDbEntity
  8
1
100
AcDbLine
 10
10.987363
 20
5.881175999999999
 30
0.0
 11
10.902109
 21
5.878955999999999
 31
0.0
  0
LINE
  5
44D
330
5B7
100
AcDbEntity
  8
1
100
AcDbLine
 10
10.902109
 20
5.878955999999999
 30
0.0
 11
10.839609
 21
5.878426
 31
0.0
  0
LINE
  5
44E
330
5B7
100
AcDbEntity
  8
1
100
AcDbLine
 10
15.1
 20
5.454218
 30
0.0
 11
15.106676
 21
5.407669999999999
 31
0.0
  0
LINE
  5
44F
330
5B7
100
AcDbEntity
  8
1
100
AcDbLine
 10
15.106676
 20
5.407669999999999
 30
0.0
 11
15.112132
 21
5.361442
 31
0.0
  0
LINE
  5
450
330
5B7
100
AcDbEntity
  8
1
100
AcDbLine
 10
15.112132
 20
5.361442
 30
0.0
 11
15.11637
 21
5.315535999999999
 31
0.0
  0
LINE
  5
451
330
5B7
100
AcDbEntity
  8
1
100
AcDbLine
 10
15.11637
 20
5.315535999999999
 30
0.0
 11
15.119382
 21
5.269994999999999
 31
0.0
  0
LINE
  5
452
330
5B7
100
AcDbEntity
  8
1
100
AcDbLine
 10
15.119382
 20
5.269994999999999
 30
0.0
 11
15.121176
 21
5.224775
 31
0.0
  0
LINE
  5
453
330
5B7
100
AcDbEntity
  8
1
100
AcDbLine
 10
15.121176
 20
5.224775
 30
0.0
 11
15.121769
 21
5.179744999999999
 31
0.0
  0
LINE
  5
454
330
5B7
100
AcDbEntity
  8
1
100
AcDbLine
 10
15.121769
 20
5.179744999999999
 30
0.0
 11
15.121176
 21
5.134901999999999
 31
0.0
  0
LINE
  5
455
330
5B7
100
AcDbEntity
  8
1
100
AcDbLine
 10
15.121176
 20
5.134901999999999
 30
0.0
 11
15.119382
 21
5.090249
 31
0.0
  0
LINE
  5
456
330
5B7
100
AcDbEntity
  8
1
100
AcDbLine
 10
15.119382
 20
5.090249
 30
0.0
 11
15.11637
 21
5.045660999999999
 31
0.0
  0
LINE
  5
457
330
5B7
100
AcDbEntity
  8
1
100
AcDbLine
 10
15.11637
 20
5.045660999999999
 30
0.0
 11
15.112132
 21
5.001094
 31
0.0
  0
LINE
  5
458
330
5B7
100
AcDbEntity
  8
1
100
AcDbLine
 10
15.112132
 20
5.001094
 30
0.0
 11
15.106676
 21
4.956591999999999
 31
0.0
  0
LINE
  5
459
330
5B7
100
AcDbEntity
  8
1
100
AcDbLine
 10
15.106676
 20
4.956591999999999
 30
0.0
 11
15.1
 21
4.912154
 31
0.0
  0
LINE
  5
45A
330
5B7
100
AcDbEntity
  8
1
100
AcDbLine
 10
15.494218
 20
1.265037
 30
0.0
 11
15.434931
 21
1.588813
 31
0.0
  0
LINE
  5
45B
330
5B7
100
AcDbEntity
  8
1
100
AcDbLine
 10
15.434931
 20
1.588813
 30
0.0
 11
15.377849
 21
1.906965999999999
 31
0.0
  0
LINE
  5
45C
330
5B7
100
AcDbEntity
  8
1
100
AcDbLine
 10
15.377849
 20
1.906965999999999
 30
0.0
 11
15.322975
 21
2.219495
 31
0.0
  0
LINE
  5
45D
330
5B7
100
AcDbEntity
  8
1
100
AcDbLine
 10
15.322975
 20
2.219495
 30
0.0
 11
15.270324
 21
2.526413
 31
0.0
  0
LINE
  5
45E
330
5B7
100
AcDbEntity
  8
1
100
AcDbLine
 10
15.270324
 20
2.526413
 30
0.0
 11
15.21988
 21
2.827707
 31
0.0
  0
LINE
  5
45F
330
5B7
100
AcDbEntity
  8
1
100
AcDbLine
 10
15.21988
 20
2.827707
 30
0.0
 11
15.171587
 21
3.123340999999999
 31
0.0
  0
LINE
  5
460
330
5B7
100
AcDbEntity
  8
1
100
AcDbLine
 10
15.171587
 20
3.123340999999999
 30
0.0
 11
15.125426
 21
3.413304
 31
0.0
  0
LINE
  5
461
330
5B7
100
AcDbEntity
  8
1
100
AcDbLine
 10
15.125426
 20
3.413304
 30
0.0
 11
15.081416
 21
3.697608
 31
0.0
  0
LINE
  5
462
330
5B7
100
AcDbEntity
  8
1
100
AcDbLine
 10
15.081416
 20
3.697608
 30
0.0
 11
15.039556
 21
3.976251999999999
 31
0.0
  0
LINE
  5
463
330
5B7
100
AcDbEntity
  8
1
100
AcDbLine
 10
15.1
 20
4.912154
 30
0.0
 11
15.1
 21
4.000738
 31
0.0
  0
LINE
  5
464
330
5B7
100
AcDbEntity
  8
1
100
AcDbLine
 10
15.494102
 20
1.264996
 30
0.0
 11
15.511965
 21
1.213995
 31
0.0
  0
LINE
  5
465
330
5B7
100
AcDbEntity
  8
1
100
AcDbLine
 10
15.511965
 20
1.213995
 30
0.0
 11
15.530187
 21
1.162943
 31
0.0
  0
LINE
  5
466
330
5B7
100
AcDbEntity
  8
1
100
AcDbLine
 10
15.530187
 20
1.162943
 30
0.0
 11
15.548767
 21
1.111839999999999
 31
0.0
  0
LINE
  5
467
330
5B7
100
AcDbEntity
  8
1
100
AcDbLine
 10
15.548767
 20
1.111839999999999
 30
0.0
 11
15.567705
 21
1.060686
 31
0.0
  0
LINE
  5
468
330
5B7
100
AcDbEntity
  8
1
100
AcDbLine
 10
15.567705
 20
1.060686
 30
0.0
 11
15.587001
 21
1.009480999999999
 31
0.0
  0
LINE
  5
469
330
5B7
100
AcDbEntity
  8
1
100
AcDbLine
 10
15.587001
 20
1.009480999999999
 30
0.0
 11
15.60665499999999
 21
0.9582239999999998
 31
0.0
  0
LINE
  5
46A
330
5B7
100
AcDbEntity
  8
1
100
AcDbLine
 10
15.1
 20
5.454218
 30
0.0
 11
15.097444
 21
5.394374
 31
0.0
  0
LINE
  5
46B
330
5B7
100
AcDbEntity
  8
1
100
AcDbLine
 10
15.097444
 20
5.394374
 30
0.0
 11
15.095528
 21
5.334438999999999
 31
0.0
  0
LINE
  5
46C
330
5B7
100
AcDbEntity
  8
1
100
AcDbLine
 10
15.095528
 20
5.334438999999999
 30
0.0
 11
15.09425
 21
5.274410999999999
 31
0.0
  0
LINE
  5
46D
330
5B7
100
AcDbEntity
  8
1
100
AcDbLine
 10
15.09425
 20
5.274410999999999
 30
0.0
 11
15.093611
 21
5.214298
 31
0.0
  0
LINE
  5
46E
330
5B7
100
AcDbEntity
  8
1
100
AcDbLine
 10
15.093611
 20
5.214298
 30
0.0
 11
15.093611
 21
5.154094
 31
0.0
  0
LINE
  5
46F
330
5B7
100
AcDbEntity
  8
1
100
AcDbLine
 10
15.093611
 20
5.154094
 30
0.0
 11
15.09425
 21
5.093779
 31
0.0
  0
LINE
  5
470
330
5B7
100
AcDbEntity
  8
1
100
AcDbLine
 10
15.09425
 20
5.093779
 30
0.0
 11
15.095528
 21
5.033347
 31
0.0
  0
LINE
  5
471
330
5B7
100
AcDbEntity
  8
1
100
AcDbLine
 10
15.095528
 20
5.033347
 30
0.0
 11
15.097444
 21
4.972805999999999
 31
0.0
  0
LINE
  5
472
330
5B7
100
AcDbEntity
  8
1
100
AcDbLine
 10
15.097444
 20
4.972805999999999
 30
0.0
 11
15.1
 21
4.912154
 31
0.0
  0
LINE
  5
473
330
5B7
100
AcDbEntity
  8
1
100
AcDbLine
 10
16.5
 20
5.776628999999999
 30
0.0
 11
17.0
 21
5.661751999999999
 31
0.0
  0
LINE
  5
474
330
5B7
100
AcDbEntity
  8
1
100
AcDbLine
 10
17.0
 20
1.456253
 30
0.0
 11
15.60665499999999
 21
0.9582239999999998
 31
0.0
  0
LINE
  5
475
330
5B7
100
AcDbEntity
  8
1
100
AcDbLine
 10
15.494218
 20
1.265037
 30
0.0
 11
17.0
 21
1.803254
 31
0.0
  0
LINE
  5
476
330
5B7
100
AcDbEntity
  8
1
100
AcDbLine
 10
17.0
 20
4.676980999999999
 30
0.0
 11
15.039556
 21
3.976251999999999
 31
0.0
  0
LINE
  5
477
330
5B7
100
AcDbEntity
  8
1
100
AcDbLine
 10
15.739841
 20
4.232746999999999
 30
0.0
 11
15.1
 21
4.000738
 31
0.0
  0
LINE
  5
478
330
5B7
100
AcDbEntity
  8
1
100
AcDbLine
 10
16.5
 20
4.509043
 30
0.0
 11
15.739841
 21
4.232746999999999
 31
0.0
  0
LINE
  5
479
330
5B7
100
AcDbEntity
  8
1
100
AcDbLine
 10
16.5
 20
4.634905999999999
 30
0.0
 11
17.0
 21
4.797143
 31
0.0
  0
LINE
  5
47A
330
5B7
100
AcDbEntity
  8
1
100
AcDbLine
 10
15.494218
 20
11.463251
 30
0.0
 11
15.434931
 21
11.625195
 31
0.0
  0
LINE
  5
47B
330
5B7
100
AcDbEntity
  8
1
100
AcDbLine
 10
15.434931
 20
11.625195
 30
0.0
 11
15.377849
 21
11.78393
 31
0.0
  0
LINE
  5
47C
330
5B7
100
AcDbEntity
  8
1
100
AcDbLine
 10
15.377849
 20
11.78393
 30
0.0
 11
15.322975
 21
11.939456
 31
0.0
  0
LINE
  5
47D
330
5B7
100
AcDbEntity
  8
1
100
AcDbLine
 10
15.322975
 20
11.939456
 30
0.0
 11
15.270324
 21
12.091773
 31
0.0
  0
LINE
  5
47E
330
5B7
100
AcDbEntity
  8
1
100
AcDbLine
 10
15.270324
 20
12.091773
 30
0.0
 11
15.21988
 21
12.24088
 31
0.0
  0
LINE
  5
47F
330
5B7
100
AcDbEntity
  8
1
100
AcDbLine
 10
15.21988
 20
12.24088
 30
0.0
 11
15.171587
 21
12.386782
 31
0.0
  0
LINE
  5
480
330
5B7
100
AcDbEntity
  8
1
100
AcDbLine
 10
15.171587
 20
12.386782
 30
0.0
 11
15.125426
 21
12.529479
 31
0.0
  0
LINE
  5
481
330
5B7
100
AcDbEntity
  8
1
100
AcDbLine
 10
15.125426
 20
12.529479
 30
0.0
 11
15.081416
 21
12.66897
 31
0.0
  0
LINE
  5
482
330
5B7
100
AcDbEntity
  8
1
100
AcDbLine
 10
15.081416
 20
12.66897
 30
0.0
 11
15.039556
 21
12.805255
 31
0.0
  0
LINE
  5
483
330
5B7
100
AcDbEntity
  8
1
100
AcDbLine
 10
17.0
 20
8.454902999999999
 30
0.0
 11
17.0
 21
14.19171
 31
0.0
  0
LINE
  5
484
330
5B7
100
AcDbEntity
  8
1
100
AcDbLine
 10
17.0
 20
14.19171
 30
0.0
 11
15.6
 21
15.0
 31
0.0
  0
LINE
  5
485
330
5B7
100
AcDbEntity
  8
1
100
AcDbLine
 10
15.494209
 20
11.463073
 30
0.0
 11
15.010212
 21
11.360291
 31
0.0
  0
LINE
  5
486
330
5B7
100
AcDbEntity
  8
1
100
AcDbLine
 10
15.010212
 20
11.360291
 30
0.0
 11
14.525665
 21
11.256207
 31
0.0
  0
LINE
  5
487
330
5B7
100
AcDbEntity
  8
1
100
AcDbLine
 10
14.525665
 20
11.256207
 30
0.0
 11
14.040566
 21
11.150832
 31
0.0
  0
LINE
  5
488
330
5B7
100
AcDbEntity
  8
1
100
AcDbLine
 10
14.040566
 20
11.150832
 30
0.0
 11
13.554909
 21
11.044186
 31
0.0
  0
LINE
  5
489
330
5B7
100
AcDbEntity
  8
1
100
AcDbLine
 10
13.554909
 20
11.044186
 30
0.0
 11
13.068702
 21
10.93627
 31
0.0
  0
LINE
  5
48A
330
5B7
100
AcDbEntity
  8
1
100
AcDbLine
 10
13.068702
 20
10.93627
 30
0.0
 11
12.581965
 21
10.827061
 31
0.0
  0
LINE
  5
48B
330
5B7
100
AcDbEntity
  8
1
100
AcDbLine
 10
12.581965
 20
10.827061
 30
0.0
 11
12.094706
 21
10.716559
 31
0.0
  0
LINE
  5
48C
330
5B7
100
AcDbEntity
  8
1
100
AcDbLine
 10
12.094706
 20
10.716559
 30
0.0
 11
11.606917
 21
10.604783
 31
0.0
  0
LINE
  5
48D
330
5B7
100
AcDbEntity
  8
1
100
AcDbLine
 10
11.606917
 20
10.604783
 30
0.0
 11
11.118599
 21
10.491744
 31
0.0
  0
LINE
  5
48E
330
5B7
100
AcDbEntity
  8
1
100
AcDbLine
 10
15.60665499999999
 20
11.262515
 30
0.0
 11
15.110259
 21
11.154496
 31
0.0
  0
LINE
  5
48F
330
5B7
100
AcDbEntity
  8
1
100
AcDbLine
 10
15.110259
 20
11.154496
 30
0.0
 11
14.613233
 21
11.045156
 31
0.0
  0
LINE
  5
490
330
5B7
100
AcDbEntity
  8
1
100
AcDbLine
 10
14.613233
 20
11.045156
 30
0.0
 11
14.115576
 21
10.934495
 31
0.0
  0
LINE
  5
491
330
5B7
100
AcDbEntity
  8
1
100
AcDbLine
 10
14.115576
 20
10.934495
 30
0.0
 11
13.617206
 21
10.822495
 31
0.0
  0
LINE
  5
492
330
5B7
100
AcDbEntity
  8
1
100
AcDbLine
 10
13.617206
 20
10.822495
 30
0.0
 11
13.118205
 21
10.709174
 31
0.0
  0
LINE
  5
493
330
5B7
100
AcDbEntity
  8
1
100
AcDbLine
 10
13.118205
 20
10.709174
 30
0.0
 11
12.61882
 21
10.594584
 31
0.0
  0
LINE
  5
494
330
5B7
100
AcDbEntity
  8
1
100
AcDbLine
 10
12.61882
 20
10.594584
 30
0.0
 11
12.119131
 21
10.478743
 31
0.0
  0
LINE
  5
495
330
5B7
100
AcDbEntity
  8
1
100
AcDbLine
 10
12.119131
 20
10.478743
 30
0.0
 11
11.619057
 21
10.361633
 31
0.0
  0
LINE
  5
496
330
5B7
100
AcDbEntity
  8
1
100
AcDbLine
 10
11.619057
 20
10.361633
 30
0.0
 11
11.118599
 21
10.243255
 31
0.0
  0
LINE
  5
497
330
5B7
100
AcDbEntity
  8
1
100
AcDbLine
 10
15.1
 20
6.772041999999999
 30
0.0
 11
13.970211
 21
6.507830999999999
 31
0.0
  0
LINE
  5
498
330
5B7
100
AcDbEntity
  8
1
100
AcDbLine
 10
11.118599
 20
10.491744
 30
0.0
 11
11.118599
 21
10.243255
 31
0.0
  0
LINE
  5
499
330
5B7
100
AcDbEntity
  8
1
100
AcDbLine
 10
13.970211
 20
6.507830999999999
 30
0.0
 11
13.205638
 21
6.329333999999999
 31
0.0
  0
LINE
  5
49A
330
5B7
100
AcDbEntity
  8
1
100
AcDbLine
 10
10.716483
 20
10.099976
 30
0.0
 11
11.118599
 21
10.243255
 31
0.0
  0
LINE
  5
49B
330
5B7
100
AcDbEntity
  8
1
100
AcDbLine
 10
15.494102
 20
11.463272
 30
0.0
 11
15.511965
 21
11.430207
 31
0.0
  0
LINE
  5
49C
330
5B7
100
AcDbEntity
  8
1
100
AcDbLine
 10
15.511965
 20
11.430207
 30
0.0
 11
15.530187
 21
11.396983
 31
0.0
  0
LINE
  5
49D
330
5B7
100
AcDbEntity
  8
1
100
AcDbLine
 10
15.530187
 20
11.396983
 30
0.0
 11
15.548767
 21
11.363603
 31
0.0
  0
LINE
  5
49E
330
5B7
100
AcDbEntity
  8
1
100
AcDbLine
 10
15.548767
 20
11.363603
 30
0.0
 11
15.567705
 21
11.330064
 31
0.0
  0
LINE
  5
49F
330
5B7
100
AcDbEntity
  8
1
100
AcDbLine
 10
15.567705
 20
11.330064
 30
0.0
 11
15.587001
 21
11.296368
 31
0.0
  0
LINE
  5
4A0
330
5B7
100
AcDbEntity
  8
1
100
AcDbLine
 10
15.587001
 20
11.296368
 30
0.0
 11
15.60665499999999
 21
11.262515
 31
0.0
  0
LINE
  5
4A1
330
5B7
100
AcDbEntity
  8
1
100
AcDbLine
 10
17.0
 20
8.363774000000001
 30
0.0
 11
16.900571
 21
8.430894999999999
 31
0.0
  0
LINE
  5
4A2
330
5B7
100
AcDbEntity
  8
1
100
AcDbLine
 10
15.494218
 20
11.463251
 30
0.0
 11
17.0
 21
11.192315
 31
0.0
  0
LINE
  5
4A3
330
5B7
100
AcDbEntity
  8
1
100
AcDbLine
 10
17.0
 20
11.011809
 30
0.0
 11
15.60665499999999
 21
11.262515
 31
0.0
  0
LINE
  5
4A4
330
5B7
100
AcDbEntity
  8
1
100
AcDbLine
 10
15.585615
 20
6.911622
 30
0.0
 11
15.1
 21
6.772041999999999
 31
0.0
  0
LINE
  5
4A5
330
5B7
100
AcDbEntity
  8
1
100
AcDbLine
 10
16.052024
 20
7.046280999999999
 30
0.0
 11
15.585615
 21
6.911622
 31
0.0
  0
LINE
  5
4A6
330
5B7
100
AcDbEntity
  8
1
100
AcDbLine
 10
16.5
 20
7.176232
 30
0.0
 11
16.052024
 21
7.046280999999999
 31
0.0
  0
LINE
  5
4A7
330
5B7
100
AcDbEntity
  8
1
100
AcDbLine
 10
15.1
 20
14.143534
 30
0.0
 11
14.725672
 21
14.118728
 31
0.0
  0
LINE
  5
4A8
330
5B7
100
AcDbEntity
  8
1
100
AcDbLine
 10
14.725672
 20
14.118728
 30
0.0
 11
14.349076
 21
14.093221
 31
0.0
  0
LINE
  5
4A9
330
5B7
100
AcDbEntity
  8
1
100
AcDbLine
 10
14.349076
 20
14.093221
 30
0.0
 11
13.970211
 21
14.067015
 31
0.0
  0
LINE
  5
4AA
330
5B7
100
AcDbEntity
  8
1
100
AcDbLine
 10
13.970211
 20
14.067015
 30
0.0
 11
13.589059
 21
14.040111
 31
0.0
  0
LINE
  5
4AB
330
5B7
100
AcDbEntity
  8
1
100
AcDbLine
 10
13.589059
 20
14.040111
 30
0.0
 11
13.205638
 21
14.012507
 31
0.0
  0
LINE
  5
4AC
330
5B7
100
AcDbEntity
  8
1
100
AcDbLine
 10
13.205638
 20
14.012507
 30
0.0
 11
12.820003
 21
13.984199
 31
0.0
  0
LINE
  5
4AD
330
5B7
100
AcDbEntity
  8
1
100
AcDbLine
 10
12.820003
 20
13.984199
 30
0.0
 11
12.432173
 21
13.955184
 31
0.0
  0
LINE
  5
4AE
330
5B7
100
AcDbEntity
  8
1
100
AcDbLine
 10
12.432173
 20
13.955184
 30
0.0
 11
12.042128
 21
13.925465
 31
0.0
  0
LINE
  5
4AF
330
5B7
100
AcDbEntity
  8
1
100
AcDbLine
 10
12.042128
 20
13.925465
 30
0.0
 11
11.649869
 21
13.89504
 31
0.0
  0
LINE
  5
4B0
330
5B7
100
AcDbEntity
  8
1
100
AcDbLine
 10
15.1
 20
13.433027
 30
0.0
 11
15.106676
 21
13.410367
 31
0.0
  0
LINE
  5
4B1
330
5B7
100
AcDbEntity
  8
1
100
AcDbLine
 10
15.106676
 20
13.410367
 30
0.0
 11
15.112132
 21
13.388258
 31
0.0
  0
LINE
  5
4B2
330
5B7
100
AcDbEntity
  8
1
100
AcDbLine
 10
15.112132
 20
13.388258
 30
0.0
 11
15.11637
 21
13.3667
 31
0.0
  0
LINE
  5
4B3
330
5B7
100
AcDbEntity
  8
1
100
AcDbLine
 10
15.11637
 20
13.3667
 30
0.0
 11
15.119382
 21
13.345715
 31
0.0
  0
LINE
  5
4B4
330
5B7
100
AcDbEntity
  8
1
100
AcDbLine
 10
15.119382
 20
13.345715
 30
0.0
 11
15.121176
 21
13.325281
 31
0.0
  0
LINE
  5
4B5
330
5B7
100
AcDbEntity
  8
1
100
AcDbLine
 10
15.121176
 20
13.325281
 30
0.0
 11
15.121769
 21
13.305335
 31
0.0
  0
LINE
  5
4B6
330
5B7
100
AcDbEntity
  8
1
100
AcDbLine
 10
15.121769
 20
13.305335
 30
0.0
 11
15.121176
 21
13.28587
 31
0.0
  0
LINE
  5
4B7
330
5B7
100
AcDbEntity
  8
1
100
AcDbLine
 10
15.121176
 20
13.28587
 30
0.0
 11
15.119382
 21
13.266892
 31
0.0
  0
LINE
  5
4B8
330
5B7
100
AcDbEntity
  8
1
100
AcDbLine
 10
15.119382
 20
13.266892
 30
0.0
 11
15.11637
 21
13.248353
 31
0.0
  0
LINE
  5
4B9
330
5B7
100
AcDbEntity
  8
1
100
AcDbLine
 10
15.11637
 20
13.248353
 30
0.0
 11
15.112132
 21
13.230237
 31
0.0
  0
LINE
  5
4BA
330
5B7
100
AcDbEntity
  8
1
100
AcDbLine
 10
15.112132
 20
13.230237
 30
0.0
 11
15.106676
 21
13.212559
 31
0.0
  0
LINE
  5
4BB
330
5B7
100
AcDbEntity
  8
1
100
AcDbLine
 10
15.106676
 20
13.212559
 30
0.0
 11
15.1
 21
13.195319
 31
0.0
  0
LINE
  5
4BC
330
5B7
100
AcDbEntity
  8
1
100
AcDbLine
 10
16.5
 20
13.554333
 30
0.0
 11
16.352723
 21
13.618755
 31
0.0
  0
LINE
  5
4BD
330
5B7
100
AcDbEntity
  8
1
100
AcDbLine
 10
16.352723
 20
13.618755
 30
0.0
 11
16.203398
 21
13.683432
 31
0.0
  0
LINE
  5
4BE
330
5B7
100
AcDbEntity
  8
1
100
AcDbLine
 10
16.203398
 20
13.683432
 30
0.0
 11
16.052024
 21
13.748364
 31
0.0
  0
LINE
  5
4BF
330
5B7
100
AcDbEntity
  8
1
100
AcDbLine
 10
16.052024
 20
13.748364
 30
0.0
 11
15.898631
 21
13.813544
 31
0.0
  0
LINE
  5
4C0
330
5B7
100
AcDbEntity
  8
1
100
AcDbLine
 10
15.898631
 20
13.813544
 30
0.0
 11
15.74319
 21
13.878979
 31
0.0
  0
LINE
  5
4C1
330
5B7
100
AcDbEntity
  8
1
100
AcDbLine
 10
15.74319
 20
13.878979
 30
0.0
 11
15.585615
 21
13.944693
 31
0.0
  0
LINE
  5
4C2
330
5B7
100
AcDbEntity
  8
1
100
AcDbLine
 10
15.585615
 20
13.944693
 30
0.0
 11
15.425877
 21
14.010695
 31
0.0
  0
LINE
  5
4C3
330
5B7
100
AcDbEntity
  8
1
100
AcDbLine
 10
15.425877
 20
14.010695
 30
0.0
 11
15.264006
 21
14.076975
 31
0.0
  0
LINE
  5
4C4
330
5B7
100
AcDbEntity
  8
1
100
AcDbLine
 10
15.264006
 20
14.076975
 30
0.0
 11
15.1
 21
14.143534
 31
0.0
  0
LINE
  5
4C5
330
5B7
100
AcDbEntity
  8
1
100
AcDbLine
 10
16.5
 20
13.554333
 30
0.0
 11
16.5
 21
12.542476
 31
0.0
  0
LINE
  5
4C6
330
5B7
100
AcDbEntity
  8
1
100
AcDbLine
 10
15.1
 20
13.195319
 30
0.0
 11
15.1
 21
12.794379
 31
0.0
  0
LINE
  5
4C7
330
5B7
100
AcDbEntity
  8
1
100
AcDbLine
 10
15.1
 20
14.143534
 30
0.0
 11
15.1
 21
13.433027
 31
0.0
  0
LINE
  5
4C8
330
5B7
100
AcDbEntity
  8
1
100
AcDbLine
 10
15.1
 20
13.433027
 30
0.0
 11
15.097444
 21
13.407644
 31
0.0
  0
LINE
  5
4C9
330
5B7
100
AcDbEntity
  8
1
100
AcDbLine
 10
15.097444
 20
13.407644
 30
0.0
 11
15.095528
 21
13.382006
 31
0.0
  0
LINE
  5
4CA
330
5B7
100
AcDbEntity
  8
1
100
AcDbLine
 10
15.095528
 20
13.382006
 30
0.0
 11
15.09425
 21
13.356113
 31
0.0
  0
LINE
  5
4CB
330
5B7
100
AcDbEntity
  8
1
100
AcDbLine
 10
15.09425
 20
13.356113
 30
0.0
 11
15.093611
 21
13.329967
 31
0.0
  0
LINE
  5
4CC
330
5B7
100
AcDbEntity
  8
1
100
AcDbLine
 10
15.093611
 20
13.329967
 30
0.0
 11
15.093611
 21
13.303566
 31
0.0
  0
LINE
  5
4CD
330
5B7
100
AcDbEntity
  8
1
100
AcDbLine
 10
15.093611
 20
13.303566
 30
0.0
 11
15.09425
 21
13.276902
 31
0.0
  0
LINE
  5
4CE
330
5B7
100
AcDbEntity
  8
1
100
AcDbLine
 10
15.09425
 20
13.276902
 30
0.0
 11
15.095528
 21
13.249971
 31
0.0
  0
LINE
  5
4CF
330
5B7
100
AcDbEntity
  8
1
100
AcDbLine
 10
15.095528
 20
13.249971
 30
0.0
 11
15.097444
 21
13.222777
 31
0.0
  0
LINE
  5
4D0
330
5B7
100
AcDbEntity
  8
1
100
AcDbLine
 10
15.097444
 20
13.222777
 30
0.0
 11
15.1
 21
13.195319
 31
0.0
  0
LINE
  5
4D1
330
5B7
100
AcDbEntity
  8
1
100
AcDbLine
 10
17.0
 20
12.45251
 30
0.0
 11
15.039556
 21
12.805255
 31
0.0
  0
LINE
  5
4D2
330
5B7
100
AcDbEntity
  8
1
100
AcDbLine
 10
11.14743
 20
15.0
 30
0.0
 11
15.6
 21
15.0
 31
0.0
  0
LINE
  5
4D3
330
5B7
100
AcDbEntity
  8
1
100
AcDbLine
 10
11.147534
 20
-15.0
 30
0.0
 11
15.445819
 21
-15.0
 31
0.0
  0
LINE
  5
4D4
330
5B7
100
AcDbEntity
  8
1
100
AcDbLine
 10
10.318599
 20
14.856586
 30
0.0
 11
11.14743
 21
15.0
 31
0.0
  0
LINE
  5
4D5
330
5B7
100
AcDbEntity
  8
1
100
AcDbLine
 10
15.039556
 20
-13.905642
 30
0.0
 11
15.445819
 21
-15.0
 31
0.0
  0
LINE
  5
4D6
330
5B7
100
AcDbEntity
  8
SK4
100
AcDbLine
 10
17.46284
 20
0.0
 30
0.0
 11
-14.85
 21
0.0
 31
0.0
  0
LINE
  5
4D7
330
5B7
100
AcDbEntity
  8
SK1
100
AcDbLine
 10
-11.85
 20
9.138187
 30
0.0
 11
0.0
 21
10.174174
 31
0.0
  0
LINE
  5
4D8
330
5B7
100
AcDbEntity
  8
SK1
100
AcDbLine
 10
-11.85
 20
-9.138185999999999
 30
0.0
 11
0.0
 21
-10.174174
 31
0.0
  0
LINE
  5
4D9
330
5B7
100
AcDbEntity
  8
SK1
100
AcDbLine
 10
-11.85
 20
9.138187
 30
0.0
 11
-11.85
 21
-9.138185999999999
 31
0.0
  0
LINE
  5
4DA
330
5B7
100
AcDbEntity
  8
SK1
100
AcDbLine
 10
-14.85
 20
-8.638185999999999
 30
0.0
 11
-14.85
 21
8.638187
 31
0.0
  0
LINE
  5
4DB
330
5B7
100
AcDbEntity
  8
SK1
100
AcDbLine
 10
-14.85
 20
-8.638185999999999
 30
0.0
 11
-11.85
 21
-8.638185999999999
 31
0.0
  0
LINE
  5
4DC
330
5B7
100
AcDbEntity
  8
SK1
100
AcDbLine
 10
-14.85
 20
8.638187
 30
0.0
 11
-11.85
 21
8.638187
 31
0.0
  0
LINE
  5
4DD
330
5B7
100
AcDbEntity
  8
80
100
AcDbLine
 10
0.0
 20
0.0
 30
0.0
 11
-14.85
 21
0.0
 31
0.0
  0
LINE
  5
4DE
330
5B7
100
AcDbEntity
  8
81
100
AcDbLine
 10
17.0
 20
0.0
 30
0.0
 11
24.840457
 21
0.0
 31
0.0
  0
LINE
  5
4DF
330
5B7
100
AcDbEntity
  8
4
100
AcDbLine
 10
0.0
 20
0.0
 30
0.0
 11
20.501131
 21
0.0
 31
0.0
  0
POINT
  5
4E0
330
5B7
100
AcDbEntity
  8
81
100
AcDbPoint
 10
17.0
 20
15.0
 30
0.0
  0
POINT
  5
4E1
330
5B7
100
AcDbEntity
  8
80
100
AcDbPoint
 10
0.0
 20
0.0
 30
0.0
  0
TEXT
  5
4E2
330
5B7
100
AcDbEntity
  8
SK6
100
AcDbText
 10
-15.556537
 20
20.010209
 30
0.0
 40
3.5
  1
HFS20
 41
0.7932541276595743
  7
SANDVIK_STYLE
 72
     5
 11
-3.128889
 21
20.010209
 31
0.0
100
AcDbText
  0
TEXT
  5
4E3
330
5B7
100
AcDbEntity
  8
SK6
100
AcDbText
 10
-23.048029
 20
-37.886565
 30
0.0
 40
3.5
  1
830A-E06D3000H7S20
 41
0.7988461648351655
  7
SANDVIK_STYLE
 72
     5
 11
25.415305
 21
-37.886565
 31
0.0
100
AcDbText
  0
TEXT
  5
4E4
330
5B7
100
AcDbEntity
  8
2
100
AcDbText
 10
10.743403
 20
30.58275
 30
0.0
 40
3.5
  1
L=17 
100
AcDbText
  0
INSERT
  5
4E5
330
5B7
100
AcDbEntity
  8
2
100
AcDbBlockReference
  2
*D0
 10
0.0
 20
0.0
 30
0.0
  0
TEXT
  5
4E6
330
5B7
100
AcDbEntity
  8
2
100
AcDbText
 10
31.41725
 20
1.652777999999999
 30
0.0
 40
3.5
  1
%%c30 H7
 50
90.0
100
AcDbText
  0
INSERT
  5
4E7
330
5B7
100
AcDbEntity
  8
2
100
AcDbBlockReference
  2
*D1
 10
0.0
 20
0.0
 30
0.0
  0
ENDSEC
  0
SECTION
  2
OBJECTS
  0
DICTIONARY
  5
553
330
0
100
AcDbDictionary
281
     1
  3
ACAD_CIP_PREVIOUS_PRODUCT_INFO
350
5EA
  3
ACAD_COLOR
350
5A9
  3
ACAD_DETAILVIEWSTYLE
350
5B1
  3
ACAD_GROUP
350
554
  3
ACAD_LAYOUT
350
5A8
  3
ACAD_MATERIAL
350
557
  3
ACAD_MLEADERSTYLE
350
5AC
  3
ACAD_MLINESTYLE
350
5A5
  3
ACAD_PLOTSETTINGS
350
5A7
  3
ACAD_PLOTSTYLENAME
350
555
  3
ACAD_SCALELIST
350
589
  3
ACAD_SECTIONVIEWSTYLE
350
5AE
  3
ACAD_TABLESTYLE
350
5AA
  3
ACAD_VISUALSTYLE
350
570
  3
ACDB_RECOMPOSE_DATA
350
646
  3
AcDbVariableDictionary
350
639
  3
DWGPROPS
350
647
  0
DICTIONARY
  5
5ED
330
59B
100
AcDbDictionary
280
     1
281
     1
  3
ADSK_XREC_LAYER_RECONCILED
360
5EE
  0
DICTIONARY
  5
5EF
330
5BB
100
AcDbDictionary
280
     1
281
     1
  3
ADSK_XREC_LAYER_RECONCILED
360
5F0
  0
DICTIONARY
  5
5F1
330
5BF
100
AcDbDictionary
280
     1
281
     1
  3
ADSK_XREC_LAYER_RECONCILED
360
5F2
  0
DICTIONARY
  5
5F3
330
5C0
100
AcDbDictionary
280
     1
281
     1
  3
ADSK_XREC_LAYER_RECONCILED
360
5F4
  0
DICTIONARY
  5
5F5
330
5C1
100
AcDbDictionary
280
     1
281
     1
  3
ADSK_XREC_LAYER_RECONCILED
360
5F6
  0
DICTIONARY
  5
5F7
330
5C2
100
AcDbDictionary
280
     1
281
     1
  3
ADSK_XREC_LAYER_RECONCILED
360
5F8
  0
DICTIONARY
  5
5F9
330
5C3
100
AcDbDictionary
280
     1
281
     1
  3
ADSK_XREC_LAYER_RECONCILED
360
5FA
  0
DICTIONARY
  5
5FB
330
5C4
100
AcDbDictionary
280
     1
281
     1
  3
ADSK_XREC_LAYER_RECONCILED
360
5FC
  0
DICTIONARY
  5
5FD
330
5C5
100
AcDbDictionary
280
     1
281
     1
  3
ADSK_XREC_LAYER_RECONCILED
360
5FE
  0
DICTIONARY
  5
5FF
330
5C6
100
AcDbDictionary
280
     1
281
     1
  3
ADSK_XREC_LAYER_RECONCILED
360
600
  0
DICTIONARY
  5
601
330
5C7
100
AcDbDictionary
280
     1
281
     1
  3
ADSK_XREC_LAYER_RECONCILED
360
602
  0
DICTIONARY
  5
603
330
5C8
100
AcDbDictionary
280
     1
281
     1
  3
ADSK_XREC_LAYER_RECONCILED
360
604
  0
DICTIONARY
  5
605
330
5C9
100
AcDbDictionary
280
     1
281
     1
  3
ADSK_XREC_LAYER_RECONCILED
360
606
  0
DICTIONARY
  5
607
330
5CA
100
AcDbDictionary
280
     1
281
     1
  3
ADSK_XREC_LAYER_RECONCILED
360
608
  0
DICTIONARY
  5
609
330
5CB
100
AcDbDictionary
280
     1
281
     1
  3
ADSK_XREC_LAYER_RECONCILED
360
60A
  0
DICTIONARY
  5
60B
330
5CC
100
AcDbDictionary
280
     1
281
     1
  3
ADSK_XREC_LAYER_RECONCILED
360
60C
  0
DICTIONARY
  5
60D
330
5CD
100
AcDbDictionary
280
     1
281
     1
  3
ADSK_XREC_LAYER_RECONCILED
360
60E
  0
DICTIONARY
  5
60F
330
5CE
100
AcDbDictionary
280
     1
281
     1
  3
ADSK_XREC_LAYER_RECONCILED
360
610
  0
DICTIONARY
  5
611
330
5CF
100
AcDbDictionary
280
     1
281
     1
  3
ADSK_XREC_LAYER_RECONCILED
360
612
  0
DICTIONARY
  5
613
330
5D0
100
AcDbDictionary
280
     1
281
     1
  3
ADSK_XREC_LAYER_RECONCILED
360
614
  0
DICTIONARY
  5
615
330
5D1
100
AcDbDictionary
280
     1
281
     1
  3
ADSK_XREC_LAYER_RECONCILED
360
616
  0
DICTIONARY
  5
617
330
5D2
100
AcDbDictionary
280
     1
281
     1
  3
ADSK_XREC_LAYER_RECONCILED
360
618
  0
DICTIONARY
  5
619
330
5D3
100
AcDbDictionary
280
     1
281
     1
  3
ADSK_XREC_LAYER_RECONCILED
360
61A
  0
DICTIONARY
  5
61B
330
5D4
100
AcDbDictionary
280
     1
281
     1
  3
ADSK_XREC_LAYER_RECONCILED
360
61C
  0
DICTIONARY
  5
61D
330
5D5
100
AcDbDictionary
280
     1
281
     1
  3
ADSK_XREC_LAYER_RECONCILED
360
61E
  0
DICTIONARY
  5
61F
330
5D6
100
AcDbDictionary
280
     1
281
     1
  3
ADSK_XREC_LAYER_RECONCILED
360
620
  0
DICTIONARY
  5
621
330
5D7
100
AcDbDictionary
280
     1
281
     1
  3
ADSK_XREC_LAYER_RECONCILED
360
622
  0
DICTIONARY
  5
623
330
5D8
100
AcDbDictionary
280
     1
281
     1
  3
ADSK_XREC_LAYER_RECONCILED
360
624
  0
DICTIONARY
  5
625
330
5D9
100
AcDbDictionary
280
     1
281
     1
  3
ADSK_XREC_LAYER_RECONCILED
360
626
  0
DICTIONARY
  5
627
330
5DA
100
AcDbDictionary
280
     1
281
     1
  3
ADSK_XREC_LAYER_RECONCILED
360
628
  0
DICTIONARY
  5
629
330
5DB
100
AcDbDictionary
280
     1
281
     1
  3
ADSK_XREC_LAYER_RECONCILED
360
62A
  0
DICTIONARY
  5
62B
330
5DC
100
AcDbDictionary
280
     1
281
     1
  3
ADSK_XREC_LAYER_RECONCILED
360
62C
  0
DICTIONARY
  5
62D
330
5DD
100
AcDbDictionary
280
     1
281
     1
  3
ADSK_XREC_LAYER_RECONCILED
360
62E
  0
DICTIONARY
  5
62F
330
5DE
100
AcDbDictionary
280
     1
281
     1
  3
ADSK_XREC_LAYER_RECONCILED
360
630
  0
DICTIONARY
  5
631
330
5DF
100
AcDbDictionary
280
     1
281
     1
  3
ADSK_XREC_LAYER_RECONCILED
360
632
  0
DICTIONARY
  5
633
330
5E0
100
AcDbDictionary
280
     1
281
     1
  3
ADSK_XREC_LAYER_RECONCILED
360
634
  0
DICTIONARY
  5
635
330
5E1
100
AcDbDictionary
280
     1
281
     1
  3
ADSK_XREC_LAYER_RECONCILED
360
636
  0
DICTIONARY
  5
637
330
5E2
100
AcDbDictionary
280
     1
281
     1
  3
ADSK_XREC_LAYER_RECONCILED
360
638
  0
XRECORD
  5
5EA
102
{ACAD_REACTORS
330
553
102
}
330
553
100
AcDbXrecord
280
     1
300
AMECH_PP
300
2013
300
PDSU_F_S
  0
DICTIONARY
  5
5A9
102
{ACAD_REACTORS
330
553
102
}
330
553
100
AcDbDictionary
281
     1
  0
DICTIONARY
  5
5B1
102
{ACAD_REACTORS
330
553
102
}
330
553
100
AcDbDictionary
281
     1
  3
Imperial24
350
5B2
  0
DICTIONARY
  5
554
102
{ACAD_REACTORS
330
553
102
}
330
553
100
AcDbDictionary
281
     1
  0
DICTIONARY
  5
5A8
102
{ACAD_REACTORS
330
553
102
}
330
553
100
AcDbDictionary
281
     1
  3
Layout1
350
5B6
  3
Model
350
5BA
  0
DICTIONARY
  5
557
102
{ACAD_REACTORS
330
553
102
}
330
553
100
AcDbDictionary
281
     1
  3
ByBlock
350
560
  3
ByLayer
350
558
  3
Global
350
568
  0
DICTIONARY
  5
5AC
102
{ACAD_REACTORS
330
553
102
}
330
553
100
AcDbDictionary
281
     1
  3
Standard
350
5AD
  0
DICTIONARY
  5
5A5
102
{ACAD_REACTORS
330
553
102
}
330
553
100
AcDbDictionary
281
     1
  3
Standard
350
5A6
  0
DICTIONARY
  5
5A7
102
{ACAD_REACTORS
330
553
102
}
330
553
100
AcDbDictionary
281
     1
  0
ACDBDICTIONARYWDFLT
  5
555
102
{ACAD_REACTORS
330
553
102
}
330
553
100
AcDbDictionary
281
     1
  3
Normal
350
556
100
AcDbDictionaryWithDefault
340
556
  0
DICTIONARY
  5
589
102
{ACAD_REACTORS
330
553
102
}
330
553
100
AcDbDictionary
281
     1
  3
A0
350
58A
  3
A1
350
58B
  3
A2
350
58C
  3
A3
350
58D
  3
A4
350
58E
  3
A5
350
58F
  3
A6
350
590
  3
A7
350
591
  3
A8
350
592
  3
A9
350
593
  3
B0
350
594
  3
B1
350
595
  3
B2
350
596
  3
B3
350
597
  3
B4
350
598
  3
B5
350
599
  3
B6
350
59A
  0
DICTIONARY
  5
5AE
102
{ACAD_REACTORS
330
553
102
}
330
553
100
AcDbDictionary
281
     1
  3
Imperial24
350
5B0
  0
DICTIONARY
  5
5AA
102
{ACAD_REACTORS
330
553
102
}
330
553
100
AcDbDictionary
281
     1
  3
Standard
350
5AB
  0
DICTIONARY
  5
570
102
{ACAD_REACTORS
330
553
102
}
330
553
100
AcDbDictionary
281
     1
  3
2dWireframe
350
576
  3
Basic
350
575
  3
Brighten
350
57C
  3
ColorChange
350
580
  3
Conceptual
350
579
  3
Dim
350
57B
  3
EdgeColorOff
350
588
  3
Facepattern
350
57F
  3
Flat
350
571
  3
FlatWithEdges
350
572
  3
Gouraud
350
573
  3
GouraudWithEdges
350
574
  3
Hidden
350
578
  3
JitterOff
350
586
  3
Linepattern
350
57E
  3
OverhangOff
350
587
  3
Realistic
350
57A
  3
Shaded
350
585
  3
Shaded with edges
350
584
  3
Shades of Gray
350
581
  3
Sketchy
350
582
  3
Thicken
350
57D
  3
Wireframe
350
577
  3
X-Ray
350
583
  0
XRECORD
  5
646
102
{ACAD_REACTORS
330
553
102
}
330
553
100
AcDbXrecord
280
     1
 90
        1
330
5AB
  0
DICTIONARY
  5
639
102
{ACAD_REACTORS
330
553
102
}
330
553
100
AcDbDictionary
281
     1
  3
CANNOSCALE
350
63E
  3
CMLEADERSTYLE
350
63B
  3
CTABLESTYLE
350
63A
  3
CVIEWDETAILSTYLE
350
63C
  3
CVIEWSECTIONSTYLE
350
63D
  3
DIMASSOC
350
641
  3
INDEXCTL
350
640
  3
SORTENTS
350
63F
  3
XCLIPFRAME
350
642
  0
XRECORD
  5
647
102
{ACAD_REACTORS
330
553
102
}
330
553
100
AcDbXrecord
280
     1
  1
DWGPROPS COOKIE
  2

  3

  4

  6

  7

  8
Micke
  9

300
=
301
=
302
=
303
=
304
=
305
=
306
=
307
=
308
=
309
=
 40
0.000004212962963
 41
2456818.319482558
 42
2456818.319486702
  1

 90
        0
  0
XRECORD
  5
5EE
102
{ACAD_REACTORS
330
5ED
102
}
330
5ED
100
AcDbXrecord
280
     1
290
     1
  0
XRECORD
  5
5F0
102
{ACAD_REACTORS
330
5EF
102
}
330
5EF
100
AcDbXrecord
280
     1
290
     1
  0
XRECORD
  5
5F2
102
{ACAD_REACTORS
330
5F1
102
}
330
5F1
100
AcDbXrecord
280
     1
290
     1
  0
XRECORD
  5
5F4
102
{ACAD_REACTORS
330
5F3
102
}
330
5F3
100
AcDbXrecord
280
     1
290
     1
  0
XRECORD
  5
5F6
102
{ACAD_REACTORS
330
5F5
102
}
330
5F5
100
AcDbXrecord
280
     1
290
     1
  0
XRECORD
  5
5F8
102
{ACAD_REACTORS
330
5F7
102
}
330
5F7
100
AcDbXrecord
280
     1
290
     1
  0
XRECORD
  5
5FA
102
{ACAD_REACTORS
330
5F9
102
}
330
5F9
100
AcDbXrecord
280
     1
290
     1
  0
XRECORD
  5
5FC
102
{ACAD_REACTORS
330
5FB
102
}
330
5FB
100
AcDbXrecord
280
     1
290
     1
  0
XRECORD
  5
5FE
102
{ACAD_REACTORS
330
5FD
102
}
330
5FD
100
AcDbXrecord
280
     1
290
     1
  0
XRECORD
  5
600
102
{ACAD_REACTORS
330
5FF
102
}
330
5FF
100
AcDbXrecord
280
     1
290
     1
  0
XRECORD
  5
602
102
{ACAD_REACTORS
330
601
102
}
330
601
100
AcDbXrecord
280
     1
290
     1
  0
XRECORD
  5
604
102
{ACAD_REACTORS
330
603
102
}
330
603
100
AcDbXrecord
280
     1
290
     1
  0
XRECORD
  5
606
102
{ACAD_REACTORS
330
605
102
}
330
605
100
AcDbXrecord
280
     1
290
     1
  0
XRECORD
  5
608
102
{ACAD_REACTORS
330
607
102
}
330
607
100
AcDbXrecord
280
     1
290
     1
  0
XRECORD
  5
60A
102
{ACAD_REACTORS
330
609
102
}
330
609
100
AcDbXrecord
280
     1
290
     1
  0
XRECORD
  5
60C
102
{ACAD_REACTORS
330
60B
102
}
330
60B
100
AcDbXrecord
280
     1
290
     1
  0
XRECORD
  5
60E
102
{ACAD_REACTORS
330
60D
102
}
330
60D
100
AcDbXrecord
280
     1
290
     1
  0
XRECORD
  5
610
102
{ACAD_REACTORS
330
60F
102
}
330
60F
100
AcDbXrecord
280
     1
290
     1
  0
XRECORD
  5
612
102
{ACAD_REACTORS
330
611
102
}
330
611
100
AcDbXrecord
280
     1
290
     1
  0
XRECORD
  5
614
102
{ACAD_REACTORS
330
613
102
}
330
613
100
AcDbXrecord
280
     1
290
     1
  0
XRECORD
  5
616
102
{ACAD_REACTORS
330
615
102
}
330
615
100
AcDbXrecord
280
     1
290
     1
  0
XRECORD
  5
618
102
{ACAD_REACTORS
330
617
102
}
330
617
100
AcDbXrecord
280
     1
290
     1
  0
XRECORD
  5
61A
102
{ACAD_REACTORS
330
619
102
}
330
619
100
AcDbXrecord
280
     1
290
     1
  0
XRECORD
  5
61C
102
{ACAD_REACTORS
330
61B
102
}
330
61B
100
AcDbXrecord
280
     1
290
     1
  0
XRECORD
  5
61E
102
{ACAD_REACTORS
330
61D
102
}
330
61D
100
AcDbXrecord
280
     1
290
     1
  0
XRECORD
  5
620
102
{ACAD_REACTORS
330
61F
102
}
330
61F
100
AcDbXrecord
280
     1
290
     1
  0
XRECORD
  5
622
102
{ACAD_REACTORS
330
621
102
}
330
621
100
AcDbXrecord
280
     1
290
     1
  0
XRECORD
  5
624
102
{ACAD_REACTORS
330
623
102
}
330
623
100
AcDbXrecord
280
     1
290
     1
  0
XRECORD
  5
626
102
{ACAD_REACTORS
330
625
102
}
330
625
100
AcDbXrecord
280
     1
290
     1
  0
XRECORD
  5
628
102
{ACAD_REACTORS
330
627
102
}
330
627
100
AcDbXrecord
280
     1
290
     1
  0
XRECORD
  5
62A
102
{ACAD_REACTORS
330
629
102
}
330
629
100
AcDbXrecord
280
     1
290
     1
  0
XRECORD
  5
62C
102
{ACAD_REACTORS
330
62B
102
}
330
62B
100
AcDbXrecord
280
     1
290
     1
  0
XRECORD
  5
62E
102
{ACAD_REACTORS
330
62D
102
}
330
62D
100
AcDbXrecord
280
     1
290
     1
  0
XRECORD
  5
630
102
{ACAD_REACTORS
330
62F
102
}
330
62F
100
AcDbXrecord
280
     1
290
     1
  0
XRECORD
  5
632
102
{ACAD_REACTORS
330
631
102
}
330
631
100
AcDbXrecord
280
     1
290
     1
  0
XRECORD
  5
634
102
{ACAD_REACTORS
330
633
102
}
330
633
100
AcDbXrecord
280
     1
290
     1
  0
XRECORD
  5
636
102
{ACAD_REACTORS
330
635
102
}
330
635
100
AcDbXrecord
280
     1
290
     1
  0
XRECORD
  5
638
102
{ACAD_REACTORS
330
637
102
}
330
637
100
AcDbXrecord
280
     1
290
     1
  0
ACDBDETAILVIEWSTYLE
  5
5B2
102
{ACAD_REACTORS
330
5B1
102
}
330
5B1
100
AcDbModelDocViewStyle
 70
     0
  3
Imperial24
290
     0
100
AcDbDetailViewStyle
 70
     0
 71
     0
 90
        3
 71
     1
340
59C
 40
0.24
340
0
 40
0.24
300

 40
0.36
280
     3
 71
     2
340
5A3
 90
       25
 71
     3
340
59C
 40
0.24
 90
        1
 40
0.75
 90
        1
300
%<\AcVar ViewType \f "%tc1">% %<\AcVar ViewDetailId>%\PSCALE %<\AcVar ViewScale \f "%sn">%
 71
     4
340
5A3
 90
       25
340
5A3
 90
       25
280
     0
  0
LAYOUT
  5
5B6
102
{ACAD_XDICTIONARY
360
67D
102
}
102
{ACAD_REACTORS
330
5A8
102
}
330
5A8
100
AcDbPlotSettings
  1

  2
Brother DCP-9020CDW Printer
  4

  6

 40
0.0
 41
0.0
 42
0.0
 43
0.0
 44
0.0
 45
0.0
 46
0.0
 47
0.0
 48
0.0
 49
0.0
140
0.0
141
0.0
142
1.0
143
1.0
 70
   688
 72
     0
 73
     0
 74
     5
  7

 75
    16
147
1.0
148
0.0
149
0.0
100
AcDbLayout
  1
Layout1
 70
     1
 71
     1
 10
0.0
 20
0.0
 11
12.0
 21
9.0
 12
0.0
 22
0.0
 32
0.0
 14
1.000000000000000E+20
 24
1.000000000000000E+20
 34
1.000000000000000E+20
 15
-1.000000000000000E+20
 25
-1.000000000000000E+20
 35
-1.000000000000000E+20
146
0.0
 13
0.0
 23
0.0
 33
0.0
 16
1.0
 26
0.0
 36
0.0
 17
0.0
 27
1.0
 37
0.0
 76
     0
330
5B3
  0
LAYOUT
  5
5BA
102
{ACAD_XDICTIONARY
360
67F
102
}
102
{ACAD_REACTORS
330
5A8
102
}
330
5A8
100
AcDbPlotSettings
  1

  2
Brother DCP-9020CDW Printer
  4

  6

 40
0.0
 41
0.0
 42
0.0
 43
0.0
 44
0.0
 45
0.0
 46
0.0
 47
0.0
 48
0.0
 49
0.0
140
0.0
141
0.0
142
1.0
143
1.0
 70
  1712
 72
     0
 73
     0
 74
     0
  7

 75
     0
147
1.0
148
0.0
149
0.0
100
AcDbLayout
  1
Model
 70
     1
 71
     0
 10
0.0
 20
0.0
 11
12.0
 21
9.0
 12
0.0
 22
0.0
 32
0.0
 14
0.0
 24
0.0
 34
0.0
 15
0.0
 25
0.0
 35
0.0
146
0.0
 13
0.0
 23
0.0
 33
0.0
 16
1.0
 26
0.0
 36
0.0
 17
0.0
 27
1.0
 37
0.0
 76
     0
330
5B7
331
5E6
  0
MATERIAL
  5
560
102
{ACAD_XDICTIONARY
360
561
102
}
102
{ACAD_REACTORS
330
557
102
}
330
557
100
AcDbMaterial
  1
ByBlock
 72
     0
 43
0.0208333333333333
 43
0.0
 43
0.0
 43
0.0
 43
0.0
 43
0.0208333333333333
 43
0.0
 43
0.0
 43
0.0
 43
0.0
 43
1.0
 43
0.0
 43
0.0
 43
0.0
 43
0.0
 43
1.0
 77
     0
 47
0.0208333333333333
 47
0.0
 47
0.0
 47
0.0
 47
0.0
 47
0.0208333333333333
 47
0.0
 47
0.0
 47
0.0
 47
0.0
 47
1.0
 47
0.0
 47
0.0
 47
0.0
 47
0.0
 47
1.0
171
     0
 49
0.0208333333333333
 49
0.0
 49
0.0
 49
0.0
 49
0.0
 49
0.0208333333333333
 49
0.0
 49
0.0
 49
0.0
 49
0.0
 49
1.0
 49
0.0
 49
0.0
 49
0.0
 49
0.0
 49
1.0
175
     0
142
0.0208333333333333
142
0.0
142
0.0
142
0.0
142
0.0
142
0.0208333333333333
142
0.0
142
0.0
142
0.0
142
0.0
142
1.0
142
0.0
142
0.0
142
0.0
142
0.0
142
1.0
179
     0
144
0.0208333333333333
144
0.0
144
0.0
144
0.0
144
0.0
144
0.0208333333333333
144
0.0
144
0.0
144
0.0
144
0.0
144
1.0
144
0.0
144
0.0
144
0.0
144
0.0
144
1.0
147
0.0208333333333333
147
0.0
147
0.0
147
0.0
147
0.0
147
0.0208333333333333
147
0.0
147
0.0
147
0.0
147
0.0
147
1.0
147
0.0
147
0.0
147
0.0
147
0.0
147
1.0
  0
MATERIAL
  5
558
102
{ACAD_XDICTIONARY
360
559
102
}
102
{ACAD_REACTORS
330
557
102
}
330
557
100
AcDbMaterial
  1
ByLayer
 72
     0
 43
0.0208333333333333
 43
0.0
 43
0.0
 43
0.0
 43
0.0
 43
0.0208333333333333
 43
0.0
 43
0.0
 43
0.0
 43
0.0
 43
1.0
 43
0.0
 43
0.0
 43
0.0
 43
0.0
 43
1.0
 77
     0
 47
0.0208333333333333
 47
0.0
 47
0.0
 47
0.0
 47
0.0
 47
0.0208333333333333
 47
0.0
 47
0.0
 47
0.0
 47
0.0
 47
1.0
 47
0.0
 47
0.0
 47
0.0
 47
0.0
 47
1.0
171
     0
 49
0.0208333333333333
 49
0.0
 49
0.0
 49
0.0
 49
0.0
 49
0.0208333333333333
 49
0.0
 49
0.0
 49
0.0
 49
0.0
 49
1.0
 49
0.0
 49
0.0
 49
0.0
 49
0.0
 49
1.0
175
     0
142
0.0208333333333333
142
0.0
142
0.0
142
0.0
142
0.0
142
0.0208333333333333
142
0.0
142
0.0
142
0.0
142
0.0
142
1.0
142
0.0
142
0.0
142
0.0
142
0.0
142
1.0
179
     0
144
0.0208333333333333
144
0.0
144
0.0
144
0.0
144
0.0
144
0.0208333333333333
144
0.0
144
0.0
144
0.0
144
0.0
144
1.0
144
0.0
144
0.0
144
0.0
144
0.0
144
1.0
147
0.0208333333333333
147
0.0
147
0.0
147
0.0
147
0.0
147
0.0208333333333333
147
0.0
147
0.0
147
0.0
147
0.0
147
1.0
147
0.0
147
0.0
147
0.0
147
0.0
147
1.0
  0
MATERIAL
  5
568
102
{ACAD_XDICTIONARY
360
569
102
}
102
{ACAD_REACTORS
330
557
102
}
330
557
100
AcDbMaterial
  1
Global
 72
     0
 43
0.0208333333333333
 43
0.0
 43
0.0
 43
0.0
 43
0.0
 43
0.0208333333333333
 43
0.0
 43
0.0
 43
0.0
 43
0.0
 43
1.0
 43
0.0
 43
0.0
 43
0.0
 43
0.0
 43
1.0
 77
     0
 47
0.0208333333333333
 47
0.0
 47
0.0
 47
0.0
 47
0.0
 47
0.0208333333333333
 47
0.0
 47
0.0
 47
0.0
 47
0.0
 47
1.0
 47
0.0
 47
0.0
 47
0.0
 47
0.0
 47
1.0
171
     0
 49
0.0208333333333333
 49
0.0
 49
0.0
 49
0.0
 49
0.0
 49
0.0208333333333333
 49
0.0
 49
0.0
 49
0.0
 49
0.0
 49
1.0
 49
0.0
 49
0.0
 49
0.0
 49
0.0
 49
1.0
175
     0
142
0.0208333333333333
142
0.0
142
0.0
142
0.0
142
0.0
142
0.0208333333333333
142
0.0
142
0.0
142
0.0
142
0.0
142
1.0
142
0.0
142
0.0
142
0.0
142
0.0
142
1.0
179
     0
144
0.0208333333333333
144
0.0
144
0.0
144
0.0
144
0.0
144
0.0208333333333333
144
0.0
144
0.0
144
0.0
144
0.0
144
1.0
144
0.0
144
0.0
144
0.0
144
0.0
144
1.0
147
0.0208333333333333
147
0.0
147
0.0
147
0.0
147
0.0
147
0.0208333333333333
147
0.0
147
0.0
147
0.0
147
0.0
147
1.0
147
0.0
147
0.0
147
0.0
147
0.0
147
1.0
  0
MLEADERSTYLE
  5
5AD
102
{ACAD_REACTORS
330
5AC
102
}
330
5AC
100
AcDbMLeaderStyle
170
     2
171
     1
172
     0
 90
        2
 40
0.0
 41
0.0
173
     1
 91
-1056964608
340
5A1
 92
       -2
290
     1
 42
0.09
291
     1
 43
0.36
  3
Standard
 44
0.18
300

342
59C
174
     1
178
     6
175
     1
176
     0
 93
-1056964608
 45
0.18
292
     0
297
     0
 46
0.18
 94
-1056964608
 47
1.0
 49
1.0
140
1.0
293
     1
141
0.0
294
     1
177
     0
142
1.0
295
     0
296
     0
143
0.125
1001
ACAD_MLEADERVER
1070
     2
  0
MLINESTYLE
  5
5A6
102
{ACAD_REACTORS
330
5A5
102
}
330
5A5
100
AcDbMlineStyle
  2
STANDARD
 70
     0
  3

 62
   256
 51
90.0
 52
90.0
 71
     2
 49
0.5
 62
   256
  6
BYLAYER
 49
-0.5
 62
   256
  6
BYLAYER
  0
ACDBPLACEHOLDER
  5
556
102
{ACAD_REACTORS
330
555
102
}
330
555
  0
SCALE
  5
58A
102
{ACAD_REACTORS
330
589
102
}
330
589
100
AcDbScale
 70
     0
300
1:1
140
1.0
141
1.0
290
     1
  0
SCALE
  5
58B
102
{ACAD_REACTORS
330
589
102
}
330
589
100
AcDbScale
 70
     0
300
1/128" = 1'-0"
140
0.0078125
141
12.0
290
     0
  0
SCALE
  5
58C
102
{ACAD_REACTORS
330
589
102
}
330
589
100
AcDbScale
 70
     0
300
1/64" = 1'-0"
140
0.015625
141
12.0
290
     0
  0
SCALE
  5
58D
102
{ACAD_REACTORS
330
589
102
}
330
589
100
AcDbScale
 70
     0
300
1/32" = 1'-0"
140
0.03125
141
12.0
290
     0
  0
SCALE
  5
58E
102
{ACAD_REACTORS
330
589
102
}
330
589
100
AcDbScale
 70
     0
300
1/16" = 1'-0"
140
0.0625
141
12.0
290
     0
  0
SCALE
  5
58F
102
{ACAD_REACTORS
330
589
102
}
330
589
100
AcDbScale
 70
     0
300
3/32" = 1'-0"
140
0.09375
141
12.0
290
     0
  0
SCALE
  5
590
102
{ACAD_REACTORS
330
589
102
}
330
589
100
AcDbScale
 70
     0
300
1/8" = 1'-0"
140
0.125
141
12.0
290
     0
  0
SCALE
  5
591
102
{ACAD_REACTORS
330
589
102
}
330
589
100
AcDbScale
 70
     0
300
3/16" = 1'-0"
140
0.1875
141
12.0
290
     0
  0
SCALE
  5
592
102
{ACAD_REACTORS
330
589
102
}
330
589
100
AcDbScale
 70
     0
300
1/4" = 1'-0"
140
0.25
141
12.0
290
     0
  0
SCALE
  5
593
102
{ACAD_REACTORS
330
589
102
}
330
589
100
AcDbScale
 70
     0
300
3/8" = 1'-0"
140
0.375
141
12.0
290
     0
  0
SCALE
  5
594
102
{ACAD_REACTORS
330
589
102
}
330
589
100
AcDbScale
 70
     0
300
1/2" = 1'-0"
140
0.5
141
12.0
290
     0
  0
SCALE
  5
595
102
{ACAD_REACTORS
330
589
102
}
330
589
100
AcDbScale
 70
     0
300
3/4" = 1'-0"
140
0.75
141
12.0
290
     0
  0
SCALE
  5
596
102
{ACAD_REACTORS
330
589
102
}
330
589
100
AcDbScale
 70
     0
300
1" = 1'-0"
140
1.0
141
12.0
290
     0
  0
SCALE
  5
597
102
{ACAD_REACTORS
330
589
102
}
330
589
100
AcDbScale
 70
     0
300
1-1/2" = 1'-0"
140
1.5
141
12.0
290
     0
  0
SCALE
  5
598
102
{ACAD_REACTORS
330
589
102
}
330
589
100
AcDbScale
 70
     0
300
3" = 1'-0"
140
3.0
141
12.0
290
     0
  0
SCALE
  5
599
102
{ACAD_REACTORS
330
589
102
}
330
589
100
AcDbScale
 70
     0
300
6" = 1'-0"
140
6.0
141
12.0
290
     0
  0
SCALE
  5
59A
102
{ACAD_REACTORS
330
589
102
}
330
589
100
AcDbScale
 70
     0
300
1'-0" = 1'-0"
140
12.0
141
12.0
290
     0
  0
ACDBSECTIONVIEWSTYLE
  5
5B0
102
{ACAD_REACTORS
330
5AE
102
}
330
5AE
100
AcDbModelDocViewStyle
 70
     0
  3
Imperial24
290
     0
100
AcDbSectionViewStyle
 70
     0
 71
     0
 90
       78
 71
     1
340
59C
 40
0.24
340
0
340
0
 40
0.24
300
I, O, Q, S, X, Z
 40
0.48
 90
        3
 40
0.18
 90
        1
 71
     2
340
5AF
 90
       25
340
5A3
 90
       50
 40
0.24
 40
0.0
 40
0.24
 71
     3
340
59C
 40
0.24
 90
        1
 40
0.75
 90
        1
300
%<\AcVar ViewType \f "%tc1">% %<\AcVar ViewSectionStartId>%-%<\AcVar ViewSectionEndId>%\PSCALE %<\AcVar ViewScale \f "%sn">%
 71
     4
300
ANSI31
 40
1.0
 90
        0
290
     0
290
     0
 90
        6
 40
0.0
 40
1.570796326794896
 40
0.2617993877991494
 40
1.308996938995747
 40
-0.2617993877991494
 40
1.832595714594046
  0
TABLESTYLE
  5
5AB
102
{ACAD_XDICTIONARY
360
644
102
}
102
{ACAD_REACTORS
330
5AA
102
}
330
5AA
100
AcDbTableStyle
  3
Standard
 70
     0
 71
     0
 40
0.06
 41
0.06
280
     0
281
     0
  7
STANDARD
140
0.18
170
     2
 62
     0
 63
     7
283
     0
274
    -2
284
     1
 64
     0
275
    -2
285
     1
 65
     0
276
    -2
286
     1
 66
     0
277
    -2
287
     1
 67
     0
278
    -2
288
     1
 68
     0
279
    -2
289
     1
 69
     0
  7
STANDARD
140
0.25
170
     5
 62
     0
 63
     7
283
     0
274
    -2
284
     1
 64
     0
275
    -2
285
     1
 65
     0
276
    -2
286
     1
 66
     0
277
    -2
287
     1
 67
     0
278
    -2
288
     1
 68
     0
279
    -2
289
     1
 69
     0
  7
STANDARD
140
0.18
170
     5
 62
     0
 63
     7
283
     0
274
    -2
284
     1
 64
     0
275
    -2
285
     1
 65
     0
276
    -2
286
     1
 66
     0
277
    -2
287
     1
 67
     0
278
    -2
288
     1
 68
     0
279
    -2
289
     1
 69
     0
  0
VISUALSTYLE
  5
576
102
{ACAD_XDICTIONARY
360
655
102
}
102
{ACAD_REACTORS
330
570
102
}
330
570
100
AcDbVisualStyle
  2
2dWireframe
 70
     4
 71
     0
 72
     2
 73
     0
 90
        0
 40
-0.6
 41
-30.0
 62
     5
 63
     7
 74
     1
 91
        4
 64
     7
 65
   257
 75
     1
175
     1
 42
1.0
 92
        0
 66
   257
 43
1.0
 76
     1
 77
     6
 78
     2
 67
     7
 79
     5
170
     0
171
     0
290
     0
174
     0
 93
        1
 44
0.0
173
     0
291
     0
 45
0.0
1001
ACAD
1000
AcDbSavedByObjectVersion
1070
     0
  0
VISUALSTYLE
  5
575
102
{ACAD_XDICTIONARY
360
653
102
}
102
{ACAD_REACTORS
330
570
102
}
330
570
100
AcDbVisualStyle
  2
Basic
 70
     7
 71
     1
 72
     0
 73
     1
 90
        0
 40
-0.6
 41
-30.0
 62
     5
 63
     7
 74
     0
 91
        4
 64
     7
 65
   257
 75
     1
175
     1
 42
1.0
 92
        8
 66
     7
 43
1.0
 76
     1
 77
     6
 78
     2
 67
     7
 79
     5
170
     0
171
     0
290
     0
174
     0
 93
        1
 44
0.0
173
     0
291
     1
 45
0.0
1001
ACAD
1000
AcDbSavedByObjectVersion
1070
     0
  0
VISUALSTYLE
  5
57C
102
{ACAD_XDICTIONARY
360
661
102
}
102
{ACAD_REACTORS
330
570
102
}
330
570
100
AcDbVisualStyle
  2
Brighten
 70
    12
 71
     2
 72
     2
 73
     0
 90
        0
 40
-0.6
 41
-30.0
 62
     5
 63
     7
 74
     1
 91
        4
 64
     7
 65
   257
 75
     1
175
     1
 42
1.0
 92
        8
 66
     7
 43
1.0
 76
     1
 77
     6
 78
     2
 67
     7
 79
     5
170
     0
171
     0
290
     0
174
     0
 93
        1
 44
50.0
173
     0
291
     1
 45
0.0
1001
ACAD
1000
AcDbSavedByObjectVersion
1070
     0
  0
VISUALSTYLE
  5
580
102
{ACAD_XDICTIONARY
360
669
102
}
102
{ACAD_REACTORS
330
570
102
}
330
570
100
AcDbVisualStyle
  2
ColorChange
 70
    16
 71
     2
 72
     2
 73
     3
 90
        0
 40
-0.6
 41
-30.0
 62
     5
 63
     8
 74
     1
 91
        4
 64
     7
 65
   257
 75
     1
175
     1
 42
1.0
 92
        8
 66
     8
 43
1.0
 76
     1
 77
     6
 78
     2
 67
     7
 79
     5
170
     0
171
     0
290
     0
174
     0
 93
        1
 44
0.0
173
     0
291
     1
 45
0.0
1001
ACAD
1000
AcDbSavedByObjectVersion
1070
     0
  0
VISUALSTYLE
  5
579
102
{ACAD_XDICTIONARY
360
65B
102
}
102
{ACAD_REACTORS
330
570
102
}
330
570
100
AcDbVisualStyle
  2
Conceptual
 70
     9
 71
     3
 72
     2
 73
     0
 90
        0
 40
-0.6
 41
-30.0
 62
     5
 63
     7
 74
     2
 91
        2
 64
     7
 65
   257
 75
     1
175
     1
 42
179.0
 92
        8
 66
     7
 43
1.0
 76
     1
 77
     6
 78
     2
 67
     7
 79
     3
170
     0
171
     0
290
     0
174
     0
 93
        1
 44
0.0
173
     0
291
     0
 45
0.0
1001
ACAD
1000
AcDbSavedByObjectVersion
1070
     0
  0
VISUALSTYLE
  5
57B
102
{ACAD_XDICTIONARY
360
65F
102
}
102
{ACAD_REACTORS
330
570
102
}
330
570
100
AcDbVisualStyle
  2
Dim
 70
    11
 71
     2
 72
     2
 73
     0
 90
        0
 40
-0.6
 41
-30.0
 62
     5
 63
     7
 74
     1
 91
        4
 64
     7
 65
   257
 75
     1
175
     1
 42
1.0
 92
        8
 66
     7
 43
1.0
 76
     1
 77
     6
 78
     2
 67
     7
 79
     5
170
     0
171
     0
290
     0
174
     0
 93
        1
 44
-50.0
173
     0
291
     1
 45
0.0
1001
ACAD
1000
AcDbSavedByObjectVersion
1070
     0
  0
VISUALSTYLE
  5
588
102
{ACAD_XDICTIONARY
360
679
102
}
102
{ACAD_REACTORS
330
570
102
}
330
570
100
AcDbVisualStyle
  2
EdgeColorOff
 70
    22
 71
     2
 72
     2
 73
     0
 90
        0
 40
-0.6
 41
-30.0
 62
     5
 63
     7
 74
     1
 91
        4
 64
     7
 65
   257
 75
     1
175
     1
 42
1.0
 92
        8
 66
     7
 43
1.0
 76
     1
 77
     6
 78
     2
 67
     7
 79
     5
170
     0
171
     0
290
     0
174
     0
 93
        1
 44
0.0
173
     0
291
     1
 45
0.0
1001
ACAD
1000
AcDbSavedByObjectVersion
1070
     0
  0
VISUALSTYLE
  5
57F
102
{ACAD_XDICTIONARY
360
667
102
}
102
{ACAD_REACTORS
330
570
102
}
330
570
100
AcDbVisualStyle
  2
Facepattern
 70
    15
 71
     2
 72
     2
 73
     0
 90
        0
 40
-0.6
 41
-30.0
 62
     5
 63
     7
 74
     1
 91
        4
 64
     7
 65
   257
 75
     1
175
     1
 42
1.0
 92
        8
 66
     7
 43
1.0
 76
     1
 77
     6
 78
     2
 67
     7
 79
     5
170
     0
171
     0
290
     0
174
     0
 93
        1
 44
0.0
173
     0
291
     1
 45
0.0
1001
ACAD
1000
AcDbSavedByObjectVersion
1070
     0
  0
VISUALSTYLE
  5
571
102
{ACAD_XDICTIONARY
360
64B
102
}
102
{ACAD_REACTORS
330
570
102
}
330
570
100
AcDbVisualStyle
  2
Flat
 70
     0
 71
     2
 72
     1
 73
     1
 90
        2
 40
-0.6
 41
30.0
 62
     5
 63
     7
 74
     0
 91
        0
 64
     7
 65
   257
 75
     1
175
     1
 42
1.0
 92
        8
 66
     7
 43
1.0
 76
     1
 77
     6
 78
     2
 67
     7
 79
     5
170
     0
171
     0
290
     0
174
     0
 93
       13
 44
0.0
173
     0
291
     1
 45
0.0
1001
ACAD
1000
AcDbSavedByObjectVersion
1070
     0
  0
VISUALSTYLE
  5
572
102
{ACAD_XDICTIONARY
360
64D
102
}
102
{ACAD_REACTORS
330
570
102
}
330
570
100
AcDbVisualStyle
  2
FlatWithEdges
 70
     1
 71
     2
 72
     1
 73
     1
 90
        2
 40
-0.6
 41
30.0
 62
     5
 63
     7
 74
     1
 91
        0
 64
     7
 65
   257
 75
     1
175
     1
 42
1.0
 92
        0
 66
   257
 43
1.0
 76
     1
 77
     6
 78
     2
 67
     7
 79
     5
170
     0
171
     0
290
     0
174
     0
 93
       13
 44
0.0
173
     0
291
     1
 45
0.0
1001
ACAD
1000
AcDbSavedByObjectVersion
1070
     0
  0
VISUALSTYLE
  5
573
102
{ACAD_XDICTIONARY
360
64F
102
}
102
{ACAD_REACTORS
330
570
102
}
330
570
100
AcDbVisualStyle
  2
Gouraud
 70
     2
 71
     2
 72
     2
 73
     1
 90
        2
 40
-0.6
 41
30.0
 62
     5
 63
     7
 74
     0
 91
        0
 64
     7
 65
   257
 75
     1
175
     1
 42
1.0
 92
        0
 66
     7
 43
1.0
 76
     1
 77
     6
 78
     2
 67
     7
 79
     5
170
     0
171
     0
290
     0
174
     0
 93
       13
 44
0.0
173
     0
291
     1
 45
0.0
1001
ACAD
1000
AcDbSavedByObjectVersion
1070
     0
  0
VISUALSTYLE
  5
574
102
{ACAD_XDICTIONARY
360
651
102
}
102
{ACAD_REACTORS
330
570
102
}
330
570
100
AcDbVisualStyle
  2
GouraudWithEdges
 70
     3
 71
     2
 72
     2
 73
     1
 90
        2
 40
-0.6
 41
30.0
 62
     5
 63
     7
 74
     1
 91
        0
 64
     7
 65
   257
 75
     1
175
     1
 42
1.0
 92
        0
 66
   257
 43
1.0
 76
     1
 77
     6
 78
     2
 67
     7
 79
     5
170
     0
171
     0
290
     0
174
     0
 93
       13
 44
0.0
173
     0
291
     1
 45
0.0
1001
ACAD
1000
AcDbSavedByObjectVersion
1070
     0
  0
VISUALSTYLE
  5
578
102
{ACAD_XDICTIONARY
360
659
102
}
102
{ACAD_REACTORS
330
570
102
}
330
570
100
AcDbVisualStyle
  2
Hidden
 70
     6
 71
     1
 72
     2
 73
     2
 90
        0
 40
-0.6
 41
-30.0
 62
     5
 63
     7
 74
     2
 91
        2
 64
     7
 65
   257
 75
     2
175
     1
 42
40.0
 92
        0
 66
   257
 43
1.0
 76
     1
 77
     6
 78
     2
 67
     7
 79
     3
170
     0
171
     0
290
     0
174
     0
 93
        1
 44
0.0
173
     0
291
     0
 45
0.0
1001
ACAD
1000
AcDbSavedByObjectVersion
1070
     0
  0
VISUALSTYLE
  5
586
102
{ACAD_XDICTIONARY
360
675
102
}
102
{ACAD_REACTORS
330
570
102
}
330
570
100
AcDbVisualStyle
  2
JitterOff
 70
    20
 71
     2
 72
     2
 73
     0
 90
        0
 40
-0.6
 41
-30.0
 62
     5
 63
     7
 74
     1
 91
        4
 64
     7
 65
   257
 75
     1
175
     1
 42
1.0
 92
       10
 66
     7
 43
1.0
 76
     1
 77
     6
 78
     2
 67
     7
 79
     5
170
     0
171
     0
290
     0
174
     0
 93
        1
 44
0.0
173
     0
291
     1
 45
0.0
1001
ACAD
1000
AcDbSavedByObjectVersion
1070
     0
  0
VISUALSTYLE
  5
57E
102
{ACAD_XDICTIONARY
360
665
102
}
102
{ACAD_REACTORS
330
570
102
}
330
570
100
AcDbVisualStyle
  2
Linepattern
 70
    14
 71
     2
 72
     2
 73
     0
 90
        0
 40
-0.6
 41
-30.0
 62
     5
 63
     7
 74
     1
 91
        4
 64
     7
 65
   257
 75
     7
175
     7
 42
1.0
 92
        8
 66
     7
 43
1.0
 76
     1
 77
     6
 78
     2
 67
     7
 79
     5
170
     0
171
     0
290
     0
174
     0
 93
        1
 44
0.0
173
     0
291
     1
 45
0.0
1001
ACAD
1000
AcDbSavedByObjectVersion
1070
     0
  0
VISUALSTYLE
  5
587
102
{ACAD_XDICTIONARY
360
677
102
}
102
{ACAD_REACTORS
330
570
102
}
330
570
100
AcDbVisualStyle
  2
OverhangOff
 70
    21
 71
     2
 72
     2
 73
     0
 90
        0
 40
-0.6
 41
-30.0
 62
     5
 63
     7
 74
     1
 91
        4
 64
     7
 65
   257
 75
     1
175
     1
 42
1.0
 92
        9
 66
     7
 43
1.0
 76
     1
 77
     6
 78
     2
 67
     7
 79
     5
170
     0
171
     0
290
     0
174
     0
 93
        1
 44
0.0
173
     0
291
     1
 45
0.0
1001
ACAD
1000
AcDbSavedByObjectVersion
1070
     0
  0
VISUALSTYLE
  5
57A
102
{ACAD_XDICTIONARY
360
65D
102
}
102
{ACAD_REACTORS
330
570
102
}
330
570
100
AcDbVisualStyle
  2
Realistic
 70
     8
 71
     2
 72
     3
 73
     0
 90
        2
 40
-0.6
 41
30.0
 62
     5
 63
     7
 74
     0
 91
        0
 64
     7
 65
   257
 75
     1
175
     1
 42
1.0
 92
        8
 66
   257
 43
1.0
 76
     1
 77
     6
 78
     2
 67
     7
 79
     3
170
     0
171
     0
290
     0
174
     0
 93
       13
 44
0.0
173
     0
291
     0
 45
0.0
1001
ACAD
1000
AcDbSavedByObjectVersion
1070
     0
  0
VISUALSTYLE
  5
585
102
{ACAD_XDICTIONARY
360
673
102
}
102
{ACAD_REACTORS
330
570
102
}
330
570
100
AcDbVisualStyle
  2
Shaded
 70
    27
 71
     2
 72
     2
 73
     1
 90
        2
 40
-0.6
 41
30.0
 62
     5
 63
     7
 74
     0
 91
        4
 64
     7
 65
   257
 75
     1
175
     1
 42
1.0
 92
        8
 66
   257
 43
1.0
 76
     1
 77
     6
 78
     2
 67
     8
 79
     3
170
     0
171
     0
290
     0
174
     0
 93
        5
 44
0.0
173
     0
291
     0
 45
0.0
1001
ACAD
1000
AcDbSavedByObjectVersion
1070
     0
  0
VISUALSTYLE
  5
584
102
{ACAD_XDICTIONARY
360
671
102
}
102
{ACAD_REACTORS
330
570
102
}
330
570
100
AcDbVisualStyle
  2
Shaded with edges
 70
    26
 71
     2
 72
     2
 73
     1
 90
        2
 40
-0.6
 41
30.0
 62
     5
 63
     7
 74
     1
 91
       10
 64
     7
 65
   257
 75
     2
175
     1
 42
1.0
 92
        8
 66
   257
 43
1.0
 76
     1
 77
     6
 78
     2
 67
     7
 79
     3
170
     0
171
     0
290
     0
174
     0
 93
        5
 44
0.0
173
     0
291
     0
 45
0.0
1001
ACAD
1000
AcDbSavedByObjectVersion
1070
     0
  0
VISUALSTYLE
  5
581
102
{ACAD_XDICTIONARY
360
66B
102
}
102
{ACAD_REACTORS
330
570
102
}
330
570
100
AcDbVisualStyle
  2
Shades of Gray
 70
    23
 71
     2
 72
     2
 73
     3
 90
        0
 40
-0.6
 41
-30.0
 62
     5
 63
     7
 74
     2
 91
        2
 64
     7
 65
     7
 75
     1
175
     1
 42
40.0
 92
        8
 66
     7
 43
1.0
 76
     1
 77
     6
 78
     2
 67
     7
 79
     3
170
     0
171
     0
290
     0
174
     0
 93
        1
 44
0.0
173
     0
291
     0
 45
0.0
1001
ACAD
1000
AcDbSavedByObjectVersion
1070
     0
  0
VISUALSTYLE
  5
582
102
{ACAD_XDICTIONARY
360
66D
102
}
102
{ACAD_REACTORS
330
570
102
}
330
570
100
AcDbVisualStyle
  2
Sketchy
 70
    24
 71
     1
 72
     2
 73
     2
 90
        0
 40
-0.6
 41
-30.0
 62
     5
 63
     7
 74
     2
 91
        2
 64
     7
 65
     7
 75
     1
175
     1
 42
40.0
 92
       11
 66
     7
 43
1.0
 76
     1
 77
     6
 78
     2
 67
     7
 79
     6
170
     0
171
     0
290
     0
174
     0
 93
        1
 44
0.0
173
     0
291
     0
 45
0.0
1001
ACAD
1000
AcDbSavedByObjectVersion
1070
     0
  0
VISUALSTYLE
  5
57D
102
{ACAD_XDICTIONARY
360
663
102
}
102
{ACAD_REACTORS
330
570
102
}
330
570
100
AcDbVisualStyle
  2
Thicken
 70
    13
 71
     2
 72
     2
 73
     0
 90
        0
 40
-0.6
 41
-30.0
 62
     5
 63
     7
 74
     1
 91
        4
 64
     7
 65
   257
 75
     1
175
     1
 42
1.0
 92
       12
 66
     7
 43
1.0
 76
     1
 77
     6
 78
     2
 67
     7
 79
     5
170
     0
171
     0
290
     0
174
     0
 93
        1
 44
0.0
173
     0
291
     1
 45
0.0
1001
ACAD
1000
AcDbSavedByObjectVersion
1070
     0
  0
VISUALSTYLE
  5
577
102
{ACAD_XDICTIONARY
360
657
102
}
102
{ACAD_REACTORS
330
570
102
}
330
570
100
AcDbVisualStyle
  2
Wireframe
 70
     5
 71
     0
 72
     2
 73
     0
 90
        0
 40
-0.6
 41
-30.0
 62
     5
 63
     7
 74
     1
 91
        4
 64
     7
 65
   257
 75
     1
175
     1
 42
1.0
 92
        0
 66
   257
 43
1.0
 76
     1
 77
     6
 78
     2
 67
     7
 79
     3
170
     0
171
     0
290
     0
174
     0
 93
        1
 44
0.0
173
     0
291
     0
 45
0.0
1001
ACAD
1000
AcDbSavedByObjectVersion
1070
     0
  0
VISUALSTYLE
  5
583
102
{ACAD_XDICTIONARY
360
66F
102
}
102
{ACAD_REACTORS
330
570
102
}
330
570
100
AcDbVisualStyle
  2
X-Ray
 70
    25
 71
     2
 72
     2
 73
     1
 90
        1
 40
0.5
 41
-30.0
 62
     5
 63
     7
 74
     1
 91
        0
 64
     7
 65
   257
 75
     1
175
     1
 42
1.0
 92
        8
 66
     7
 43
1.0
 76
     1
 77
     6
 78
     2
 67
     7
 79
     3
170
     0
171
     0
290
     0
174
     0
 93
       13
 44
0.0
173
     0
291
     0
 45
0.0
1001
ACAD
1000
AcDbSavedByObjectVersion
1070
     0
  0
DICTIONARYVAR
  5
63E
102
{ACAD_REACTORS
330
639
102
}
330
639
100
DictionaryVariables
280
     0
  1
1:1
  0
DICTIONARYVAR
  5
63B
102
{ACAD_REACTORS
330
639
102
}
330
639
100
DictionaryVariables
280
     0
  1
STANDARD
  0
DICTIONARYVAR
  5
63A
102
{ACAD_REACTORS
330
639
102
}
330
639
100
DictionaryVariables
280
     0
  1
STANDARD
  0
DICTIONARYVAR
  5
63C
102
{ACAD_REACTORS
330
639
102
}
330
639
100
DictionaryVariables
280
     0
  1
Imperial24
  0
DICTIONARYVAR
  5
63D
102
{ACAD_REACTORS
330
639
102
}
330
639
100
DictionaryVariables
280
     0
  1
Imperial24
  0
DICTIONARYVAR
  5
641
102
{ACAD_REACTORS
330
639
102
}
330
639
100
DictionaryVariables
280
     0
  1
1
  0
DICTIONARYVAR
  5
640
102
{ACAD_REACTORS
330
639
102
}
330
639
100
DictionaryVariables
280
     0
  1
0
  0
DICTIONARYVAR
  5
63F
102
{ACAD_REACTORS
330
639
102
}
330
639
100
DictionaryVariables
280
     0
  1
127
  0
DICTIONARYVAR
  5
642
102
{ACAD_REACTORS
330
639
102
}
330
639
100
DictionaryVariables
280
     0
  1
2
  0
DICTIONARY
  5
67D
330
5B6
100
AcDbDictionary
280
     1
281
     1
  3
ACAD_XREC_ROUNDTRIP
360
67E
  0
DICTIONARY
  5
67F
330
5BA
100
AcDbDictionary
280
     1
281
     1
  3
ACAD_XREC_ROUNDTRIP
360
680
  0
DICTIONARY
  5
561
330
560
100
AcDbDictionary
280
     1
281
     1
  3
ACAD_XREC_ROUNDTRIP
360
649
  3
BUMPTILE
360
563
  3
DIFFUSETILE
360
562
  3
OPACITYTILE
360
566
  3
REFLECTIONTILE
360
565
  3
REFRACTIONTILE
360
567
  3
SPECULARTILE
360
564
  0
DICTIONARY
  5
559
330
558
100
AcDbDictionary
280
     1
281
     1
  3
ACAD_XREC_ROUNDTRIP
360
648
  3
BUMPTILE
360
55B
  3
DIFFUSETILE
360
55A
  3
OPACITYTILE
360
55E
  3
REFLECTIONTILE
360
55D
  3
REFRACTIONTILE
360
55F
  3
SPECULARTILE
360
55C
  0
DICTIONARY
  5
569
330
568
100
AcDbDictionary
280
     1
281
     1
  3
ACAD_XREC_ROUNDTRIP
360
64A
  3
BUMPTILE
360
56B
  3
DIFFUSETILE
360
56A
  3
OPACITYTILE
360
56E
  3
REFLECTIONTILE
360
56D
  3
REFRACTIONTILE
360
56F
  3
SPECULARTILE
360
56C
  0
DICTIONARY
  5
644
330
5AB
100
AcDbDictionary
280
     1
281
     1
  3
ACAD_ROUNDTRIP_2008_TABLESTYLE_CELLSTYLEMAP
360
645
  3
ACAD_XREC_ROUNDTRIP
360
67B
  0
DICTIONARY
  5
655
330
576
100
AcDbDictionary
280
     1
281
     1
  3
ACAD_XREC_ROUNDTRIP
360
656
  0
DICTIONARY
  5
653
330
575
100
AcDbDictionary
280
     1
281
     1
  3
ACAD_XREC_ROUNDTRIP
360
654
  0
DICTIONARY
  5
661
330
57C
100
AcDbDictionary
280
     1
281
     1
  3
ACAD_XREC_ROUNDTRIP
360
662
  0
DICTIONARY
  5
669
330
580
100
AcDbDictionary
280
     1
281
     1
  3
ACAD_XREC_ROUNDTRIP
360
66A
  0
DICTIONARY
  5
65B
330
579
100
AcDbDictionary
280
     1
281
     1
  3
ACAD_XREC_ROUNDTRIP
360
65C
  0
DICTIONARY
  5
65F
330
57B
100
AcDbDictionary
280
     1
281
     1
  3
ACAD_XREC_ROUNDTRIP
360
660
  0
DICTIONARY
  5
679
330
588
100
AcDbDictionary
280
     1
281
     1
  3
ACAD_XREC_ROUNDTRIP
360
67A
  0
DICTIONARY
  5
667
330
57F
100
AcDbDictionary
280
     1
281
     1
  3
ACAD_XREC_ROUNDTRIP
360
668
  0
DICTIONARY
  5
64B
330
571
100
AcDbDictionary
280
     1
281
     1
  3
ACAD_XREC_ROUNDTRIP
360
64C
  0
DICTIONARY
  5
64D
330
572
100
AcDbDictionary
280
     1
281
     1
  3
ACAD_XREC_ROUNDTRIP
360
64E
  0
DICTIONARY
  5
64F
330
573
100
AcDbDictionary
280
     1
281
     1
  3
ACAD_XREC_ROUNDTRIP
360
650
  0
DICTIONARY
  5
651
330
574
100
AcDbDictionary
280
     1
281
     1
  3
ACAD_XREC_ROUNDTRIP
360
652
  0
DICTIONARY
  5
659
330
578
100
AcDbDictionary
280
     1
281
     1
  3
ACAD_XREC_ROUNDTRIP
360
65A
  0
DICTIONARY
  5
675
330
586
100
AcDbDictionary
280
     1
281
     1
  3
ACAD_XREC_ROUNDTRIP
360
676
  0
DICTIONARY
  5
665
330
57E
100
AcDbDictionary
280
     1
281
     1
  3
ACAD_XREC_ROUNDTRIP
360
666
  0
DICTIONARY
  5
677
330
587
100
AcDbDictionary
280
     1
281
     1
  3
ACAD_XREC_ROUNDTRIP
360
678
  0
DICTIONARY
  5
65D
330
57A
100
AcDbDictionary
280
     1
281
     1
  3
ACAD_XREC_ROUNDTRIP
360
65E
  0
DICTIONARY
  5
673
330
585
100
AcDbDictionary
280
     1
281
     1
  3
ACAD_XREC_ROUNDTRIP
360
674
  0
DICTIONARY
  5
671
330
584
100
AcDbDictionary
280
     1
281
     1
  3
ACAD_XREC_ROUNDTRIP
360
672
  0
DICTIONARY
  5
66B
330
581
100
AcDbDictionary
280
     1
281
     1
  3
ACAD_XREC_ROUNDTRIP
360
66C
  0
DICTIONARY
  5
66D
330
582
100
AcDbDictionary
280
     1
281
     1
  3
ACAD_XREC_ROUNDTRIP
360
66E
  0
DICTIONARY
  5
663
330
57D
100
AcDbDictionary
280
     1
281
     1
  3
ACAD_XREC_ROUNDTRIP
360
664
  0
DICTIONARY
  5
657
330
577
100
AcDbDictionary
280
     1
281
     1
  3
ACAD_XREC_ROUNDTRIP
360
658
  0
DICTIONARY
  5
66F
330
583
100
AcDbDictionary
280
     1
281
     1
  3
ACAD_XREC_ROUNDTRIP
360
670
  0
XRECORD
  5
67E
102
{ACAD_REACTORS
330
67D
102
}
330
67D
100
AcDbXrecord
280
     1
102
SHADEPLOT
 70
     0
102
SHADEPLOTRESLEVEL
 70
     2
102
SHADEPLOTCUSTOMDPI
 70
   300
  0
XRECORD
  5
680
102
{ACAD_REACTORS
330
67F
102
}
330
67F
100
AcDbXrecord
280
     1
102
SHADEPLOT
 70
     0
102
SHADEPLOTRESLEVEL
 70
     2
102
SHADEPLOTCUSTOMDPI
 70
   300
  0
XRECORD
  5
649
102
{ACAD_REACTORS
330
561
102
}
330
561
100
AcDbXrecord
280
     1
102
MATERIAL
148
0.0
149
0.0
149
0.0
 93
        0
 94
      127
282
     0
 72
     0
 77
     0
171
     0
175
     0
179
     0
273
     0
  0
XRECORD
  5
563
102
{ACAD_REACTORS
330
561
102
}
330
561
100
AcDbXrecord
280
     1
270
     1
271
     1
  0
XRECORD
  5
562
102
{ACAD_REACTORS
330
561
102
}
330
561
100
AcDbXrecord
280
     1
270
     1
271
     1
  0
XRECORD
  5
566
102
{ACAD_REACTORS
330
561
102
}
330
561
100
AcDbXrecord
280
     1
270
     1
271
     1
  0
XRECORD
  5
565
102
{ACAD_REACTORS
330
561
102
}
330
561
100
AcDbXrecord
280
     1
270
     1
271
     1
  0
XRECORD
  5
567
102
{ACAD_REACTORS
330
561
102
}
330
561
100
AcDbXrecord
280
     1
270
     1
271
     1
  0
XRECORD
  5
564
102
{ACAD_REACTORS
330
561
102
}
330
561
100
AcDbXrecord
280
     1
270
     1
271
     1
  0
XRECORD
  5
648
102
{ACAD_REACTORS
330
559
102
}
330
559
100
AcDbXrecord
280
     1
102
MATERIAL
148
0.0
149
0.0
149
0.0
 93
        0
 94
      127
282
     0
 72
     0
 77
     0
171
     0
175
     0
179
     0
273
     0
  0
XRECORD
  5
55B
102
{ACAD_REACTORS
330
559
102
}
330
559
100
AcDbXrecord
280
     1
270
     1
271
     1
  0
XRECORD
  5
55A
102
{ACAD_REACTORS
330
559
102
}
330
559
100
AcDbXrecord
280
     1
270
     1
271
     1
  0
XRECORD
  5
55E
102
{ACAD_REACTORS
330
559
102
}
330
559
100
AcDbXrecord
280
     1
270
     1
271
     1
  0
XRECORD
  5
55D
102
{ACAD_REACTORS
330
559
102
}
330
559
100
AcDbXrecord
280
     1
270
     1
271
     1
  0
XRECORD
  5
55F
102
{ACAD_REACTORS
330
559
102
}
330
559
100
AcDbXrecord
280
     1
270
     1
271
     1
  0
XRECORD
  5
55C
102
{ACAD_REACTORS
330
559
102
}
330
559
100
AcDbXrecord
280
     1
270
     1
271
     1
  0
XRECORD
  5
64A
102
{ACAD_REACTORS
330
569
102
}
330
569
100
AcDbXrecord
280
     1
102
MATERIAL
148
0.0
149
0.0
149
0.0
 93
        0
 94
      127
282
     0
 72
     0
 77
     0
171
     0
175
     0
179
     0
273
     0
  0
XRECORD
  5
56B
102
{ACAD_REACTORS
330
569
102
}
330
569
100
AcDbXrecord
280
     1
270
     1
271
     1
  0
XRECORD
  5
56A
102
{ACAD_REACTORS
330
569
102
}
330
569
100
AcDbXrecord
280
     1
270
     1
271
     1
  0
XRECORD
  5
56E
102
{ACAD_REACTORS
330
569
102
}
330
569
100
AcDbXrecord
280
     1
270
     1
271
     1
  0
XRECORD
  5
56D
102
{ACAD_REACTORS
330
569
102
}
330
569
100
AcDbXrecord
280
     1
270
     1
271
     1
  0
XRECORD
  5
56F
102
{ACAD_REACTORS
330
569
102
}
330
569
100
AcDbXrecord
280
     1
270
     1
271
     1
  0
XRECORD
  5
56C
102
{ACAD_REACTORS
330
569
102
}
330
569
100
AcDbXrecord
280
     1
270
     1
271
     1
  0
CELLSTYLEMAP
  5
645
102
{ACAD_REACTORS
330
644
102
}
330
644
100
AcDbCellStyleMap
 90
        3
300
CELLSTYLE
  1
TABLEFORMAT_BEGIN
 90
        5
170
     1
 91
        0
 92
    32768
 62
   257
 93
        1
300
CONTENTFORMAT
  1
CONTENTFORMAT_BEGIN
 90
        0
 91
        0
 92
      512
 93
        0
300

 40
0.0
140
1.0
 94
        5
 62
     0
340
59C
144
0.25
309
CONTENTFORMAT_END
171
     0
 94
        0
309
TABLEFORMAT_END
  1
CELLSTYLE_BEGIN
 90
        1
 91
        1
300
_TITLE
309
CELLSTYLE_END
300
CELLSTYLE
  1
TABLEFORMAT_BEGIN
 90
        5
170
     1
 91
        0
 92
        0
 62
   257
 93
        1
300
CONTENTFORMAT
  1
CONTENTFORMAT_BEGIN
 90
        0
 91
        0
 92
      512
 93
        0
300

 40
0.0
140
1.0
 94
        5
 62
     0
340
59C
144
0.18
309
CONTENTFORMAT_END
171
     0
 94
        0
309
TABLEFORMAT_END
  1
CELLSTYLE_BEGIN
 90
        2
 91
        1
300
_HEADER
309
CELLSTYLE_END
300
CELLSTYLE
  1
TABLEFORMAT_BEGIN
 90
        5
170
     1
 91
        0
 92
        0
 62
   257
 93
        1
300
CONTENTFORMAT
  1
CONTENTFORMAT_BEGIN
 90
        0
 91
        0
 92
      512
 93
        0
300

 40
0.0
140
1.0
 94
        2
 62
     0
340
59C
144
0.18
309
CONTENTFORMAT_END
171
     0
 94
        0
309
TABLEFORMAT_END
  1
CELLSTYLE_BEGIN
 90
        3
 91
        2
300
_DATA
309
CELLSTYLE_END
  0
XRECORD
  5
67B
102
{ACAD_REACTORS
330
644
102
}
330
644
100
AcDbXrecord
280
     1
102
ACAD_ROUNDTRIP_PRE2007_TABLESTYLE
 90
      512
 91
        0
  1

 92
      512
 93
        0
  2

 94
      512
 95
        0
  3

  0
XRECORD
  5
656
102
{ACAD_REACTORS
330
655
102
}
330
655
100
AcDbXrecord
280
     1
102
RTVSPost2010Prop28
280
     1
102
RTVSPost2010PropOp28
 70
     1
102
RTVSPost2010Prop29
280
     1
102
RTVSPost2010PropOp29
 70
     1
102
RTVSPost2010Prop30
280
     0
102
RTVSPost2010PropOp30
 70
     1
102
RTVSPost2010Prop31
280
     0
102
RTVSPost2010PropOp31
 70
     1
102
RTVSPost2010Prop32
280
     0
102
RTVSPost2010PropOp32
 70
     1
102
RTVSPost2010Prop33
280
     0
102
RTVSPost2010PropOp33
 70
     1
102
RTVSPost2010Prop34
280
     0
102
RTVSPost2010PropOp34
 70
     1
102
RTVSPost2010Prop35
280
     0
102
RTVSPost2010PropOp35
 70
     1
102
RTVSPost2010Prop36
280
     0
102
RTVSPost2010PropOp36
 70
     1
102
RTVSPost2010Prop37
 90
       50
102
RTVSPost2010PropOp37
 70
     1
102
RTVSPost2010Prop38
140
0.0
102
RTVSPost2010PropOp38
 70
     1
102
RTVSPost2010Prop39
140
1.0
102
RTVSPost2010PropOp39
 70
     1
102
RTVSPost2010Prop40
 90
        0
102
RTVSPost2010PropOp40
 70
     1
102
RTVSPost2010Prop41ColorIndex
 90
       18
102
RTVSPost2010Prop41ColorRGB
 90
        0
102
RTVSPost2010PropOp41
 70
     1
102
RTVSPost2010Prop42
 90
       50
102
RTVSPost2010PropOp42
 70
     1
102
RTVSPost2010Prop43
 90
        3
102
RTVSPost2010PropOp43
 70
     1
102
RTVSPost2010Prop44ColorIndex
 90
        5
102
RTVSPost2010Prop44ColorRGB
 90
      255
102
RTVSPost2010PropOp44
 70
     1
102
RTVSPost2010Prop45
280
     0
102
RTVSPost2010PropOp45
 70
     1
102
RTVSPost2010Prop46
 90
       50
102
RTVSPost2010PropOp46
 70
     1
102
RTVSPost2010Prop47
 90
       50
102
RTVSPost2010PropOp47
 70
     1
102
RTVSPost2010Prop48
 90
       50
102
RTVSPost2010PropOp48
 70
     1
102
RTVSPost2010Prop49
280
     0
102
RTVSPost2010PropOp49
 70
     1
102
RTVSPost2010Prop50
 90
       50
102
RTVSPost2010PropOp50
 70
     1
102
RTVSPost2010Prop51ColorIndex
 90
      256
102
RTVSPost2010Prop51ColorRGB
 90
-16777216
102
RTVSPost2010PropOp51
 70
     0
102
RTVSPost2010Prop52
140
1.0
102
RTVSPost2010PropOp52
 70
     0
102
RTVSPost2010Prop53
 90
        2
102
RTVSPost2010PropOp53
 70
     1
102
RTVSPost2010Prop54
  1
strokes_ogs.tif
102
RTVSPost2010PropOp54
 70
     1
102
RTVSPost2010Prop55
280
     0
102
RTVSPost2010PropOp55
 70
     1
102
RTVSPost2010Prop56
140
1.0
102
RTVSPost2010PropOp56
 70
     1
102
RTVSPost2010Prop57
140
1.0
102
RTVSPost2010PropOp57
 70
     1
102
RTVSPropertyOp0
 70
     1
102
RTVSPropertyOp1
 70
     1
102
RTVSPropertyOp2
 70
     1
102
RTVSPropertyOp3
 70
     1
102
RTVSPropertyOp4
 70
     1
102
RTVSPropertyOp5
 70
     1
102
RTVSPropertyOp6
 70
     1
102
RTVSPropertyOp7
 70
     1
102
RTVSPropertyOp8
 70
     1
102
RTVSPropertyOp9
 70
     1
102
RTVSPropertyOp10
 70
     1
102
RTVSPropertyOp11
 70
     1
102
RTVSPropertyOp12
 70
     1
102
RTVSPropertyOp13
 70
     1
102
RTVSPropertyOp14
 70
     1
102
RTVSPropertyOp15
 70
     1
102
RTVSPropertyOp16
 70
     1
102
RTVSPropertyOp17
 70
     1
102
RTVSPropertyOp18
 70
     1
102
RTVSPropertyOp19
 70
     1
102
RTVSPropertyOp20
 70
     1
102
RTVSPropertyOp21
 70
     1
102
RTVSPropertyOp22
 70
     1
102
RTVSPropertyOp23
 70
     1
102
RTVSPropertyOp24
 70
     1
102
RTVSPropertyOp25
 70
     1
102
RTVSPropertyOp26
 70
     1
102
RTVSPropertyOp27
 70
     1
102
RTVSPropertyOp28
 70
     1
102
RTVSPropertyOp29
 70
     1
102
RTVSPropertyOp30
 70
     1
102
RTVSPropertyOp31
 70
     1
102
RTVSPropertyOp32
 70
     1
102
RTVSPropertyOp33
 70
     1
102
RTVSPropertyOp34
 70
     1
102
RTVSPropertyOp35
 70
     1
102
RTVSPropertyOp36
 70
     1
102
RTVSPropertyOp37
 70
     1
102
RTVSPropertyOp38
 70
     1
102
RTVSPropertyOp39
 70
     1
102
RTVSPropertyOp40
 70
     1
102
RTVSPropertyOp41
 70
     1
102
RTVSPropertyOp42
 70
     1
102
RTVSPropertyOp43
 70
     1
102
RTVSPropertyOp44
 70
     1
102
RTVSPropertyOp45
 70
     1
102
RTVSPropertyOp46
 70
     1
102
RTVSPropertyOp47
 70
     1
102
RTVSPropertyOp48
 70
     1
102
RTVSPropertyOp49
 70
     1
102
RTVSPropertyOp50
 70
     1
102
RTVSPropertyOp51
 70
     0
102
RTVSPropertyOp52
 70
     0
102
RTVSPropertyOp53
 70
     1
102
RTVSPropertyOp54
 70
     1
102
RTVSPropertyOp55
 70
     1
102
RTVSPropertyOp56
 70
     1
102
RTVSPropertyOp57
 70
     1
102
RTVSPropertyOp58
 70
     1
102
RTVSPropertyOp59
 70
     1
102
RTVSPropertyOp60
 70
     1
102
RTVSPropertyOp61
 70
     1
102
RTVSPropertyOp62
 70
     1
  0
XRECORD
  5
654
102
{ACAD_REACTORS
330
653
102
}
330
653
100
AcDbXrecord
280
     1
102
RTVSPost2010Prop28
280
     0
102
RTVSPost2010PropOp28
 70
     1
102
RTVSPost2010Prop29
280
     1
102
RTVSPost2010PropOp29
 70
     1
102
RTVSPost2010Prop30
280
     1
102
RTVSPost2010PropOp30
 70
     1
102
RTVSPost2010Prop31
280
     0
102
RTVSPost2010PropOp31
 70
     1
102
RTVSPost2010Prop32
280
     0
102
RTVSPost2010PropOp32
 70
     1
102
RTVSPost2010Prop33
280
     0
102
RTVSPost2010PropOp33
 70
     1
102
RTVSPost2010Prop34
280
     0
102
RTVSPost2010PropOp34
 70
     1
102
RTVSPost2010Prop35
280
     0
102
RTVSPost2010PropOp35
 70
     1
102
RTVSPost2010Prop36
280
     0
102
RTVSPost2010PropOp36
 70
     1
102
RTVSPost2010Prop37
 90
       50
102
RTVSPost2010PropOp37
 70
     1
102
RTVSPost2010Prop38
140
0.0
102
RTVSPost2010PropOp38
 70
     1
102
RTVSPost2010Prop39
140
1.0
102
RTVSPost2010PropOp39
 70
     1
102
RTVSPost2010Prop40
 90
        0
102
RTVSPost2010PropOp40
 70
     1
102
RTVSPost2010Prop41ColorIndex
 90
       18
102
RTVSPost2010Prop41ColorRGB
 90
        0
102
RTVSPost2010PropOp41
 70
     1
102
RTVSPost2010Prop42
 90
       50
102
RTVSPost2010PropOp42
 70
     1
102
RTVSPost2010Prop43
 90
        3
102
RTVSPost2010PropOp43
 70
     1
102
RTVSPost2010Prop44ColorIndex
 90
        5
102
RTVSPost2010Prop44ColorRGB
 90
      255
102
RTVSPost2010PropOp44
 70
     1
102
RTVSPost2010Prop45
280
     0
102
RTVSPost2010PropOp45
 70
     1
102
RTVSPost2010Prop46
 90
       50
102
RTVSPost2010PropOp46
 70
     1
102
RTVSPost2010Prop47
 90
       50
102
RTVSPost2010PropOp47
 70
     1
102
RTVSPost2010Prop48
 90
       50
102
RTVSPost2010PropOp48
 70
     1
102
RTVSPost2010Prop49
280
     0
102
RTVSPost2010PropOp49
 70
     1
102
RTVSPost2010Prop50
 90
       50
102
RTVSPost2010PropOp50
 70
     1
102
RTVSPost2010Prop51ColorIndex
 90
      256
102
RTVSPost2010Prop51ColorRGB
 90
-16777216
102
RTVSPost2010PropOp51
 70
     0
102
RTVSPost2010Prop52
140
1.0
102
RTVSPost2010PropOp52
 70
     0
102
RTVSPost2010Prop53
 90
        2
102
RTVSPost2010PropOp53
 70
     1
102
RTVSPost2010Prop54
  1
strokes_ogs.tif
102
RTVSPost2010PropOp54
 70
     1
102
RTVSPost2010Prop55
280
     0
102
RTVSPost2010PropOp55
 70
     1
102
RTVSPost2010Prop56
140
1.0
102
RTVSPost2010PropOp56
 70
     1
102
RTVSPost2010Prop57
140
1.0
102
RTVSPost2010PropOp57
 70
     1
102
RTVSPropertyOp0
 70
     1
102
RTVSPropertyOp1
 70
     1
102
RTVSPropertyOp2
 70
     1
102
RTVSPropertyOp3
 70
     1
102
RTVSPropertyOp4
 70
     1
102
RTVSPropertyOp5
 70
     1
102
RTVSPropertyOp6
 70
     1
102
RTVSPropertyOp7
 70
     1
102
RTVSPropertyOp8
 70
     1
102
RTVSPropertyOp9
 70
     1
102
RTVSPropertyOp10
 70
     1
102
RTVSPropertyOp11
 70
     1
102
RTVSPropertyOp12
 70
     1
102
RTVSPropertyOp13
 70
     1
102
RTVSPropertyOp14
 70
     1
102
RTVSPropertyOp15
 70
     1
102
RTVSPropertyOp16
 70
     1
102
RTVSPropertyOp17
 70
     1
102
RTVSPropertyOp18
 70
     1
102
RTVSPropertyOp19
 70
     1
102
RTVSPropertyOp20
 70
     1
102
RTVSPropertyOp21
 70
     1
102
RTVSPropertyOp22
 70
     1
102
RTVSPropertyOp23
 70
     1
102
RTVSPropertyOp24
 70
     1
102
RTVSPropertyOp25
 70
     1
102
RTVSPropertyOp26
 70
     1
102
RTVSPropertyOp27
 70
     1
102
RTVSPropertyOp28
 70
     1
102
RTVSPropertyOp29
 70
     1
102
RTVSPropertyOp30
 70
     1
102
RTVSPropertyOp31
 70
     1
102
RTVSPropertyOp32
 70
     1
102
RTVSPropertyOp33
 70
     1
102
RTVSPropertyOp34
 70
     1
102
RTVSPropertyOp35
 70
     1
102
RTVSPropertyOp36
 70
     1
102
RTVSPropertyOp37
 70
     1
102
RTVSPropertyOp38
 70
     1
102
RTVSPropertyOp39
 70
     1
102
RTVSPropertyOp40
 70
     1
102
RTVSPropertyOp41
 70
     1
102
RTVSPropertyOp42
 70
     1
102
RTVSPropertyOp43
 70
     1
102
RTVSPropertyOp44
 70
     1
102
RTVSPropertyOp45
 70
     1
102
RTVSPropertyOp46
 70
     1
102
RTVSPropertyOp47
 70
     1
102
RTVSPropertyOp48
 70
     1
102
RTVSPropertyOp49
 70
     1
102
RTVSPropertyOp50
 70
     1
102
RTVSPropertyOp51
 70
     0
102
RTVSPropertyOp52
 70
     0
102
RTVSPropertyOp53
 70
     1
102
RTVSPropertyOp54
 70
     1
102
RTVSPropertyOp55
 70
     1
102
RTVSPropertyOp56
 70
     1
102
RTVSPropertyOp57
 70
     1
102
RTVSPropertyOp58
 70
     1
102
RTVSPropertyOp59
 70
     1
102
RTVSPropertyOp60
 70
     1
102
RTVSPropertyOp61
 70
     1
102
RTVSPropertyOp62
 70
     1
  0
XRECORD
  5
662
102
{ACAD_REACTORS
330
661
102
}
330
661
100
AcDbXrecord
280
     1
102
RTVSPost2010Prop28
280
     0
102
RTVSPost2010PropOp28
 70
     1
102
RTVSPost2010Prop29
280
     1
102
RTVSPost2010PropOp29
 70
     1
102
RTVSPost2010Prop30
280
     1
102
RTVSPost2010PropOp30
 70
     1
102
RTVSPost2010Prop31
280
     0
102
RTVSPost2010PropOp31
 70
     1
102
RTVSPost2010Prop32
280
     0
102
RTVSPost2010PropOp32
 70
     1
102
RTVSPost2010Prop33
280
     0
102
RTVSPost2010PropOp33
 70
     1
102
RTVSPost2010Prop34
280
     0
102
RTVSPost2010PropOp34
 70
     1
102
RTVSPost2010Prop35
280
     0
102
RTVSPost2010PropOp35
 70
     1
102
RTVSPost2010Prop36
280
     0
102
RTVSPost2010PropOp36
 70
     1
102
RTVSPost2010Prop37
 90
       50
102
RTVSPost2010PropOp37
 70
     1
102
RTVSPost2010Prop38
140
0.0
102
RTVSPost2010PropOp38
 70
     1
102
RTVSPost2010Prop39
140
1.0
102
RTVSPost2010PropOp39
 70
     1
102
RTVSPost2010Prop40
 90
        0
102
RTVSPost2010PropOp40
 70
     1
102
RTVSPost2010Prop41ColorIndex
 90
       18
102
RTVSPost2010Prop41ColorRGB
 90
        0
102
RTVSPost2010PropOp41
 70
     1
102
RTVSPost2010Prop42
 90
       50
102
RTVSPost2010PropOp42
 70
     1
102
RTVSPost2010Prop43
 90
        3
102
RTVSPost2010PropOp43
 70
     1
102
RTVSPost2010Prop44ColorIndex
 90
        5
102
RTVSPost2010Prop44ColorRGB
 90
      255
102
RTVSPost2010PropOp44
 70
     1
102
RTVSPost2010Prop45
280
     0
102
RTVSPost2010PropOp45
 70
     1
102
RTVSPost2010Prop46
 90
       50
102
RTVSPost2010PropOp46
 70
     1
102
RTVSPost2010Prop47
 90
       50
102
RTVSPost2010PropOp47
 70
     1
102
RTVSPost2010Prop48
 90
       50
102
RTVSPost2010PropOp48
 70
     1
102
RTVSPost2010Prop49
280
     0
102
RTVSPost2010PropOp49
 70
     1
102
RTVSPost2010Prop50
 90
       50
102
RTVSPost2010PropOp50
 70
     1
102
RTVSPost2010Prop51ColorIndex
 90
      256
102
RTVSPost2010Prop51ColorRGB
 90
-16777216
102
RTVSPost2010PropOp51
 70
     0
102
RTVSPost2010Prop52
140
1.0
102
RTVSPost2010PropOp52
 70
     0
102
RTVSPost2010Prop53
 90
        2
102
RTVSPost2010PropOp53
 70
     1
102
RTVSPost2010Prop54
  1
strokes_ogs.tif
102
RTVSPost2010PropOp54
 70
     1
102
RTVSPost2010Prop55
280
     0
102
RTVSPost2010PropOp55
 70
     1
102
RTVSPost2010Prop56
140
1.0
102
RTVSPost2010PropOp56
 70
     1
102
RTVSPost2010Prop57
140
1.0
102
RTVSPost2010PropOp57
 70
     1
102
RTVSPropertyOp0
 70
     1
102
RTVSPropertyOp1
 70
     1
102
RTVSPropertyOp2
 70
     1
102
RTVSPropertyOp3
 70
     1
102
RTVSPropertyOp4
 70
     1
102
RTVSPropertyOp5
 70
     1
102
RTVSPropertyOp6
 70
     1
102
RTVSPropertyOp7
 70
     1
102
RTVSPropertyOp8
 70
     1
102
RTVSPropertyOp9
 70
     1
102
RTVSPropertyOp10
 70
     1
102
RTVSPropertyOp11
 70
     1
102
RTVSPropertyOp12
 70
     1
102
RTVSPropertyOp13
 70
     1
102
RTVSPropertyOp14
 70
     1
102
RTVSPropertyOp15
 70
     1
102
RTVSPropertyOp16
 70
     1
102
RTVSPropertyOp17
 70
     1
102
RTVSPropertyOp18
 70
     1
102
RTVSPropertyOp19
 70
     1
102
RTVSPropertyOp20
 70
     1
102
RTVSPropertyOp21
 70
     1
102
RTVSPropertyOp22
 70
     1
102
RTVSPropertyOp23
 70
     1
102
RTVSPropertyOp24
 70
     1
102
RTVSPropertyOp25
 70
     1
102
RTVSPropertyOp26
 70
     1
102
RTVSPropertyOp27
 70
     1
102
RTVSPropertyOp28
 70
     1
102
RTVSPropertyOp29
 70
     1
102
RTVSPropertyOp30
 70
     1
102
RTVSPropertyOp31
 70
     1
102
RTVSPropertyOp32
 70
     1
102
RTVSPropertyOp33
 70
     1
102
RTVSPropertyOp34
 70
     1
102
RTVSPropertyOp35
 70
     1
102
RTVSPropertyOp36
 70
     1
102
RTVSPropertyOp37
 70
     1
102
RTVSPropertyOp38
 70
     1
102
RTVSPropertyOp39
 70
     1
102
RTVSPropertyOp40
 70
     1
102
RTVSPropertyOp41
 70
     1
102
RTVSPropertyOp42
 70
     1
102
RTVSPropertyOp43
 70
     1
102
RTVSPropertyOp44
 70
     1
102
RTVSPropertyOp45
 70
     1
102
RTVSPropertyOp46
 70
     1
102
RTVSPropertyOp47
 70
     1
102
RTVSPropertyOp48
 70
     1
102
RTVSPropertyOp49
 70
     1
102
RTVSPropertyOp50
 70
     1
102
RTVSPropertyOp51
 70
     0
102
RTVSPropertyOp52
 70
     0
102
RTVSPropertyOp53
 70
     1
102
RTVSPropertyOp54
 70
     1
102
RTVSPropertyOp55
 70
     1
102
RTVSPropertyOp56
 70
     1
102
RTVSPropertyOp57
 70
     1
102
RTVSPropertyOp58
 70
     1
102
RTVSPropertyOp59
 70
     1
102
RTVSPropertyOp60
 70
     1
102
RTVSPropertyOp61
 70
     1
102
RTVSPropertyOp62
 70
     1
  0
XRECORD
  5
66A
102
{ACAD_REACTORS
330
669
102
}
330
669
100
AcDbXrecord
280
     1
102
RTVSPost2010Prop28
280
     0
102
RTVSPost2010PropOp28
 70
     1
102
RTVSPost2010Prop29
280
     1
102
RTVSPost2010PropOp29
 70
     1
102
RTVSPost2010Prop30
280
     1
102
RTVSPost2010PropOp30
 70
     1
102
RTVSPost2010Prop31
280
     0
102
RTVSPost2010PropOp31
 70
     1
102
RTVSPost2010Prop32
280
     0
102
RTVSPost2010PropOp32
 70
     1
102
RTVSPost2010Prop33
280
     0
102
RTVSPost2010PropOp33
 70
     1
102
RTVSPost2010Prop34
280
     0
102
RTVSPost2010PropOp34
 70
     1
102
RTVSPost2010Prop35
280
     0
102
RTVSPost2010PropOp35
 70
     1
102
RTVSPost2010Prop36
280
     0
102
RTVSPost2010PropOp36
 70
     1
102
RTVSPost2010Prop37
 90
       50
102
RTVSPost2010PropOp37
 70
     1
102
RTVSPost2010Prop38
140
0.0
102
RTVSPost2010PropOp38
 70
     1
102
RTVSPost2010Prop39
140
1.0
102
RTVSPost2010PropOp39
 70
     1
102
RTVSPost2010Prop40
 90
        0
102
RTVSPost2010PropOp40
 70
     1
102
RTVSPost2010Prop41ColorIndex
 90
       18
102
RTVSPost2010Prop41ColorRGB
 90
        0
102
RTVSPost2010PropOp41
 70
     1
102
RTVSPost2010Prop42
 90
       50
102
RTVSPost2010PropOp42
 70
     1
102
RTVSPost2010Prop43
 90
        3
102
RTVSPost2010PropOp43
 70
     1
102
RTVSPost2010Prop44ColorIndex
 90
        5
102
RTVSPost2010Prop44ColorRGB
 90
      255
102
RTVSPost2010PropOp44
 70
     1
102
RTVSPost2010Prop45
280
     0
102
RTVSPost2010PropOp45
 70
     1
102
RTVSPost2010Prop46
 90
       50
102
RTVSPost2010PropOp46
 70
     1
102
RTVSPost2010Prop47
 90
       50
102
RTVSPost2010PropOp47
 70
     1
102
RTVSPost2010Prop48
 90
       50
102
RTVSPost2010PropOp48
 70
     1
102
RTVSPost2010Prop49
280
     0
102
RTVSPost2010PropOp49
 70
     1
102
RTVSPost2010Prop50
 90
       50
102
RTVSPost2010PropOp50
 70
     1
102
RTVSPost2010Prop51ColorIndex
 90
      256
102
RTVSPost2010Prop51ColorRGB
 90
-16777216
102
RTVSPost2010PropOp51
 70
     0
102
RTVSPost2010Prop52
140
1.0
102
RTVSPost2010PropOp52
 70
     0
102
RTVSPost2010Prop53
 90
        2
102
RTVSPost2010PropOp53
 70
     1
102
RTVSPost2010Prop54
  1
strokes_ogs.tif
102
RTVSPost2010PropOp54
 70
     1
102
RTVSPost2010Prop55
280
     0
102
RTVSPost2010PropOp55
 70
     1
102
RTVSPost2010Prop56
140
1.0
102
RTVSPost2010PropOp56
 70
     1
102
RTVSPost2010Prop57
140
1.0
102
RTVSPost2010PropOp57
 70
     1
102
RTVSPropertyOp0
 70
     1
102
RTVSPropertyOp1
 70
     1
102
RTVSPropertyOp2
 70
     1
102
RTVSPropertyOp3
 70
     1
102
RTVSPropertyOp4
 70
     1
102
RTVSPropertyOp5
 70
     1
102
RTVSPropertyOp6
 70
     1
102
RTVSPropertyOp7
 70
     1
102
RTVSPropertyOp8
 70
     1
102
RTVSPropertyOp9
 70
     1
102
RTVSPropertyOp10
 70
     1
102
RTVSPropertyOp11
 70
     1
102
RTVSPropertyOp12
 70
     1
102
RTVSPropertyOp13
 70
     1
102
RTVSPropertyOp14
 70
     1
102
RTVSPropertyOp15
 70
     1
102
RTVSPropertyOp16
 70
     1
102
RTVSPropertyOp17
 70
     1
102
RTVSPropertyOp18
 70
     1
102
RTVSPropertyOp19
 70
     1
102
RTVSPropertyOp20
 70
     1
102
RTVSPropertyOp21
 70
     1
102
RTVSPropertyOp22
 70
     1
102
RTVSPropertyOp23
 70
     1
102
RTVSPropertyOp24
 70
     1
102
RTVSPropertyOp25
 70
     1
102
RTVSPropertyOp26
 70
     1
102
RTVSPropertyOp27
 70
     1
102
RTVSPropertyOp28
 70
     1
102
RTVSPropertyOp29
 70
     1
102
RTVSPropertyOp30
 70
     1
102
RTVSPropertyOp31
 70
     1
102
RTVSPropertyOp32
 70
     1
102
RTVSPropertyOp33
 70
     1
102
RTVSPropertyOp34
 70
     1
102
RTVSPropertyOp35
 70
     1
102
RTVSPropertyOp36
 70
     1
102
RTVSPropertyOp37
 70
     1
102
RTVSPropertyOp38
 70
     1
102
RTVSPropertyOp39
 70
     1
102
RTVSPropertyOp40
 70
     1
102
RTVSPropertyOp41
 70
     1
102
RTVSPropertyOp42
 70
     1
102
RTVSPropertyOp43
 70
     1
102
RTVSPropertyOp44
 70
     1
102
RTVSPropertyOp45
 70
     1
102
RTVSPropertyOp46
 70
     1
102
RTVSPropertyOp47
 70
     1
102
RTVSPropertyOp48
 70
     1
102
RTVSPropertyOp49
 70
     1
102
RTVSPropertyOp50
 70
     1
102
RTVSPropertyOp51
 70
     0
102
RTVSPropertyOp52
 70
     0
102
RTVSPropertyOp53
 70
     1
102
RTVSPropertyOp54
 70
     1
102
RTVSPropertyOp55
 70
     1
102
RTVSPropertyOp56
 70
     1
102
RTVSPropertyOp57
 70
     1
102
RTVSPropertyOp58
 70
     1
102
RTVSPropertyOp59
 70
     1
102
RTVSPropertyOp60
 70
     1
102
RTVSPropertyOp61
 70
     1
102
RTVSPropertyOp62
 70
     1
  0
XRECORD
  5
65C
102
{ACAD_REACTORS
330
65B
102
}
330
65B
100
AcDbXrecord
280
     1
102
RTVSPost2010Prop28
280
     0
102
RTVSPost2010PropOp28
 70
     1
102
RTVSPost2010Prop29
280
     1
102
RTVSPost2010PropOp29
 70
     1
102
RTVSPost2010Prop30
280
     1
102
RTVSPost2010PropOp30
 70
     1
102
RTVSPost2010Prop31
280
     0
102
RTVSPost2010PropOp31
 70
     1
102
RTVSPost2010Prop32
280
     0
102
RTVSPost2010PropOp32
 70
     1
102
RTVSPost2010Prop33
280
     0
102
RTVSPost2010PropOp33
 70
     1
102
RTVSPost2010Prop34
280
     0
102
RTVSPost2010PropOp34
 70
     1
102
RTVSPost2010Prop35
280
     0
102
RTVSPost2010PropOp35
 70
     1
102
RTVSPost2010Prop36
280
     0
102
RTVSPost2010PropOp36
 70
     1
102
RTVSPost2010Prop37
 90
       50
102
RTVSPost2010PropOp37
 70
     1
102
RTVSPost2010Prop38
140
0.0
102
RTVSPost2010PropOp38
 70
     1
102
RTVSPost2010Prop39
140
1.0
102
RTVSPost2010PropOp39
 70
     1
102
RTVSPost2010Prop40
 90
        0
102
RTVSPost2010PropOp40
 70
     1
102
RTVSPost2010Prop41ColorIndex
 90
       18
102
RTVSPost2010Prop41ColorRGB
 90
        0
102
RTVSPost2010PropOp41
 70
     1
102
RTVSPost2010Prop42
 90
       50
102
RTVSPost2010PropOp42
 70
     1
102
RTVSPost2010Prop43
 90
        3
102
RTVSPost2010PropOp43
 70
     1
102
RTVSPost2010Prop44ColorIndex
 90
        5
102
RTVSPost2010Prop44ColorRGB
 90
      255
102
RTVSPost2010PropOp44
 70
     1
102
RTVSPost2010Prop45
280
     0
102
RTVSPost2010PropOp45
 70
     1
102
RTVSPost2010Prop46
 90
       50
102
RTVSPost2010PropOp46
 70
     1
102
RTVSPost2010Prop47
 90
       50
102
RTVSPost2010PropOp47
 70
     1
102
RTVSPost2010Prop48
 90
       50
102
RTVSPost2010PropOp48
 70
     1
102
RTVSPost2010Prop49
280
     0
102
RTVSPost2010PropOp49
 70
     1
102
RTVSPost2010Prop50
 90
       50
102
RTVSPost2010PropOp50
 70
     1
102
RTVSPost2010Prop51ColorIndex
 90
      256
102
RTVSPost2010Prop51ColorRGB
 90
-16777216
102
RTVSPost2010PropOp51
 70
     0
102
RTVSPost2010Prop52
140
1.0
102
RTVSPost2010PropOp52
 70
     0
102
RTVSPost2010Prop53
 90
        2
102
RTVSPost2010PropOp53
 70
     1
102
RTVSPost2010Prop54
  1
strokes_ogs.tif
102
RTVSPost2010PropOp54
 70
     1
102
RTVSPost2010Prop55
280
     0
102
RTVSPost2010PropOp55
 70
     1
102
RTVSPost2010Prop56
140
1.0
102
RTVSPost2010PropOp56
 70
     1
102
RTVSPost2010Prop57
140
1.0
102
RTVSPost2010PropOp57
 70
     1
102
RTVSPropertyOp0
 70
     1
102
RTVSPropertyOp1
 70
     1
102
RTVSPropertyOp2
 70
     1
102
RTVSPropertyOp3
 70
     1
102
RTVSPropertyOp4
 70
     1
102
RTVSPropertyOp5
 70
     1
102
RTVSPropertyOp6
 70
     1
102
RTVSPropertyOp7
 70
     1
102
RTVSPropertyOp8
 70
     1
102
RTVSPropertyOp9
 70
     1
102
RTVSPropertyOp10
 70
     1
102
RTVSPropertyOp11
 70
     1
102
RTVSPropertyOp12
 70
     1
102
RTVSPropertyOp13
 70
     1
102
RTVSPropertyOp14
 70
     1
102
RTVSPropertyOp15
 70
     1
102
RTVSPropertyOp16
 70
     1
102
RTVSPropertyOp17
 70
     1
102
RTVSPropertyOp18
 70
     1
102
RTVSPropertyOp19
 70
     1
102
RTVSPropertyOp20
 70
     1
102
RTVSPropertyOp21
 70
     1
102
RTVSPropertyOp22
 70
     1
102
RTVSPropertyOp23
 70
     1
102
RTVSPropertyOp24
 70
     1
102
RTVSPropertyOp25
 70
     1
102
RTVSPropertyOp26
 70
     1
102
RTVSPropertyOp27
 70
     1
102
RTVSPropertyOp28
 70
     1
102
RTVSPropertyOp29
 70
     1
102
RTVSPropertyOp30
 70
     1
102
RTVSPropertyOp31
 70
     1
102
RTVSPropertyOp32
 70
     1
102
RTVSPropertyOp33
 70
     1
102
RTVSPropertyOp34
 70
     1
102
RTVSPropertyOp35
 70
     1
102
RTVSPropertyOp36
 70
     1
102
RTVSPropertyOp37
 70
     1
102
RTVSPropertyOp38
 70
     1
102
RTVSPropertyOp39
 70
     1
102
RTVSPropertyOp40
 70
     1
102
RTVSPropertyOp41
 70
     1
102
RTVSPropertyOp42
 70
     1
102
RTVSPropertyOp43
 70
     1
102
RTVSPropertyOp44
 70
     1
102
RTVSPropertyOp45
 70
     1
102
RTVSPropertyOp46
 70
     1
102
RTVSPropertyOp47
 70
     1
102
RTVSPropertyOp48
 70
     1
102
RTVSPropertyOp49
 70
     1
102
RTVSPropertyOp50
 70
     1
102
RTVSPropertyOp51
 70
     0
102
RTVSPropertyOp52
 70
     0
102
RTVSPropertyOp53
 70
     1
102
RTVSPropertyOp54
 70
     1
102
RTVSPropertyOp55
 70
     1
102
RTVSPropertyOp56
 70
     1
102
RTVSPropertyOp57
 70
     1
102
RTVSPropertyOp58
 70
     1
102
RTVSPropertyOp59
 70
     1
102
RTVSPropertyOp60
 70
     1
102
RTVSPropertyOp61
 70
     1
102
RTVSPropertyOp62
 70
     1
  0
XRECORD
  5
660
102
{ACAD_REACTORS
330
65F
102
}
330
65F
100
AcDbXrecord
280
     1
102
RTVSPost2010Prop28
280
     0
102
RTVSPost2010PropOp28
 70
     1
102
RTVSPost2010Prop29
280
     1
102
RTVSPost2010PropOp29
 70
     1
102
RTVSPost2010Prop30
280
     1
102
RTVSPost2010PropOp30
 70
     1
102
RTVSPost2010Prop31
280
     0
102
RTVSPost2010PropOp31
 70
     1
102
RTVSPost2010Prop32
280
     0
102
RTVSPost2010PropOp32
 70
     1
102
RTVSPost2010Prop33
280
     0
102
RTVSPost2010PropOp33
 70
     1
102
RTVSPost2010Prop34
280
     0
102
RTVSPost2010PropOp34
 70
     1
102
RTVSPost2010Prop35
280
     0
102
RTVSPost2010PropOp35
 70
     1
102
RTVSPost2010Prop36
280
     0
102
RTVSPost2010PropOp36
 70
     1
102
RTVSPost2010Prop37
 90
       50
102
RTVSPost2010PropOp37
 70
     1
102
RTVSPost2010Prop38
140
0.0
102
RTVSPost2010PropOp38
 70
     1
102
RTVSPost2010Prop39
140
1.0
102
RTVSPost2010PropOp39
 70
     1
102
RTVSPost2010Prop40
 90
        0
102
RTVSPost2010PropOp40
 70
     1
102
RTVSPost2010Prop41ColorIndex
 90
       18
102
RTVSPost2010Prop41ColorRGB
 90
        0
102
RTVSPost2010PropOp41
 70
     1
102
RTVSPost2010Prop42
 90
       50
102
RTVSPost2010PropOp42
 70
     1
102
RTVSPost2010Prop43
 90
        3
102
RTVSPost2010PropOp43
 70
     1
102
RTVSPost2010Prop44ColorIndex
 90
        5
102
RTVSPost2010Prop44ColorRGB
 90
      255
102
RTVSPost2010PropOp44
 70
     1
102
RTVSPost2010Prop45
280
     0
102
RTVSPost2010PropOp45
 70
     1
102
RTVSPost2010Prop46
 90
       50
102
RTVSPost2010PropOp46
 70
     1
102
RTVSPost2010Prop47
 90
       50
102
RTVSPost2010PropOp47
 70
     1
102
RTVSPost2010Prop48
 90
       50
102
RTVSPost2010PropOp48
 70
     1
102
RTVSPost2010Prop49
280
     0
102
RTVSPost2010PropOp49
 70
     1
102
RTVSPost2010Prop50
 90
       50
102
RTVSPost2010PropOp50
 70
     1
102
RTVSPost2010Prop51ColorIndex
 90
      256
102
RTVSPost2010Prop51ColorRGB
 90
-16777216
102
RTVSPost2010PropOp51
 70
     0
102
RTVSPost2010Prop52
140
1.0
102
RTVSPost2010PropOp52
 70
     0
102
RTVSPost2010Prop53
 90
        2
102
RTVSPost2010PropOp53
 70
     1
102
RTVSPost2010Prop54
  1
strokes_ogs.tif
102
RTVSPost2010PropOp54
 70
     1
102
RTVSPost2010Prop55
280
     0
102
RTVSPost2010PropOp55
 70
     1
102
RTVSPost2010Prop56
140
1.0
102
RTVSPost2010PropOp56
 70
     1
102
RTVSPost2010Prop57
140
1.0
102
RTVSPost2010PropOp57
 70
     1
102
RTVSPropertyOp0
 70
     1
102
RTVSPropertyOp1
 70
     1
102
RTVSPropertyOp2
 70
     1
102
RTVSPropertyOp3
 70
     1
102
RTVSPropertyOp4
 70
     1
102
RTVSPropertyOp5
 70
     1
102
RTVSPropertyOp6
 70
     1
102
RTVSPropertyOp7
 70
     1
102
RTVSPropertyOp8
 70
     1
102
RTVSPropertyOp9
 70
     1
102
RTVSPropertyOp10
 70
     1
102
RTVSPropertyOp11
 70
     1
102
RTVSPropertyOp12
 70
     1
102
RTVSPropertyOp13
 70
     1
102
RTVSPropertyOp14
 70
     1
102
RTVSPropertyOp15
 70
     1
102
RTVSPropertyOp16
 70
     1
102
RTVSPropertyOp17
 70
     1
102
RTVSPropertyOp18
 70
     1
102
RTVSPropertyOp19
 70
     1
102
RTVSPropertyOp20
 70
     1
102
RTVSPropertyOp21
 70
     1
102
RTVSPropertyOp22
 70
     1
102
RTVSPropertyOp23
 70
     1
102
RTVSPropertyOp24
 70
     1
102
RTVSPropertyOp25
 70
     1
102
RTVSPropertyOp26
 70
     1
102
RTVSPropertyOp27
 70
     1
102
RTVSPropertyOp28
 70
     1
102
RTVSPropertyOp29
 70
     1
102
RTVSPropertyOp30
 70
     1
102
RTVSPropertyOp31
 70
     1
102
RTVSPropertyOp32
 70
     1
102
RTVSPropertyOp33
 70
     1
102
RTVSPropertyOp34
 70
     1
102
RTVSPropertyOp35
 70
     1
102
RTVSPropertyOp36
 70
     1
102
RTVSPropertyOp37
 70
     1
102
RTVSPropertyOp38
 70
     1
102
RTVSPropertyOp39
 70
     1
102
RTVSPropertyOp40
 70
     1
102
RTVSPropertyOp41
 70
     1
102
RTVSPropertyOp42
 70
     1
102
RTVSPropertyOp43
 70
     1
102
RTVSPropertyOp44
 70
     1
102
RTVSPropertyOp45
 70
     1
102
RTVSPropertyOp46
 70
     1
102
RTVSPropertyOp47
 70
     1
102
RTVSPropertyOp48
 70
     1
102
RTVSPropertyOp49
 70
     1
102
RTVSPropertyOp50
 70
     1
102
RTVSPropertyOp51
 70
     0
102
RTVSPropertyOp52
 70
     0
102
RTVSPropertyOp53
 70
     1
102
RTVSPropertyOp54
 70
     1
102
RTVSPropertyOp55
 70
     1
102
RTVSPropertyOp56
 70
     1
102
RTVSPropertyOp57
 70
     1
102
RTVSPropertyOp58
 70
     1
102
RTVSPropertyOp59
 70
     1
102
RTVSPropertyOp60
 70
     1
102
RTVSPropertyOp61
 70
     1
102
RTVSPropertyOp62
 70
     1
  0
XRECORD
  5
67A
102
{ACAD_REACTORS
330
679
102
}
330
679
100
AcDbXrecord
280
     1
102
RTVSPost2010Prop28
280
     0
102
RTVSPost2010PropOp28
 70
     1
102
RTVSPost2010Prop29
280
     1
102
RTVSPost2010PropOp29
 70
     1
102
RTVSPost2010Prop30
280
     1
102
RTVSPost2010PropOp30
 70
     1
102
RTVSPost2010Prop31
280
     0
102
RTVSPost2010PropOp31
 70
     1
102
RTVSPost2010Prop32
280
     0
102
RTVSPost2010PropOp32
 70
     1
102
RTVSPost2010Prop33
280
     0
102
RTVSPost2010PropOp33
 70
     1
102
RTVSPost2010Prop34
280
     0
102
RTVSPost2010PropOp34
 70
     1
102
RTVSPost2010Prop35
280
     0
102
RTVSPost2010PropOp35
 70
     1
102
RTVSPost2010Prop36
280
     0
102
RTVSPost2010PropOp36
 70
     1
102
RTVSPost2010Prop37
 90
       50
102
RTVSPost2010PropOp37
 70
     0
102
RTVSPost2010Prop38
140
0.0
102
RTVSPost2010PropOp38
 70
     0
102
RTVSPost2010Prop39
140
1.0
102
RTVSPost2010PropOp39
 70
     0
102
RTVSPost2010Prop40
 90
        0
102
RTVSPost2010PropOp40
 70
     0
102
RTVSPost2010Prop41ColorIndex
 90
       18
102
RTVSPost2010Prop41ColorRGB
 90
        0
102
RTVSPost2010PropOp41
 70
     0
102
RTVSPost2010Prop42
 90
       50
102
RTVSPost2010PropOp42
 70
     0
102
RTVSPost2010Prop43
 90
        3
102
RTVSPost2010PropOp43
 70
     0
102
RTVSPost2010Prop44ColorIndex
 90
        5
102
RTVSPost2010Prop44ColorRGB
 90
      255
102
RTVSPost2010PropOp44
 70
     0
102
RTVSPost2010Prop45
280
     0
102
RTVSPost2010PropOp45
 70
     1
102
RTVSPost2010Prop46
 90
       50
102
RTVSPost2010PropOp46
 70
     0
102
RTVSPost2010Prop47
 90
       50
102
RTVSPost2010PropOp47
 70
     0
102
RTVSPost2010Prop48
 90
       50
102
RTVSPost2010PropOp48
 70
     0
102
RTVSPost2010Prop49
280
     0
102
RTVSPost2010PropOp49
 70
     1
102
RTVSPost2010Prop50
 90
       50
102
RTVSPost2010PropOp50
 70
     0
102
RTVSPost2010Prop51ColorIndex
 90
      256
102
RTVSPost2010Prop51ColorRGB
 90
-16777216
102
RTVSPost2010PropOp51
 70
     0
102
RTVSPost2010Prop52
140
1.0
102
RTVSPost2010PropOp52
 70
     0
102
RTVSPost2010Prop53
 90
        2
102
RTVSPost2010PropOp53
 70
     0
102
RTVSPost2010Prop54
  1
strokes_ogs.tif
102
RTVSPost2010PropOp54
 70
     0
102
RTVSPost2010Prop55
280
     0
102
RTVSPost2010PropOp55
 70
     1
102
RTVSPost2010Prop56
140
1.0
102
RTVSPost2010PropOp56
 70
     0
102
RTVSPost2010Prop57
140
1.0
102
RTVSPost2010PropOp57
 70
     0
102
RTVSPropertyOp0
 70
     0
102
RTVSPropertyOp1
 70
     0
102
RTVSPropertyOp2
 70
     0
102
RTVSPropertyOp3
 70
     0
102
RTVSPropertyOp4
 70
     0
102
RTVSPropertyOp5
 70
     0
102
RTVSPropertyOp6
 70
     0
102
RTVSPropertyOp7
 70
     0
102
RTVSPropertyOp8
 70
     0
102
RTVSPropertyOp9
 70
     0
102
RTVSPropertyOp10
 70
     0
102
RTVSPropertyOp11
 70
     0
102
RTVSPropertyOp12
 70
     0
102
RTVSPropertyOp13
 70
     0
102
RTVSPropertyOp14
 70
     2
102
RTVSPropertyOp15
 70
     0
102
RTVSPropertyOp16
 70
     0
102
RTVSPropertyOp17
 70
     0
102
RTVSPropertyOp18
 70
     0
102
RTVSPropertyOp19
 70
     0
102
RTVSPropertyOp20
 70
     0
102
RTVSPropertyOp21
 70
     0
102
RTVSPropertyOp22
 70
     0
102
RTVSPropertyOp23
 70
     0
102
RTVSPropertyOp24
 70
     0
102
RTVSPropertyOp25
 70
     0
102
RTVSPropertyOp26
 70
     0
102
RTVSPropertyOp27
 70
     0
102
RTVSPropertyOp28
 70
     1
102
RTVSPropertyOp29
 70
     1
102
RTVSPropertyOp30
 70
     1
102
RTVSPropertyOp31
 70
     1
102
RTVSPropertyOp32
 70
     1
102
RTVSPropertyOp33
 70
     1
102
RTVSPropertyOp34
 70
     1
102
RTVSPropertyOp35
 70
     1
102
RTVSPropertyOp36
 70
     1
102
RTVSPropertyOp37
 70
     0
102
RTVSPropertyOp38
 70
     0
102
RTVSPropertyOp39
 70
     0
102
RTVSPropertyOp40
 70
     0
102
RTVSPropertyOp41
 70
     0
102
RTVSPropertyOp42
 70
     0
102
RTVSPropertyOp43
 70
     0
102
RTVSPropertyOp44
 70
     0
102
RTVSPropertyOp45
 70
     1
102
RTVSPropertyOp46
 70
     0
102
RTVSPropertyOp47
 70
     0
102
RTVSPropertyOp48
 70
     0
102
RTVSPropertyOp49
 70
     1
102
RTVSPropertyOp50
 70
     0
102
RTVSPropertyOp51
 70
     0
102
RTVSPropertyOp52
 70
     0
102
RTVSPropertyOp53
 70
     0
102
RTVSPropertyOp54
 70
     0
102
RTVSPropertyOp55
 70
     1
102
RTVSPropertyOp56
 70
     0
102
RTVSPropertyOp57
 70
     0
102
RTVSPropertyOp58
 70
     0
102
RTVSPropertyOp59
 70
     0
102
RTVSPropertyOp60
 70
     0
102
RTVSPropertyOp61
 70
     0
102
RTVSPropertyOp62
 70
     0
  0
XRECORD
  5
668
102
{ACAD_REACTORS
330
667
102
}
330
667
100
AcDbXrecord
280
     1
102
RTVSPost2010Prop28
280
     0
102
RTVSPost2010PropOp28
 70
     1
102
RTVSPost2010Prop29
280
     1
102
RTVSPost2010PropOp29
 70
     1
102
RTVSPost2010Prop30
280
     1
102
RTVSPost2010PropOp30
 70
     1
102
RTVSPost2010Prop31
280
     0
102
RTVSPost2010PropOp31
 70
     1
102
RTVSPost2010Prop32
280
     0
102
RTVSPost2010PropOp32
 70
     1
102
RTVSPost2010Prop33
280
     0
102
RTVSPost2010PropOp33
 70
     1
102
RTVSPost2010Prop34
280
     0
102
RTVSPost2010PropOp34
 70
     1
102
RTVSPost2010Prop35
280
     0
102
RTVSPost2010PropOp35
 70
     1
102
RTVSPost2010Prop36
280
     0
102
RTVSPost2010PropOp36
 70
     1
102
RTVSPost2010Prop37
 90
       50
102
RTVSPost2010PropOp37
 70
     1
102
RTVSPost2010Prop38
140
0.0
102
RTVSPost2010PropOp38
 70
     1
102
RTVSPost2010Prop39
140
1.0
102
RTVSPost2010PropOp39
 70
     1
102
RTVSPost2010Prop40
 90
        0
102
RTVSPost2010PropOp40
 70
     1
102
RTVSPost2010Prop41ColorIndex
 90
       18
102
RTVSPost2010Prop41ColorRGB
 90
        0
102
RTVSPost2010PropOp41
 70
     1
102
RTVSPost2010Prop42
 90
       50
102
RTVSPost2010PropOp42
 70
     1
102
RTVSPost2010Prop43
 90
        3
102
RTVSPost2010PropOp43
 70
     1
102
RTVSPost2010Prop44ColorIndex
 90
        5
102
RTVSPost2010Prop44ColorRGB
 90
      255
102
RTVSPost2010PropOp44
 70
     1
102
RTVSPost2010Prop45
280
     0
102
RTVSPost2010PropOp45
 70
     1
102
RTVSPost2010Prop46
 90
       50
102
RTVSPost2010PropOp46
 70
     1
102
RTVSPost2010Prop47
 90
       50
102
RTVSPost2010PropOp47
 70
     1
102
RTVSPost2010Prop48
 90
       50
102
RTVSPost2010PropOp48
 70
     1
102
RTVSPost2010Prop49
280
     0
102
RTVSPost2010PropOp49
 70
     1
102
RTVSPost2010Prop50
 90
       50
102
RTVSPost2010PropOp50
 70
     1
102
RTVSPost2010Prop51ColorIndex
 90
      256
102
RTVSPost2010Prop51ColorRGB
 90
-16777216
102
RTVSPost2010PropOp51
 70
     0
102
RTVSPost2010Prop52
140
1.0
102
RTVSPost2010PropOp52
 70
     0
102
RTVSPost2010Prop53
 90
        2
102
RTVSPost2010PropOp53
 70
     1
102
RTVSPost2010Prop54
  1
strokes_ogs.tif
102
RTVSPost2010PropOp54
 70
     1
102
RTVSPost2010Prop55
280
     0
102
RTVSPost2010PropOp55
 70
     1
102
RTVSPost2010Prop56
140
1.0
102
RTVSPost2010PropOp56
 70
     1
102
RTVSPost2010Prop57
140
1.0
102
RTVSPost2010PropOp57
 70
     1
102
RTVSPropertyOp0
 70
     1
102
RTVSPropertyOp1
 70
     1
102
RTVSPropertyOp2
 70
     1
102
RTVSPropertyOp3
 70
     1
102
RTVSPropertyOp4
 70
     1
102
RTVSPropertyOp5
 70
     1
102
RTVSPropertyOp6
 70
     1
102
RTVSPropertyOp7
 70
     1
102
RTVSPropertyOp8
 70
     1
102
RTVSPropertyOp9
 70
     1
102
RTVSPropertyOp10
 70
     1
102
RTVSPropertyOp11
 70
     1
102
RTVSPropertyOp12
 70
     1
102
RTVSPropertyOp13
 70
     1
102
RTVSPropertyOp14
 70
     1
102
RTVSPropertyOp15
 70
     1
102
RTVSPropertyOp16
 70
     1
102
RTVSPropertyOp17
 70
     1
102
RTVSPropertyOp18
 70
     1
102
RTVSPropertyOp19
 70
     1
102
RTVSPropertyOp20
 70
     1
102
RTVSPropertyOp21
 70
     1
102
RTVSPropertyOp22
 70
     1
102
RTVSPropertyOp23
 70
     1
102
RTVSPropertyOp24
 70
     1
102
RTVSPropertyOp25
 70
     1
102
RTVSPropertyOp26
 70
     1
102
RTVSPropertyOp27
 70
     1
102
RTVSPropertyOp28
 70
     1
102
RTVSPropertyOp29
 70
     1
102
RTVSPropertyOp30
 70
     1
102
RTVSPropertyOp31
 70
     1
102
RTVSPropertyOp32
 70
     1
102
RTVSPropertyOp33
 70
     1
102
RTVSPropertyOp34
 70
     1
102
RTVSPropertyOp35
 70
     1
102
RTVSPropertyOp36
 70
     1
102
RTVSPropertyOp37
 70
     1
102
RTVSPropertyOp38
 70
     1
102
RTVSPropertyOp39
 70
     1
102
RTVSPropertyOp40
 70
     1
102
RTVSPropertyOp41
 70
     1
102
RTVSPropertyOp42
 70
     1
102
RTVSPropertyOp43
 70
     1
102
RTVSPropertyOp44
 70
     1
102
RTVSPropertyOp45
 70
     1
102
RTVSPropertyOp46
 70
     1
102
RTVSPropertyOp47
 70
     1
102
RTVSPropertyOp48
 70
     1
102
RTVSPropertyOp49
 70
     1
102
RTVSPropertyOp50
 70
     1
102
RTVSPropertyOp51
 70
     0
102
RTVSPropertyOp52
 70
     0
102
RTVSPropertyOp53
 70
     1
102
RTVSPropertyOp54
 70
     1
102
RTVSPropertyOp55
 70
     1
102
RTVSPropertyOp56
 70
     1
102
RTVSPropertyOp57
 70
     1
102
RTVSPropertyOp58
 70
     1
102
RTVSPropertyOp59
 70
     1
102
RTVSPropertyOp60
 70
     1
102
RTVSPropertyOp61
 70
     1
102
RTVSPropertyOp62
 70
     1
  0
XRECORD
  5
64C
102
{ACAD_REACTORS
330
64B
102
}
330
64B
100
AcDbXrecord
280
     1
102
RTVSPost2010Prop28
280
     0
102
RTVSPost2010PropOp28
 70
     1
102
RTVSPost2010Prop29
280
     1
102
RTVSPost2010PropOp29
 70
     1
102
RTVSPost2010Prop30
280
     1
102
RTVSPost2010PropOp30
 70
     1
102
RTVSPost2010Prop31
280
     0
102
RTVSPost2010PropOp31
 70
     1
102
RTVSPost2010Prop32
280
     0
102
RTVSPost2010PropOp32
 70
     1
102
RTVSPost2010Prop33
280
     0
102
RTVSPost2010PropOp33
 70
     1
102
RTVSPost2010Prop34
280
     0
102
RTVSPost2010PropOp34
 70
     1
102
RTVSPost2010Prop35
280
     0
102
RTVSPost2010PropOp35
 70
     1
102
RTVSPost2010Prop36
280
     0
102
RTVSPost2010PropOp36
 70
     1
102
RTVSPost2010Prop37
 90
       50
102
RTVSPost2010PropOp37
 70
     1
102
RTVSPost2010Prop38
140
0.0
102
RTVSPost2010PropOp38
 70
     1
102
RTVSPost2010Prop39
140
1.0
102
RTVSPost2010PropOp39
 70
     1
102
RTVSPost2010Prop40
 90
        0
102
RTVSPost2010PropOp40
 70
     1
102
RTVSPost2010Prop41ColorIndex
 90
       18
102
RTVSPost2010Prop41ColorRGB
 90
        0
102
RTVSPost2010PropOp41
 70
     1
102
RTVSPost2010Prop42
 90
       50
102
RTVSPost2010PropOp42
 70
     1
102
RTVSPost2010Prop43
 90
        3
102
RTVSPost2010PropOp43
 70
     1
102
RTVSPost2010Prop44ColorIndex
 90
        5
102
RTVSPost2010Prop44ColorRGB
 90
      255
102
RTVSPost2010PropOp44
 70
     1
102
RTVSPost2010Prop45
280
     0
102
RTVSPost2010PropOp45
 70
     1
102
RTVSPost2010Prop46
 90
       50
102
RTVSPost2010PropOp46
 70
     1
102
RTVSPost2010Prop47
 90
       50
102
RTVSPost2010PropOp47
 70
     1
102
RTVSPost2010Prop48
 90
       50
102
RTVSPost2010PropOp48
 70
     1
102
RTVSPost2010Prop49
280
     0
102
RTVSPost2010PropOp49
 70
     1
102
RTVSPost2010Prop50
 90
       50
102
RTVSPost2010PropOp50
 70
     1
102
RTVSPost2010Prop51ColorIndex
 90
      256
102
RTVSPost2010Prop51ColorRGB
 90
-16777216
102
RTVSPost2010PropOp51
 70
     0
102
RTVSPost2010Prop52
140
1.0
102
RTVSPost2010PropOp52
 70
     0
102
RTVSPost2010Prop53
 90
        2
102
RTVSPost2010PropOp53
 70
     1
102
RTVSPost2010Prop54
  1
strokes_ogs.tif
102
RTVSPost2010PropOp54
 70
     1
102
RTVSPost2010Prop55
280
     0
102
RTVSPost2010PropOp55
 70
     1
102
RTVSPost2010Prop56
140
1.0
102
RTVSPost2010PropOp56
 70
     1
102
RTVSPost2010Prop57
140
1.0
102
RTVSPost2010PropOp57
 70
     1
102
RTVSPropertyOp0
 70
     1
102
RTVSPropertyOp1
 70
     1
102
RTVSPropertyOp2
 70
     1
102
RTVSPropertyOp3
 70
     1
102
RTVSPropertyOp4
 70
     1
102
RTVSPropertyOp5
 70
     1
102
RTVSPropertyOp6
 70
     1
102
RTVSPropertyOp7
 70
     1
102
RTVSPropertyOp8
 70
     1
102
RTVSPropertyOp9
 70
     1
102
RTVSPropertyOp10
 70
     1
102
RTVSPropertyOp11
 70
     1
102
RTVSPropertyOp12
 70
     1
102
RTVSPropertyOp13
 70
     1
102
RTVSPropertyOp14
 70
     1
102
RTVSPropertyOp15
 70
     1
102
RTVSPropertyOp16
 70
     1
102
RTVSPropertyOp17
 70
     1
102
RTVSPropertyOp18
 70
     1
102
RTVSPropertyOp19
 70
     1
102
RTVSPropertyOp20
 70
     1
102
RTVSPropertyOp21
 70
     1
102
RTVSPropertyOp22
 70
     1
102
RTVSPropertyOp23
 70
     1
102
RTVSPropertyOp24
 70
     1
102
RTVSPropertyOp25
 70
     1
102
RTVSPropertyOp26
 70
     1
102
RTVSPropertyOp27
 70
     1
102
RTVSPropertyOp28
 70
     1
102
RTVSPropertyOp29
 70
     1
102
RTVSPropertyOp30
 70
     1
102
RTVSPropertyOp31
 70
     1
102
RTVSPropertyOp32
 70
     1
102
RTVSPropertyOp33
 70
     1
102
RTVSPropertyOp34
 70
     1
102
RTVSPropertyOp35
 70
     1
102
RTVSPropertyOp36
 70
     1
102
RTVSPropertyOp37
 70
     1
102
RTVSPropertyOp38
 70
     1
102
RTVSPropertyOp39
 70
     1
102
RTVSPropertyOp40
 70
     1
102
RTVSPropertyOp41
 70
     1
102
RTVSPropertyOp42
 70
     1
102
RTVSPropertyOp43
 70
     1
102
RTVSPropertyOp44
 70
     1
102
RTVSPropertyOp45
 70
     1
102
RTVSPropertyOp46
 70
     1
102
RTVSPropertyOp47
 70
     1
102
RTVSPropertyOp48
 70
     1
102
RTVSPropertyOp49
 70
     1
102
RTVSPropertyOp50
 70
     1
102
RTVSPropertyOp51
 70
     0
102
RTVSPropertyOp52
 70
     0
102
RTVSPropertyOp53
 70
     1
102
RTVSPropertyOp54
 70
     1
102
RTVSPropertyOp55
 70
     1
102
RTVSPropertyOp56
 70
     1
102
RTVSPropertyOp57
 70
     1
102
RTVSPropertyOp58
 70
     1
102
RTVSPropertyOp59
 70
     1
102
RTVSPropertyOp60
 70
     1
102
RTVSPropertyOp61
 70
     1
102
RTVSPropertyOp62
 70
     1
  0
XRECORD
  5
64E
102
{ACAD_REACTORS
330
64D
102
}
330
64D
100
AcDbXrecord
280
     1
102
RTVSPost2010Prop28
280
     0
102
RTVSPost2010PropOp28
 70
     1
102
RTVSPost2010Prop29
280
     1
102
RTVSPost2010PropOp29
 70
     1
102
RTVSPost2010Prop30
280
     1
102
RTVSPost2010PropOp30
 70
     1
102
RTVSPost2010Prop31
280
     0
102
RTVSPost2010PropOp31
 70
     1
102
RTVSPost2010Prop32
280
     0
102
RTVSPost2010PropOp32
 70
     1
102
RTVSPost2010Prop33
280
     0
102
RTVSPost2010PropOp33
 70
     1
102
RTVSPost2010Prop34
280
     0
102
RTVSPost2010PropOp34
 70
     1
102
RTVSPost2010Prop35
280
     0
102
RTVSPost2010PropOp35
 70
     1
102
RTVSPost2010Prop36
280
     0
102
RTVSPost2010PropOp36
 70
     1
102
RTVSPost2010Prop37
 90
       50
102
RTVSPost2010PropOp37
 70
     1
102
RTVSPost2010Prop38
140
0.0
102
RTVSPost2010PropOp38
 70
     1
102
RTVSPost2010Prop39
140
1.0
102
RTVSPost2010PropOp39
 70
     1
102
RTVSPost2010Prop40
 90
        0
102
RTVSPost2010PropOp40
 70
     1
102
RTVSPost2010Prop41ColorIndex
 90
       18
102
RTVSPost2010Prop41ColorRGB
 90
        0
102
RTVSPost2010PropOp41
 70
     1
102
RTVSPost2010Prop42
 90
       50
102
RTVSPost2010PropOp42
 70
     1
102
RTVSPost2010Prop43
 90
        3
102
RTVSPost2010PropOp43
 70
     1
102
RTVSPost2010Prop44ColorIndex
 90
        5
102
RTVSPost2010Prop44ColorRGB
 90
      255
102
RTVSPost2010PropOp44
 70
     1
102
RTVSPost2010Prop45
280
     0
102
RTVSPost2010PropOp45
 70
     1
102
RTVSPost2010Prop46
 90
       50
102
RTVSPost2010PropOp46
 70
     1
102
RTVSPost2010Prop47
 90
       50
102
RTVSPost2010PropOp47
 70
     1
102
RTVSPost2010Prop48
 90
       50
102
RTVSPost2010PropOp48
 70
     1
102
RTVSPost2010Prop49
280
     0
102
RTVSPost2010PropOp49
 70
     1
102
RTVSPost2010Prop50
 90
       50
102
RTVSPost2010PropOp50
 70
     1
102
RTVSPost2010Prop51ColorIndex
 90
      256
102
RTVSPost2010Prop51ColorRGB
 90
-16777216
102
RTVSPost2010PropOp51
 70
     0
102
RTVSPost2010Prop52
140
1.0
102
RTVSPost2010PropOp52
 70
     0
102
RTVSPost2010Prop53
 90
        2
102
RTVSPost2010PropOp53
 70
     1
102
RTVSPost2010Prop54
  1
strokes_ogs.tif
102
RTVSPost2010PropOp54
 70
     1
102
RTVSPost2010Prop55
280
     0
102
RTVSPost2010PropOp55
 70
     1
102
RTVSPost2010Prop56
140
1.0
102
RTVSPost2010PropOp56
 70
     1
102
RTVSPost2010Prop57
140
1.0
102
RTVSPost2010PropOp57
 70
     1
102
RTVSPropertyOp0
 70
     1
102
RTVSPropertyOp1
 70
     1
102
RTVSPropertyOp2
 70
     1
102
RTVSPropertyOp3
 70
     1
102
RTVSPropertyOp4
 70
     1
102
RTVSPropertyOp5
 70
     1
102
RTVSPropertyOp6
 70
     1
102
RTVSPropertyOp7
 70
     1
102
RTVSPropertyOp8
 70
     1
102
RTVSPropertyOp9
 70
     1
102
RTVSPropertyOp10
 70
     1
102
RTVSPropertyOp11
 70
     1
102
RTVSPropertyOp12
 70
     1
102
RTVSPropertyOp13
 70
     1
102
RTVSPropertyOp14
 70
     1
102
RTVSPropertyOp15
 70
     1
102
RTVSPropertyOp16
 70
     1
102
RTVSPropertyOp17
 70
     1
102
RTVSPropertyOp18
 70
     1
102
RTVSPropertyOp19
 70
     1
102
RTVSPropertyOp20
 70
     1
102
RTVSPropertyOp21
 70
     1
102
RTVSPropertyOp22
 70
     1
102
RTVSPropertyOp23
 70
     1
102
RTVSPropertyOp24
 70
     1
102
RTVSPropertyOp25
 70
     1
102
RTVSPropertyOp26
 70
     1
102
RTVSPropertyOp27
 70
     1
102
RTVSPropertyOp28
 70
     1
102
RTVSPropertyOp29
 70
     1
102
RTVSPropertyOp30
 70
     1
102
RTVSPropertyOp31
 70
     1
102
RTVSPropertyOp32
 70
     1
102
RTVSPropertyOp33
 70
     1
102
RTVSPropertyOp34
 70
     1
102
RTVSPropertyOp35
 70
     1
102
RTVSPropertyOp36
 70
     1
102
RTVSPropertyOp37
 70
     1
102
RTVSPropertyOp38
 70
     1
102
RTVSPropertyOp39
 70
     1
102
RTVSPropertyOp40
 70
     1
102
RTVSPropertyOp41
 70
     1
102
RTVSPropertyOp42
 70
     1
102
RTVSPropertyOp43
 70
     1
102
RTVSPropertyOp44
 70
     1
102
RTVSPropertyOp45
 70
     1
102
RTVSPropertyOp46
 70
     1
102
RTVSPropertyOp47
 70
     1
102
RTVSPropertyOp48
 70
     1
102
RTVSPropertyOp49
 70
     1
102
RTVSPropertyOp50
 70
     1
102
RTVSPropertyOp51
 70
     0
102
RTVSPropertyOp52
 70
     0
102
RTVSPropertyOp53
 70
     1
102
RTVSPropertyOp54
 70
     1
102
RTVSPropertyOp55
 70
     1
102
RTVSPropertyOp56
 70
     1
102
RTVSPropertyOp57
 70
     1
102
RTVSPropertyOp58
 70
     1
102
RTVSPropertyOp59
 70
     1
102
RTVSPropertyOp60
 70
     1
102
RTVSPropertyOp61
 70
     1
102
RTVSPropertyOp62
 70
     1
  0
XRECORD
  5
650
102
{ACAD_REACTORS
330
64F
102
}
330
64F
100
AcDbXrecord
280
     1
102
RTVSPost2010Prop28
280
     0
102
RTVSPost2010PropOp28
 70
     1
102
RTVSPost2010Prop29
280
     1
102
RTVSPost2010PropOp29
 70
     1
102
RTVSPost2010Prop30
280
     1
102
RTVSPost2010PropOp30
 70
     1
102
RTVSPost2010Prop31
280
     0
102
RTVSPost2010PropOp31
 70
     1
102
RTVSPost2010Prop32
280
     0
102
RTVSPost2010PropOp32
 70
     1
102
RTVSPost2010Prop33
280
     0
102
RTVSPost2010PropOp33
 70
     1
102
RTVSPost2010Prop34
280
     0
102
RTVSPost2010PropOp34
 70
     1
102
RTVSPost2010Prop35
280
     0
102
RTVSPost2010PropOp35
 70
     1
102
RTVSPost2010Prop36
280
     0
102
RTVSPost2010PropOp36
 70
     1
102
RTVSPost2010Prop37
 90
       50
102
RTVSPost2010PropOp37
 70
     1
102
RTVSPost2010Prop38
140
0.0
102
RTVSPost2010PropOp38
 70
     1
102
RTVSPost2010Prop39
140
1.0
102
RTVSPost2010PropOp39
 70
     1
102
RTVSPost2010Prop40
 90
        0
102
RTVSPost2010PropOp40
 70
     1
102
RTVSPost2010Prop41ColorIndex
 90
       18
102
RTVSPost2010Prop41ColorRGB
 90
        0
102
RTVSPost2010PropOp41
 70
     1
102
RTVSPost2010Prop42
 90
       50
102
RTVSPost2010PropOp42
 70
     1
102
RTVSPost2010Prop43
 90
        3
102
RTVSPost2010PropOp43
 70
     1
102
RTVSPost2010Prop44ColorIndex
 90
        5
102
RTVSPost2010Prop44ColorRGB
 90
      255
102
RTVSPost2010PropOp44
 70
     1
102
RTVSPost2010Prop45
280
     0
102
RTVSPost2010PropOp45
 70
     1
102
RTVSPost2010Prop46
 90
       50
102
RTVSPost2010PropOp46
 70
     1
102
RTVSPost2010Prop47
 90
       50
102
RTVSPost2010PropOp47
 70
     1
102
RTVSPost2010Prop48
 90
       50
102
RTVSPost2010PropOp48
 70
     1
102
RTVSPost2010Prop49
280
     0
102
RTVSPost2010PropOp49
 70
     1
102
RTVSPost2010Prop50
 90
       50
102
RTVSPost2010PropOp50
 70
     1
102
RTVSPost2010Prop51ColorIndex
 90
      256
102
RTVSPost2010Prop51ColorRGB
 90
-16777216
102
RTVSPost2010PropOp51
 70
     0
102
RTVSPost2010Prop52
140
1.0
102
RTVSPost2010PropOp52
 70
     0
102
RTVSPost2010Prop53
 90
        2
102
RTVSPost2010PropOp53
 70
     1
102
RTVSPost2010Prop54
  1
strokes_ogs.tif
102
RTVSPost2010PropOp54
 70
     1
102
RTVSPost2010Prop55
280
     0
102
RTVSPost2010PropOp55
 70
     1
102
RTVSPost2010Prop56
140
1.0
102
RTVSPost2010PropOp56
 70
     1
102
RTVSPost2010Prop57
140
1.0
102
RTVSPost2010PropOp57
 70
     1
102
RTVSPropertyOp0
 70
     1
102
RTVSPropertyOp1
 70
     1
102
RTVSPropertyOp2
 70
     1
102
RTVSPropertyOp3
 70
     1
102
RTVSPropertyOp4
 70
     1
102
RTVSPropertyOp5
 70
     1
102
RTVSPropertyOp6
 70
     1
102
RTVSPropertyOp7
 70
     1
102
RTVSPropertyOp8
 70
     1
102
RTVSPropertyOp9
 70
     1
102
RTVSPropertyOp10
 70
     1
102
RTVSPropertyOp11
 70
     1
102
RTVSPropertyOp12
 70
     1
102
RTVSPropertyOp13
 70
     1
102
RTVSPropertyOp14
 70
     1
102
RTVSPropertyOp15
 70
     1
102
RTVSPropertyOp16
 70
     1
102
RTVSPropertyOp17
 70
     1
102
RTVSPropertyOp18
 70
     1
102
RTVSPropertyOp19
 70
     1
102
RTVSPropertyOp20
 70
     1
102
RTVSPropertyOp21
 70
     1
102
RTVSPropertyOp22
 70
     1
102
RTVSPropertyOp23
 70
     1
102
RTVSPropertyOp24
 70
     1
102
RTVSPropertyOp25
 70
     1
102
RTVSPropertyOp26
 70
     1
102
RTVSPropertyOp27
 70
     1
102
RTVSPropertyOp28
 70
     1
102
RTVSPropertyOp29
 70
     1
102
RTVSPropertyOp30
 70
     1
102
RTVSPropertyOp31
 70
     1
102
RTVSPropertyOp32
 70
     1
102
RTVSPropertyOp33
 70
     1
102
RTVSPropertyOp34
 70
     1
102
RTVSPropertyOp35
 70
     1
102
RTVSPropertyOp36
 70
     1
102
RTVSPropertyOp37
 70
     1
102
RTVSPropertyOp38
 70
     1
102
RTVSPropertyOp39
 70
     1
102
RTVSPropertyOp40
 70
     1
102
RTVSPropertyOp41
 70
     1
102
RTVSPropertyOp42
 70
     1
102
RTVSPropertyOp43
 70
     1
102
RTVSPropertyOp44
 70
     1
102
RTVSPropertyOp45
 70
     1
102
RTVSPropertyOp46
 70
     1
102
RTVSPropertyOp47
 70
     1
102
RTVSPropertyOp48
 70
     1
102
RTVSPropertyOp49
 70
     1
102
RTVSPropertyOp50
 70
     1
102
RTVSPropertyOp51
 70
     0
102
RTVSPropertyOp52
 70
     0
102
RTVSPropertyOp53
 70
     1
102
RTVSPropertyOp54
 70
     1
102
RTVSPropertyOp55
 70
     1
102
RTVSPropertyOp56
 70
     1
102
RTVSPropertyOp57
 70
     1
102
RTVSPropertyOp58
 70
     1
102
RTVSPropertyOp59
 70
     1
102
RTVSPropertyOp60
 70
     1
102
RTVSPropertyOp61
 70
     1
102
RTVSPropertyOp62
 70
     1
  0
XRECORD
  5
652
102
{ACAD_REACTORS
330
651
102
}
330
651
100
AcDbXrecord
280
     1
102
RTVSPost2010Prop28
280
     0
102
RTVSPost2010PropOp28
 70
     1
102
RTVSPost2010Prop29
280
     1
102
RTVSPost2010PropOp29
 70
     1
102
RTVSPost2010Prop30
280
     1
102
RTVSPost2010PropOp30
 70
     1
102
RTVSPost2010Prop31
280
     0
102
RTVSPost2010PropOp31
 70
     1
102
RTVSPost2010Prop32
280
     0
102
RTVSPost2010PropOp32
 70
     1
102
RTVSPost2010Prop33
280
     0
102
RTVSPost2010PropOp33
 70
     1
102
RTVSPost2010Prop34
280
     0
102
RTVSPost2010PropOp34
 70
     1
102
RTVSPost2010Prop35
280
     0
102
RTVSPost2010PropOp35
 70
     1
102
RTVSPost2010Prop36
280
     0
102
RTVSPost2010PropOp36
 70
     1
102
RTVSPost2010Prop37
 90
       50
102
RTVSPost2010PropOp37
 70
     1
102
RTVSPost2010Prop38
140
0.0
102
RTVSPost2010PropOp38
 70
     1
102
RTVSPost2010Prop39
140
1.0
102
RTVSPost2010PropOp39
 70
     1
102
RTVSPost2010Prop40
 90
        0
102
RTVSPost2010PropOp40
 70
     1
102
RTVSPost2010Prop41ColorIndex
 90
       18
102
RTVSPost2010Prop41ColorRGB
 90
        0
102
RTVSPost2010PropOp41
 70
     1
102
RTVSPost2010Prop42
 90
       50
102
RTVSPost2010PropOp42
 70
     1
102
RTVSPost2010Prop43
 90
        3
102
RTVSPost2010PropOp43
 70
     1
102
RTVSPost2010Prop44ColorIndex
 90
        5
102
RTVSPost2010Prop44ColorRGB
 90
      255
102
RTVSPost2010PropOp44
 70
     1
102
RTVSPost2010Prop45
280
     0
102
RTVSPost2010PropOp45
 70
     1
102
RTVSPost2010Prop46
 90
       50
102
RTVSPost2010PropOp46
 70
     1
102
RTVSPost2010Prop47
 90
       50
102
RTVSPost2010PropOp47
 70
     1
102
RTVSPost2010Prop48
 90
       50
102
RTVSPost2010PropOp48
 70
     1
102
RTVSPost2010Prop49
280
     0
102
RTVSPost2010PropOp49
 70
     1
102
RTVSPost2010Prop50
 90
       50
102
RTVSPost2010PropOp50
 70
     1
102
RTVSPost2010Prop51ColorIndex
 90
      256
102
RTVSPost2010Prop51ColorRGB
 90
-16777216
102
RTVSPost2010PropOp51
 70
     0
102
RTVSPost2010Prop52
140
1.0
102
RTVSPost2010PropOp52
 70
     0
102
RTVSPost2010Prop53
 90
        2
102
RTVSPost2010PropOp53
 70
     1
102
RTVSPost2010Prop54
  1
strokes_ogs.tif
102
RTVSPost2010PropOp54
 70
     1
102
RTVSPost2010Prop55
280
     0
102
RTVSPost2010PropOp55
 70
     1
102
RTVSPost2010Prop56
140
1.0
102
RTVSPost2010PropOp56
 70
     1
102
RTVSPost2010Prop57
140
1.0
102
RTVSPost2010PropOp57
 70
     1
102
RTVSPropertyOp0
 70
     1
102
RTVSPropertyOp1
 70
     1
102
RTVSPropertyOp2
 70
     1
102
RTVSPropertyOp3
 70
     1
102
RTVSPropertyOp4
 70
     1
102
RTVSPropertyOp5
 70
     1
102
RTVSPropertyOp6
 70
     1
102
RTVSPropertyOp7
 70
     1
102
RTVSPropertyOp8
 70
     1
102
RTVSPropertyOp9
 70
     1
102
RTVSPropertyOp10
 70
     1
102
RTVSPropertyOp11
 70
     1
102
RTVSPropertyOp12
 70
     1
102
RTVSPropertyOp13
 70
     1
102
RTVSPropertyOp14
 70
     1
102
RTVSPropertyOp15
 70
     1
102
RTVSPropertyOp16
 70
     1
102
RTVSPropertyOp17
 70
     1
102
RTVSPropertyOp18
 70
     1
102
RTVSPropertyOp19
 70
     1
102
RTVSPropertyOp20
 70
     1
102
RTVSPropertyOp21
 70
     1
102
RTVSPropertyOp22
 70
     1
102
RTVSPropertyOp23
 70
     1
102
RTVSPropertyOp24
 70
     1
102
RTVSPropertyOp25
 70
     1
102
RTVSPropertyOp26
 70
     1
102
RTVSPropertyOp27
 70
     1
102
RTVSPropertyOp28
 70
     1
102
RTVSPropertyOp29
 70
     1
102
RTVSPropertyOp30
 70
     1
102
RTVSPropertyOp31
 70
     1
102
RTVSPropertyOp32
 70
     1
102
RTVSPropertyOp33
 70
     1
102
RTVSPropertyOp34
 70
     1
102
RTVSPropertyOp35
 70
     1
102
RTVSPropertyOp36
 70
     1
102
RTVSPropertyOp37
 70
     1
102
RTVSPropertyOp38
 70
     1
102
RTVSPropertyOp39
 70
     1
102
RTVSPropertyOp40
 70
     1
102
RTVSPropertyOp41
 70
     1
102
RTVSPropertyOp42
 70
     1
102
RTVSPropertyOp43
 70
     1
102
RTVSPropertyOp44
 70
     1
102
RTVSPropertyOp45
 70
     1
102
RTVSPropertyOp46
 70
     1
102
RTVSPropertyOp47
 70
     1
102
RTVSPropertyOp48
 70
     1
102
RTVSPropertyOp49
 70
     1
102
RTVSPropertyOp50
 70
     1
102
RTVSPropertyOp51
 70
     0
102
RTVSPropertyOp52
 70
     0
102
RTVSPropertyOp53
 70
     1
102
RTVSPropertyOp54
 70
     1
102
RTVSPropertyOp55
 70
     1
102
RTVSPropertyOp56
 70
     1
102
RTVSPropertyOp57
 70
     1
102
RTVSPropertyOp58
 70
     1
102
RTVSPropertyOp59
 70
     1
102
RTVSPropertyOp60
 70
     1
102
RTVSPropertyOp61
 70
     1
102
RTVSPropertyOp62
 70
     1
  0
XRECORD
  5
65A
102
{ACAD_REACTORS
330
659
102
}
330
659
100
AcDbXrecord
280
     1
102
RTVSPost2010Prop28
280
     0
102
RTVSPost2010PropOp28
 70
     1
102
RTVSPost2010Prop29
280
     1
102
RTVSPost2010PropOp29
 70
     1
102
RTVSPost2010Prop30
280
     1
102
RTVSPost2010PropOp30
 70
     1
102
RTVSPost2010Prop31
280
     0
102
RTVSPost2010PropOp31
 70
     1
102
RTVSPost2010Prop32
280
     0
102
RTVSPost2010PropOp32
 70
     1
102
RTVSPost2010Prop33
280
     0
102
RTVSPost2010PropOp33
 70
     1
102
RTVSPost2010Prop34
280
     0
102
RTVSPost2010PropOp34
 70
     1
102
RTVSPost2010Prop35
280
     0
102
RTVSPost2010PropOp35
 70
     1
102
RTVSPost2010Prop36
280
     0
102
RTVSPost2010PropOp36
 70
     1
102
RTVSPost2010Prop37
 90
       50
102
RTVSPost2010PropOp37
 70
     1
102
RTVSPost2010Prop38
140
0.0
102
RTVSPost2010PropOp38
 70
     1
102
RTVSPost2010Prop39
140
1.0
102
RTVSPost2010PropOp39
 70
     1
102
RTVSPost2010Prop40
 90
        0
102
RTVSPost2010PropOp40
 70
     1
102
RTVSPost2010Prop41ColorIndex
 90
       18
102
RTVSPost2010Prop41ColorRGB
 90
        0
102
RTVSPost2010PropOp41
 70
     1
102
RTVSPost2010Prop42
 90
       50
102
RTVSPost2010PropOp42
 70
     1
102
RTVSPost2010Prop43
 90
        3
102
RTVSPost2010PropOp43
 70
     1
102
RTVSPost2010Prop44ColorIndex
 90
        5
102
RTVSPost2010Prop44ColorRGB
 90
      255
102
RTVSPost2010PropOp44
 70
     1
102
RTVSPost2010Prop45
280
     0
102
RTVSPost2010PropOp45
 70
     1
102
RTVSPost2010Prop46
 90
       50
102
RTVSPost2010PropOp46
 70
     1
102
RTVSPost2010Prop47
 90
       50
102
RTVSPost2010PropOp47
 70
     1
102
RTVSPost2010Prop48
 90
       50
102
RTVSPost2010PropOp48
 70
     1
102
RTVSPost2010Prop49
280
     0
102
RTVSPost2010PropOp49
 70
     1
102
RTVSPost2010Prop50
 90
       50
102
RTVSPost2010PropOp50
 70
     1
102
RTVSPost2010Prop51ColorIndex
 90
      256
102
RTVSPost2010Prop51ColorRGB
 90
-16777216
102
RTVSPost2010PropOp51
 70
     0
102
RTVSPost2010Prop52
140
1.0
102
RTVSPost2010PropOp52
 70
     0
102
RTVSPost2010Prop53
 90
        2
102
RTVSPost2010PropOp53
 70
     1
102
RTVSPost2010Prop54
  1
strokes_ogs.tif
102
RTVSPost2010PropOp54
 70
     1
102
RTVSPost2010Prop55
280
     0
102
RTVSPost2010PropOp55
 70
     1
102
RTVSPost2010Prop56
140
1.0
102
RTVSPost2010PropOp56
 70
     1
102
RTVSPost2010Prop57
140
1.0
102
RTVSPost2010PropOp57
 70
     1
102
RTVSPropertyOp0
 70
     1
102
RTVSPropertyOp1
 70
     1
102
RTVSPropertyOp2
 70
     1
102
RTVSPropertyOp3
 70
     1
102
RTVSPropertyOp4
 70
     1
102
RTVSPropertyOp5
 70
     1
102
RTVSPropertyOp6
 70
     1
102
RTVSPropertyOp7
 70
     1
102
RTVSPropertyOp8
 70
     1
102
RTVSPropertyOp9
 70
     1
102
RTVSPropertyOp10
 70
     1
102
RTVSPropertyOp11
 70
     1
102
RTVSPropertyOp12
 70
     1
102
RTVSPropertyOp13
 70
     1
102
RTVSPropertyOp14
 70
     1
102
RTVSPropertyOp15
 70
     1
102
RTVSPropertyOp16
 70
     1
102
RTVSPropertyOp17
 70
     1
102
RTVSPropertyOp18
 70
     1
102
RTVSPropertyOp19
 70
     1
102
RTVSPropertyOp20
 70
     1
102
RTVSPropertyOp21
 70
     1
102
RTVSPropertyOp22
 70
     1
102
RTVSPropertyOp23
 70
     1
102
RTVSPropertyOp24
 70
     1
102
RTVSPropertyOp25
 70
     1
102
RTVSPropertyOp26
 70
     1
102
RTVSPropertyOp27
 70
     1
102
RTVSPropertyOp28
 70
     1
102
RTVSPropertyOp29
 70
     1
102
RTVSPropertyOp30
 70
     1
102
RTVSPropertyOp31
 70
     1
102
RTVSPropertyOp32
 70
     1
102
RTVSPropertyOp33
 70
     1
102
RTVSPropertyOp34
 70
     1
102
RTVSPropertyOp35
 70
     1
102
RTVSPropertyOp36
 70
     1
102
RTVSPropertyOp37
 70
     1
102
RTVSPropertyOp38
 70
     1
102
RTVSPropertyOp39
 70
     1
102
RTVSPropertyOp40
 70
     1
102
RTVSPropertyOp41
 70
     1
102
RTVSPropertyOp42
 70
     1
102
RTVSPropertyOp43
 70
     1
102
RTVSPropertyOp44
 70
     1
102
RTVSPropertyOp45
 70
     1
102
RTVSPropertyOp46
 70
     1
102
RTVSPropertyOp47
 70
     1
102
RTVSPropertyOp48
 70
     1
102
RTVSPropertyOp49
 70
     1
102
RTVSPropertyOp50
 70
     1
102
RTVSPropertyOp51
 70
     0
102
RTVSPropertyOp52
 70
     0
102
RTVSPropertyOp53
 70
     1
102
RTVSPropertyOp54
 70
     1
102
RTVSPropertyOp55
 70
     1
102
RTVSPropertyOp56
 70
     1
102
RTVSPropertyOp57
 70
     1
102
RTVSPropertyOp58
 70
     1
102
RTVSPropertyOp59
 70
     1
102
RTVSPropertyOp60
 70
     1
102
RTVSPropertyOp61
 70
     1
102
RTVSPropertyOp62
 70
     1
  0
XRECORD
  5
676
102
{ACAD_REACTORS
330
675
102
}
330
675
100
AcDbXrecord
280
     1
102
RTVSPost2010Prop28
280
     0
102
RTVSPost2010PropOp28
 70
     1
102
RTVSPost2010Prop29
280
     1
102
RTVSPost2010PropOp29
 70
     1
102
RTVSPost2010Prop30
280
     1
102
RTVSPost2010PropOp30
 70
     1
102
RTVSPost2010Prop31
280
     0
102
RTVSPost2010PropOp31
 70
     1
102
RTVSPost2010Prop32
280
     0
102
RTVSPost2010PropOp32
 70
     1
102
RTVSPost2010Prop33
280
     0
102
RTVSPost2010PropOp33
 70
     1
102
RTVSPost2010Prop34
280
     0
102
RTVSPost2010PropOp34
 70
     1
102
RTVSPost2010Prop35
280
     0
102
RTVSPost2010PropOp35
 70
     1
102
RTVSPost2010Prop36
280
     0
102
RTVSPost2010PropOp36
 70
     1
102
RTVSPost2010Prop37
 90
       50
102
RTVSPost2010PropOp37
 70
     0
102
RTVSPost2010Prop38
140
0.0
102
RTVSPost2010PropOp38
 70
     0
102
RTVSPost2010Prop39
140
1.0
102
RTVSPost2010PropOp39
 70
     0
102
RTVSPost2010Prop40
 90
        0
102
RTVSPost2010PropOp40
 70
     0
102
RTVSPost2010Prop41ColorIndex
 90
       18
102
RTVSPost2010Prop41ColorRGB
 90
        0
102
RTVSPost2010PropOp41
 70
     0
102
RTVSPost2010Prop42
 90
       50
102
RTVSPost2010PropOp42
 70
     0
102
RTVSPost2010Prop43
 90
        3
102
RTVSPost2010PropOp43
 70
     0
102
RTVSPost2010Prop44ColorIndex
 90
        5
102
RTVSPost2010Prop44ColorRGB
 90
      255
102
RTVSPost2010PropOp44
 70
     0
102
RTVSPost2010Prop45
280
     0
102
RTVSPost2010PropOp45
 70
     1
102
RTVSPost2010Prop46
 90
       50
102
RTVSPost2010PropOp46
 70
     0
102
RTVSPost2010Prop47
 90
       50
102
RTVSPost2010PropOp47
 70
     0
102
RTVSPost2010Prop48
 90
       50
102
RTVSPost2010PropOp48
 70
     0
102
RTVSPost2010Prop49
280
     0
102
RTVSPost2010PropOp49
 70
     1
102
RTVSPost2010Prop50
 90
       50
102
RTVSPost2010PropOp50
 70
     0
102
RTVSPost2010Prop51ColorIndex
 90
      256
102
RTVSPost2010Prop51ColorRGB
 90
-16777216
102
RTVSPost2010PropOp51
 70
     0
102
RTVSPost2010Prop52
140
1.0
102
RTVSPost2010PropOp52
 70
     0
102
RTVSPost2010Prop53
 90
        2
102
RTVSPost2010PropOp53
 70
     0
102
RTVSPost2010Prop54
  1
strokes_ogs.tif
102
RTVSPost2010PropOp54
 70
     0
102
RTVSPost2010Prop55
280
     0
102
RTVSPost2010PropOp55
 70
     1
102
RTVSPost2010Prop56
140
1.0
102
RTVSPost2010PropOp56
 70
     0
102
RTVSPost2010Prop57
140
1.0
102
RTVSPost2010PropOp57
 70
     0
102
RTVSPropertyOp0
 70
     0
102
RTVSPropertyOp1
 70
     0
102
RTVSPropertyOp2
 70
     0
102
RTVSPropertyOp3
 70
     0
102
RTVSPropertyOp4
 70
     0
102
RTVSPropertyOp5
 70
     0
102
RTVSPropertyOp6
 70
     0
102
RTVSPropertyOp7
 70
     0
102
RTVSPropertyOp8
 70
     0
102
RTVSPropertyOp9
 70
     0
102
RTVSPropertyOp10
 70
     0
102
RTVSPropertyOp11
 70
     0
102
RTVSPropertyOp12
 70
     0
102
RTVSPropertyOp13
 70
     0
102
RTVSPropertyOp14
 70
     2
102
RTVSPropertyOp15
 70
     0
102
RTVSPropertyOp16
 70
     0
102
RTVSPropertyOp17
 70
     0
102
RTVSPropertyOp18
 70
     0
102
RTVSPropertyOp19
 70
     0
102
RTVSPropertyOp20
 70
     0
102
RTVSPropertyOp21
 70
     0
102
RTVSPropertyOp22
 70
     0
102
RTVSPropertyOp23
 70
     0
102
RTVSPropertyOp24
 70
     0
102
RTVSPropertyOp25
 70
     0
102
RTVSPropertyOp26
 70
     0
102
RTVSPropertyOp27
 70
     0
102
RTVSPropertyOp28
 70
     1
102
RTVSPropertyOp29
 70
     1
102
RTVSPropertyOp30
 70
     1
102
RTVSPropertyOp31
 70
     1
102
RTVSPropertyOp32
 70
     1
102
RTVSPropertyOp33
 70
     1
102
RTVSPropertyOp34
 70
     1
102
RTVSPropertyOp35
 70
     1
102
RTVSPropertyOp36
 70
     1
102
RTVSPropertyOp37
 70
     0
102
RTVSPropertyOp38
 70
     0
102
RTVSPropertyOp39
 70
     0
102
RTVSPropertyOp40
 70
     0
102
RTVSPropertyOp41
 70
     0
102
RTVSPropertyOp42
 70
     0
102
RTVSPropertyOp43
 70
     0
102
RTVSPropertyOp44
 70
     0
102
RTVSPropertyOp45
 70
     1
102
RTVSPropertyOp46
 70
     0
102
RTVSPropertyOp47
 70
     0
102
RTVSPropertyOp48
 70
     0
102
RTVSPropertyOp49
 70
     1
102
RTVSPropertyOp50
 70
     0
102
RTVSPropertyOp51
 70
     0
102
RTVSPropertyOp52
 70
     0
102
RTVSPropertyOp53
 70
     0
102
RTVSPropertyOp54
 70
     0
102
RTVSPropertyOp55
 70
     1
102
RTVSPropertyOp56
 70
     0
102
RTVSPropertyOp57
 70
     0
102
RTVSPropertyOp58
 70
     0
102
RTVSPropertyOp59
 70
     0
102
RTVSPropertyOp60
 70
     0
102
RTVSPropertyOp61
 70
     0
102
RTVSPropertyOp62
 70
     0
  0
XRECORD
  5
666
102
{ACAD_REACTORS
330
665
102
}
330
665
100
AcDbXrecord
280
     1
102
RTVSPost2010Prop28
280
     0
102
RTVSPost2010PropOp28
 70
     1
102
RTVSPost2010Prop29
280
     1
102
RTVSPost2010PropOp29
 70
     1
102
RTVSPost2010Prop30
280
     1
102
RTVSPost2010PropOp30
 70
     1
102
RTVSPost2010Prop31
280
     0
102
RTVSPost2010PropOp31
 70
     1
102
RTVSPost2010Prop32
280
     0
102
RTVSPost2010PropOp32
 70
     1
102
RTVSPost2010Prop33
280
     0
102
RTVSPost2010PropOp33
 70
     1
102
RTVSPost2010Prop34
280
     0
102
RTVSPost2010PropOp34
 70
     1
102
RTVSPost2010Prop35
280
     0
102
RTVSPost2010PropOp35
 70
     1
102
RTVSPost2010Prop36
280
     0
102
RTVSPost2010PropOp36
 70
     1
102
RTVSPost2010Prop37
 90
       50
102
RTVSPost2010PropOp37
 70
     1
102
RTVSPost2010Prop38
140
0.0
102
RTVSPost2010PropOp38
 70
     1
102
RTVSPost2010Prop39
140
1.0
102
RTVSPost2010PropOp39
 70
     1
102
RTVSPost2010Prop40
 90
        0
102
RTVSPost2010PropOp40
 70
     1
102
RTVSPost2010Prop41ColorIndex
 90
       18
102
RTVSPost2010Prop41ColorRGB
 90
        0
102
RTVSPost2010PropOp41
 70
     1
102
RTVSPost2010Prop42
 90
       50
102
RTVSPost2010PropOp42
 70
     1
102
RTVSPost2010Prop43
 90
        3
102
RTVSPost2010PropOp43
 70
     1
102
RTVSPost2010Prop44ColorIndex
 90
        5
102
RTVSPost2010Prop44ColorRGB
 90
      255
102
RTVSPost2010PropOp44
 70
     1
102
RTVSPost2010Prop45
280
     0
102
RTVSPost2010PropOp45
 70
     1
102
RTVSPost2010Prop46
 90
       50
102
RTVSPost2010PropOp46
 70
     1
102
RTVSPost2010Prop47
 90
       50
102
RTVSPost2010PropOp47
 70
     1
102
RTVSPost2010Prop48
 90
       50
102
RTVSPost2010PropOp48
 70
     1
102
RTVSPost2010Prop49
280
     0
102
RTVSPost2010PropOp49
 70
     1
102
RTVSPost2010Prop50
 90
       50
102
RTVSPost2010PropOp50
 70
     1
102
RTVSPost2010Prop51ColorIndex
 90
      256
102
RTVSPost2010Prop51ColorRGB
 90
-16777216
102
RTVSPost2010PropOp51
 70
     0
102
RTVSPost2010Prop52
140
1.0
102
RTVSPost2010PropOp52
 70
     0
102
RTVSPost2010Prop53
 90
        2
102
RTVSPost2010PropOp53
 70
     1
102
RTVSPost2010Prop54
  1
strokes_ogs.tif
102
RTVSPost2010PropOp54
 70
     1
102
RTVSPost2010Prop55
280
     0
102
RTVSPost2010PropOp55
 70
     1
102
RTVSPost2010Prop56
140
1.0
102
RTVSPost2010PropOp56
 70
     1
102
RTVSPost2010Prop57
140
1.0
102
RTVSPost2010PropOp57
 70
     1
102
RTVSPropertyOp0
 70
     1
102
RTVSPropertyOp1
 70
     1
102
RTVSPropertyOp2
 70
     1
102
RTVSPropertyOp3
 70
     1
102
RTVSPropertyOp4
 70
     1
102
RTVSPropertyOp5
 70
     1
102
RTVSPropertyOp6
 70
     1
102
RTVSPropertyOp7
 70
     1
102
RTVSPropertyOp8
 70
     1
102
RTVSPropertyOp9
 70
     1
102
RTVSPropertyOp10
 70
     1
102
RTVSPropertyOp11
 70
     1
102
RTVSPropertyOp12
 70
     1
102
RTVSPropertyOp13
 70
     1
102
RTVSPropertyOp14
 70
     1
102
RTVSPropertyOp15
 70
     1
102
RTVSPropertyOp16
 70
     1
102
RTVSPropertyOp17
 70
     1
102
RTVSPropertyOp18
 70
     1
102
RTVSPropertyOp19
 70
     1
102
RTVSPropertyOp20
 70
     1
102
RTVSPropertyOp21
 70
     1
102
RTVSPropertyOp22
 70
     1
102
RTVSPropertyOp23
 70
     1
102
RTVSPropertyOp24
 70
     1
102
RTVSPropertyOp25
 70
     1
102
RTVSPropertyOp26
 70
     1
102
RTVSPropertyOp27
 70
     1
102
RTVSPropertyOp28
 70
     1
102
RTVSPropertyOp29
 70
     1
102
RTVSPropertyOp30
 70
     1
102
RTVSPropertyOp31
 70
     1
102
RTVSPropertyOp32
 70
     1
102
RTVSPropertyOp33
 70
     1
102
RTVSPropertyOp34
 70
     1
102
RTVSPropertyOp35
 70
     1
102
RTVSPropertyOp36
 70
     1
102
RTVSPropertyOp37
 70
     1
102
RTVSPropertyOp38
 70
     1
102
RTVSPropertyOp39
 70
     1
102
RTVSPropertyOp40
 70
     1
102
RTVSPropertyOp41
 70
     1
102
RTVSPropertyOp42
 70
     1
102
RTVSPropertyOp43
 70
     1
102
RTVSPropertyOp44
 70
     1
102
RTVSPropertyOp45
 70
     1
102
RTVSPropertyOp46
 70
     1
102
RTVSPropertyOp47
 70
     1
102
RTVSPropertyOp48
 70
     1
102
RTVSPropertyOp49
 70
     1
102
RTVSPropertyOp50
 70
     1
102
RTVSPropertyOp51
 70
     0
102
RTVSPropertyOp52
 70
     0
102
RTVSPropertyOp53
 70
     1
102
RTVSPropertyOp54
 70
     1
102
RTVSPropertyOp55
 70
     1
102
RTVSPropertyOp56
 70
     1
102
RTVSPropertyOp57
 70
     1
102
RTVSPropertyOp58
 70
     1
102
RTVSPropertyOp59
 70
     1
102
RTVSPropertyOp60
 70
     1
102
RTVSPropertyOp61
 70
     1
102
RTVSPropertyOp62
 70
     1
  0
XRECORD
  5
678
102
{ACAD_REACTORS
330
677
102
}
330
677
100
AcDbXrecord
280
     1
102
RTVSPost2010Prop28
280
     0
102
RTVSPost2010PropOp28
 70
     1
102
RTVSPost2010Prop29
280
     1
102
RTVSPost2010PropOp29
 70
     1
102
RTVSPost2010Prop30
280
     1
102
RTVSPost2010PropOp30
 70
     1
102
RTVSPost2010Prop31
280
     0
102
RTVSPost2010PropOp31
 70
     1
102
RTVSPost2010Prop32
280
     0
102
RTVSPost2010PropOp32
 70
     1
102
RTVSPost2010Prop33
280
     0
102
RTVSPost2010PropOp33
 70
     1
102
RTVSPost2010Prop34
280
     0
102
RTVSPost2010PropOp34
 70
     1
102
RTVSPost2010Prop35
280
     0
102
RTVSPost2010PropOp35
 70
     1
102
RTVSPost2010Prop36
280
     0
102
RTVSPost2010PropOp36
 70
     1
102
RTVSPost2010Prop37
 90
       50
102
RTVSPost2010PropOp37
 70
     0
102
RTVSPost2010Prop38
140
0.0
102
RTVSPost2010PropOp38
 70
     0
102
RTVSPost2010Prop39
140
1.0
102
RTVSPost2010PropOp39
 70
     0
102
RTVSPost2010Prop40
 90
        0
102
RTVSPost2010PropOp40
 70
     0
102
RTVSPost2010Prop41ColorIndex
 90
       18
102
RTVSPost2010Prop41ColorRGB
 90
        0
102
RTVSPost2010PropOp41
 70
     0
102
RTVSPost2010Prop42
 90
       50
102
RTVSPost2010PropOp42
 70
     0
102
RTVSPost2010Prop43
 90
        3
102
RTVSPost2010PropOp43
 70
     0
102
RTVSPost2010Prop44ColorIndex
 90
        5
102
RTVSPost2010Prop44ColorRGB
 90
      255
102
RTVSPost2010PropOp44
 70
     0
102
RTVSPost2010Prop45
280
     0
102
RTVSPost2010PropOp45
 70
     1
102
RTVSPost2010Prop46
 90
       50
102
RTVSPost2010PropOp46
 70
     0
102
RTVSPost2010Prop47
 90
       50
102
RTVSPost2010PropOp47
 70
     0
102
RTVSPost2010Prop48
 90
       50
102
RTVSPost2010PropOp48
 70
     0
102
RTVSPost2010Prop49
280
     0
102
RTVSPost2010PropOp49
 70
     1
102
RTVSPost2010Prop50
 90
       50
102
RTVSPost2010PropOp50
 70
     0
102
RTVSPost2010Prop51ColorIndex
 90
      256
102
RTVSPost2010Prop51ColorRGB
 90
-16777216
102
RTVSPost2010PropOp51
 70
     0
102
RTVSPost2010Prop52
140
1.0
102
RTVSPost2010PropOp52
 70
     0
102
RTVSPost2010Prop53
 90
        2
102
RTVSPost2010PropOp53
 70
     0
102
RTVSPost2010Prop54
  1
strokes_ogs.tif
102
RTVSPost2010PropOp54
 70
     0
102
RTVSPost2010Prop55
280
     0
102
RTVSPost2010PropOp55
 70
     1
102
RTVSPost2010Prop56
140
1.0
102
RTVSPost2010PropOp56
 70
     0
102
RTVSPost2010Prop57
140
1.0
102
RTVSPost2010PropOp57
 70
     0
102
RTVSPropertyOp0
 70
     0
102
RTVSPropertyOp1
 70
     0
102
RTVSPropertyOp2
 70
     0
102
RTVSPropertyOp3
 70
     0
102
RTVSPropertyOp4
 70
     0
102
RTVSPropertyOp5
 70
     0
102
RTVSPropertyOp6
 70
     0
102
RTVSPropertyOp7
 70
     0
102
RTVSPropertyOp8
 70
     0
102
RTVSPropertyOp9
 70
     0
102
RTVSPropertyOp10
 70
     0
102
RTVSPropertyOp11
 70
     0
102
RTVSPropertyOp12
 70
     0
102
RTVSPropertyOp13
 70
     0
102
RTVSPropertyOp14
 70
     2
102
RTVSPropertyOp15
 70
     0
102
RTVSPropertyOp16
 70
     0
102
RTVSPropertyOp17
 70
     0
102
RTVSPropertyOp18
 70
     0
102
RTVSPropertyOp19
 70
     0
102
RTVSPropertyOp20
 70
     0
102
RTVSPropertyOp21
 70
     0
102
RTVSPropertyOp22
 70
     0
102
RTVSPropertyOp23
 70
     0
102
RTVSPropertyOp24
 70
     0
102
RTVSPropertyOp25
 70
     0
102
RTVSPropertyOp26
 70
     0
102
RTVSPropertyOp27
 70
     0
102
RTVSPropertyOp28
 70
     1
102
RTVSPropertyOp29
 70
     1
102
RTVSPropertyOp30
 70
     1
102
RTVSPropertyOp31
 70
     1
102
RTVSPropertyOp32
 70
     1
102
RTVSPropertyOp33
 70
     1
102
RTVSPropertyOp34
 70
     1
102
RTVSPropertyOp35
 70
     1
102
RTVSPropertyOp36
 70
     1
102
RTVSPropertyOp37
 70
     0
102
RTVSPropertyOp38
 70
     0
102
RTVSPropertyOp39
 70
     0
102
RTVSPropertyOp40
 70
     0
102
RTVSPropertyOp41
 70
     0
102
RTVSPropertyOp42
 70
     0
102
RTVSPropertyOp43
 70
     0
102
RTVSPropertyOp44
 70
     0
102
RTVSPropertyOp45
 70
     1
102
RTVSPropertyOp46
 70
     0
102
RTVSPropertyOp47
 70
     0
102
RTVSPropertyOp48
 70
     0
102
RTVSPropertyOp49
 70
     1
102
RTVSPropertyOp50
 70
     0
102
RTVSPropertyOp51
 70
     0
102
RTVSPropertyOp52
 70
     0
102
RTVSPropertyOp53
 70
     0
102
RTVSPropertyOp54
 70
     0
102
RTVSPropertyOp55
 70
     1
102
RTVSPropertyOp56
 70
     0
102
RTVSPropertyOp57
 70
     0
102
RTVSPropertyOp58
 70
     0
102
RTVSPropertyOp59
 70
     0
102
RTVSPropertyOp60
 70
     0
102
RTVSPropertyOp61
 70
     0
102
RTVSPropertyOp62
 70
     0
  0
XRECORD
  5
65E
102
{ACAD_REACTORS
330
65D
102
}
330
65D
100
AcDbXrecord
280
     1
102
RTVSPost2010Prop28
280
     0
102
RTVSPost2010PropOp28
 70
     1
102
RTVSPost2010Prop29
280
     1
102
RTVSPost2010PropOp29
 70
     1
102
RTVSPost2010Prop30
280
     1
102
RTVSPost2010PropOp30
 70
     1
102
RTVSPost2010Prop31
280
     0
102
RTVSPost2010PropOp31
 70
     1
102
RTVSPost2010Prop32
280
     0
102
RTVSPost2010PropOp32
 70
     1
102
RTVSPost2010Prop33
280
     0
102
RTVSPost2010PropOp33
 70
     1
102
RTVSPost2010Prop34
280
     0
102
RTVSPost2010PropOp34
 70
     1
102
RTVSPost2010Prop35
280
     0
102
RTVSPost2010PropOp35
 70
     1
102
RTVSPost2010Prop36
280
     0
102
RTVSPost2010PropOp36
 70
     1
102
RTVSPost2010Prop37
 90
       50
102
RTVSPost2010PropOp37
 70
     1
102
RTVSPost2010Prop38
140
0.0
102
RTVSPost2010PropOp38
 70
     1
102
RTVSPost2010Prop39
140
1.0
102
RTVSPost2010PropOp39
 70
     1
102
RTVSPost2010Prop40
 90
        0
102
RTVSPost2010PropOp40
 70
     1
102
RTVSPost2010Prop41ColorIndex
 90
       18
102
RTVSPost2010Prop41ColorRGB
 90
        0
102
RTVSPost2010PropOp41
 70
     1
102
RTVSPost2010Prop42
 90
       50
102
RTVSPost2010PropOp42
 70
     1
102
RTVSPost2010Prop43
 90
        3
102
RTVSPost2010PropOp43
 70
     1
102
RTVSPost2010Prop44ColorIndex
 90
        5
102
RTVSPost2010Prop44ColorRGB
 90
      255
102
RTVSPost2010PropOp44
 70
     1
102
RTVSPost2010Prop45
280
     0
102
RTVSPost2010PropOp45
 70
     1
102
RTVSPost2010Prop46
 90
       50
102
RTVSPost2010PropOp46
 70
     1
102
RTVSPost2010Prop47
 90
       50
102
RTVSPost2010PropOp47
 70
     1
102
RTVSPost2010Prop48
 90
       50
102
RTVSPost2010PropOp48
 70
     1
102
RTVSPost2010Prop49
280
     0
102
RTVSPost2010PropOp49
 70
     1
102
RTVSPost2010Prop50
 90
       50
102
RTVSPost2010PropOp50
 70
     1
102
RTVSPost2010Prop51ColorIndex
 90
      256
102
RTVSPost2010Prop51ColorRGB
 90
-16777216
102
RTVSPost2010PropOp51
 70
     0
102
RTVSPost2010Prop52
140
1.0
102
RTVSPost2010PropOp52
 70
     0
102
RTVSPost2010Prop53
 90
        2
102
RTVSPost2010PropOp53
 70
     1
102
RTVSPost2010Prop54
  1
strokes_ogs.tif
102
RTVSPost2010PropOp54
 70
     1
102
RTVSPost2010Prop55
280
     0
102
RTVSPost2010PropOp55
 70
     1
102
RTVSPost2010Prop56
140
1.0
102
RTVSPost2010PropOp56
 70
     1
102
RTVSPost2010Prop57
140
1.0
102
RTVSPost2010PropOp57
 70
     1
102
RTVSPropertyOp0
 70
     1
102
RTVSPropertyOp1
 70
     1
102
RTVSPropertyOp2
 70
     1
102
RTVSPropertyOp3
 70
     1
102
RTVSPropertyOp4
 70
     1
102
RTVSPropertyOp5
 70
     1
102
RTVSPropertyOp6
 70
     1
102
RTVSPropertyOp7
 70
     1
102
RTVSPropertyOp8
 70
     1
102
RTVSPropertyOp9
 70
     1
102
RTVSPropertyOp10
 70
     1
102
RTVSPropertyOp11
 70
     1
102
RTVSPropertyOp12
 70
     1
102
RTVSPropertyOp13
 70
     1
102
RTVSPropertyOp14
 70
     1
102
RTVSPropertyOp15
 70
     1
102
RTVSPropertyOp16
 70
     1
102
RTVSPropertyOp17
 70
     1
102
RTVSPropertyOp18
 70
     1
102
RTVSPropertyOp19
 70
     1
102
RTVSPropertyOp20
 70
     1
102
RTVSPropertyOp21
 70
     1
102
RTVSPropertyOp22
 70
     1
102
RTVSPropertyOp23
 70
     1
102
RTVSPropertyOp24
 70
     1
102
RTVSPropertyOp25
 70
     1
102
RTVSPropertyOp26
 70
     1
102
RTVSPropertyOp27
 70
     1
102
RTVSPropertyOp28
 70
     1
102
RTVSPropertyOp29
 70
     1
102
RTVSPropertyOp30
 70
     1
102
RTVSPropertyOp31
 70
     1
102
RTVSPropertyOp32
 70
     1
102
RTVSPropertyOp33
 70
     1
102
RTVSPropertyOp34
 70
     1
102
RTVSPropertyOp35
 70
     1
102
RTVSPropertyOp36
 70
     1
102
RTVSPropertyOp37
 70
     1
102
RTVSPropertyOp38
 70
     1
102
RTVSPropertyOp39
 70
     1
102
RTVSPropertyOp40
 70
     1
102
RTVSPropertyOp41
 70
     1
102
RTVSPropertyOp42
 70
     1
102
RTVSPropertyOp43
 70
     1
102
RTVSPropertyOp44
 70
     1
102
RTVSPropertyOp45
 70
     1
102
RTVSPropertyOp46
 70
     1
102
RTVSPropertyOp47
 70
     1
102
RTVSPropertyOp48
 70
     1
102
RTVSPropertyOp49
 70
     1
102
RTVSPropertyOp50
 70
     1
102
RTVSPropertyOp51
 70
     0
102
RTVSPropertyOp52
 70
     0
102
RTVSPropertyOp53
 70
     1
102
RTVSPropertyOp54
 70
     1
102
RTVSPropertyOp55
 70
     1
102
RTVSPropertyOp56
 70
     1
102
RTVSPropertyOp57
 70
     1
102
RTVSPropertyOp58
 70
     1
102
RTVSPropertyOp59
 70
     1
102
RTVSPropertyOp60
 70
     1
102
RTVSPropertyOp61
 70
     1
102
RTVSPropertyOp62
 70
     1
  0
XRECORD
  5
674
102
{ACAD_REACTORS
330
673
102
}
330
673
100
AcDbXrecord
280
     1
102
RTVSPost2010Prop28
280
     0
102
RTVSPost2010PropOp28
 70
     1
102
RTVSPost2010Prop29
280
     1
102
RTVSPost2010PropOp29
 70
     1
102
RTVSPost2010Prop30
280
     1
102
RTVSPost2010PropOp30
 70
     1
102
RTVSPost2010Prop31
280
     0
102
RTVSPost2010PropOp31
 70
     1
102
RTVSPost2010Prop32
280
     0
102
RTVSPost2010PropOp32
 70
     1
102
RTVSPost2010Prop33
280
     0
102
RTVSPost2010PropOp33
 70
     1
102
RTVSPost2010Prop34
280
     0
102
RTVSPost2010PropOp34
 70
     1
102
RTVSPost2010Prop35
280
     0
102
RTVSPost2010PropOp35
 70
     1
102
RTVSPost2010Prop36
280
     0
102
RTVSPost2010PropOp36
 70
     1
102
RTVSPost2010Prop37
 90
       50
102
RTVSPost2010PropOp37
 70
     1
102
RTVSPost2010Prop38
140
0.0
102
RTVSPost2010PropOp38
 70
     1
102
RTVSPost2010Prop39
140
1.0
102
RTVSPost2010PropOp39
 70
     1
102
RTVSPost2010Prop40
 90
        0
102
RTVSPost2010PropOp40
 70
     1
102
RTVSPost2010Prop41ColorIndex
 90
       18
102
RTVSPost2010Prop41ColorRGB
 90
        0
102
RTVSPost2010PropOp41
 70
     1
102
RTVSPost2010Prop42
 90
       50
102
RTVSPost2010PropOp42
 70
     1
102
RTVSPost2010Prop43
 90
        3
102
RTVSPost2010PropOp43
 70
     1
102
RTVSPost2010Prop44ColorIndex
 90
        5
102
RTVSPost2010Prop44ColorRGB
 90
      255
102
RTVSPost2010PropOp44
 70
     1
102
RTVSPost2010Prop45
280
     0
102
RTVSPost2010PropOp45
 70
     1
102
RTVSPost2010Prop46
 90
       50
102
RTVSPost2010PropOp46
 70
     1
102
RTVSPost2010Prop47
 90
       50
102
RTVSPost2010PropOp47
 70
     1
102
RTVSPost2010Prop48
 90
       50
102
RTVSPost2010PropOp48
 70
     1
102
RTVSPost2010Prop49
280
     0
102
RTVSPost2010PropOp49
 70
     1
102
RTVSPost2010Prop50
 90
       50
102
RTVSPost2010PropOp50
 70
     1
102
RTVSPost2010Prop51ColorIndex
 90
      256
102
RTVSPost2010Prop51ColorRGB
 90
-16777216
102
RTVSPost2010PropOp51
 70
     0
102
RTVSPost2010Prop52
140
1.0
102
RTVSPost2010PropOp52
 70
     0
102
RTVSPost2010Prop53
 90
        2
102
RTVSPost2010PropOp53
 70
     1
102
RTVSPost2010Prop54
  1
strokes_ogs.tif
102
RTVSPost2010PropOp54
 70
     1
102
RTVSPost2010Prop55
280
     0
102
RTVSPost2010PropOp55
 70
     1
102
RTVSPost2010Prop56
140
1.0
102
RTVSPost2010PropOp56
 70
     1
102
RTVSPost2010Prop57
140
1.0
102
RTVSPost2010PropOp57
 70
     1
102
RTVSPropertyOp0
 70
     1
102
RTVSPropertyOp1
 70
     1
102
RTVSPropertyOp2
 70
     1
102
RTVSPropertyOp3
 70
     1
102
RTVSPropertyOp4
 70
     1
102
RTVSPropertyOp5
 70
     1
102
RTVSPropertyOp6
 70
     1
102
RTVSPropertyOp7
 70
     1
102
RTVSPropertyOp8
 70
     1
102
RTVSPropertyOp9
 70
     1
102
RTVSPropertyOp10
 70
     1
102
RTVSPropertyOp11
 70
     1
102
RTVSPropertyOp12
 70
     1
102
RTVSPropertyOp13
 70
     1
102
RTVSPropertyOp14
 70
     1
102
RTVSPropertyOp15
 70
     1
102
RTVSPropertyOp16
 70
     1
102
RTVSPropertyOp17
 70
     1
102
RTVSPropertyOp18
 70
     1
102
RTVSPropertyOp19
 70
     1
102
RTVSPropertyOp20
 70
     1
102
RTVSPropertyOp21
 70
     1
102
RTVSPropertyOp22
 70
     1
102
RTVSPropertyOp23
 70
     1
102
RTVSPropertyOp24
 70
     1
102
RTVSPropertyOp25
 70
     1
102
RTVSPropertyOp26
 70
     1
102
RTVSPropertyOp27
 70
     1
102
RTVSPropertyOp28
 70
     1
102
RTVSPropertyOp29
 70
     1
102
RTVSPropertyOp30
 70
     1
102
RTVSPropertyOp31
 70
     1
102
RTVSPropertyOp32
 70
     1
102
RTVSPropertyOp33
 70
     1
102
RTVSPropertyOp34
 70
     1
102
RTVSPropertyOp35
 70
     1
102
RTVSPropertyOp36
 70
     1
102
RTVSPropertyOp37
 70
     1
102
RTVSPropertyOp38
 70
     1
102
RTVSPropertyOp39
 70
     1
102
RTVSPropertyOp40
 70
     1
102
RTVSPropertyOp41
 70
     1
102
RTVSPropertyOp42
 70
     1
102
RTVSPropertyOp43
 70
     1
102
RTVSPropertyOp44
 70
     1
102
RTVSPropertyOp45
 70
     1
102
RTVSPropertyOp46
 70
     1
102
RTVSPropertyOp47
 70
     1
102
RTVSPropertyOp48
 70
     1
102
RTVSPropertyOp49
 70
     1
102
RTVSPropertyOp50
 70
     1
102
RTVSPropertyOp51
 70
     0
102
RTVSPropertyOp52
 70
     0
102
RTVSPropertyOp53
 70
     1
102
RTVSPropertyOp54
 70
     1
102
RTVSPropertyOp55
 70
     1
102
RTVSPropertyOp56
 70
     1
102
RTVSPropertyOp57
 70
     1
102
RTVSPropertyOp58
 70
     1
102
RTVSPropertyOp59
 70
     1
102
RTVSPropertyOp60
 70
     1
102
RTVSPropertyOp61
 70
     1
102
RTVSPropertyOp62
 70
     1
  0
XRECORD
  5
672
102
{ACAD_REACTORS
330
671
102
}
330
671
100
AcDbXrecord
280
     1
102
RTVSPost2010Prop28
280
     0
102
RTVSPost2010PropOp28
 70
     1
102
RTVSPost2010Prop29
280
     1
102
RTVSPost2010PropOp29
 70
     1
102
RTVSPost2010Prop30
280
     1
102
RTVSPost2010PropOp30
 70
     1
102
RTVSPost2010Prop31
280
     0
102
RTVSPost2010PropOp31
 70
     1
102
RTVSPost2010Prop32
280
     0
102
RTVSPost2010PropOp32
 70
     1
102
RTVSPost2010Prop33
280
     0
102
RTVSPost2010PropOp33
 70
     1
102
RTVSPost2010Prop34
280
     0
102
RTVSPost2010PropOp34
 70
     1
102
RTVSPost2010Prop35
280
     0
102
RTVSPost2010PropOp35
 70
     1
102
RTVSPost2010Prop36
280
     0
102
RTVSPost2010PropOp36
 70
     1
102
RTVSPost2010Prop37
 90
       50
102
RTVSPost2010PropOp37
 70
     1
102
RTVSPost2010Prop38
140
0.0
102
RTVSPost2010PropOp38
 70
     1
102
RTVSPost2010Prop39
140
1.0
102
RTVSPost2010PropOp39
 70
     1
102
RTVSPost2010Prop40
 90
        0
102
RTVSPost2010PropOp40
 70
     1
102
RTVSPost2010Prop41ColorIndex
 90
       18
102
RTVSPost2010Prop41ColorRGB
 90
        0
102
RTVSPost2010PropOp41
 70
     1
102
RTVSPost2010Prop42
 90
       50
102
RTVSPost2010PropOp42
 70
     1
102
RTVSPost2010Prop43
 90
        3
102
RTVSPost2010PropOp43
 70
     1
102
RTVSPost2010Prop44ColorIndex
 90
        5
102
RTVSPost2010Prop44ColorRGB
 90
      255
102
RTVSPost2010PropOp44
 70
     1
102
RTVSPost2010Prop45
280
     0
102
RTVSPost2010PropOp45
 70
     1
102
RTVSPost2010Prop46
 90
       50
102
RTVSPost2010PropOp46
 70
     1
102
RTVSPost2010Prop47
 90
       50
102
RTVSPost2010PropOp47
 70
     1
102
RTVSPost2010Prop48
 90
       50
102
RTVSPost2010PropOp48
 70
     1
102
RTVSPost2010Prop49
280
     0
102
RTVSPost2010PropOp49
 70
     1
102
RTVSPost2010Prop50
 90
       50
102
RTVSPost2010PropOp50
 70
     1
102
RTVSPost2010Prop51ColorIndex
 90
      256
102
RTVSPost2010Prop51ColorRGB
 90
-16777216
102
RTVSPost2010PropOp51
 70
     0
102
RTVSPost2010Prop52
140
1.0
102
RTVSPost2010PropOp52
 70
     0
102
RTVSPost2010Prop53
 90
        2
102
RTVSPost2010PropOp53
 70
     1
102
RTVSPost2010Prop54
  1
strokes_ogs.tif
102
RTVSPost2010PropOp54
 70
     1
102
RTVSPost2010Prop55
280
     0
102
RTVSPost2010PropOp55
 70
     1
102
RTVSPost2010Prop56
140
1.0
102
RTVSPost2010PropOp56
 70
     1
102
RTVSPost2010Prop57
140
1.0
102
RTVSPost2010PropOp57
 70
     1
102
RTVSPropertyOp0
 70
     1
102
RTVSPropertyOp1
 70
     1
102
RTVSPropertyOp2
 70
     1
102
RTVSPropertyOp3
 70
     1
102
RTVSPropertyOp4
 70
     1
102
RTVSPropertyOp5
 70
     1
102
RTVSPropertyOp6
 70
     1
102
RTVSPropertyOp7
 70
     1
102
RTVSPropertyOp8
 70
     1
102
RTVSPropertyOp9
 70
     1
102
RTVSPropertyOp10
 70
     1
102
RTVSPropertyOp11
 70
     1
102
RTVSPropertyOp12
 70
     1
102
RTVSPropertyOp13
 70
     1
102
RTVSPropertyOp14
 70
     1
102
RTVSPropertyOp15
 70
     1
102
RTVSPropertyOp16
 70
     1
102
RTVSPropertyOp17
 70
     1
102
RTVSPropertyOp18
 70
     1
102
RTVSPropertyOp19
 70
     1
102
RTVSPropertyOp20
 70
     1
102
RTVSPropertyOp21
 70
     1
102
RTVSPropertyOp22
 70
     1
102
RTVSPropertyOp23
 70
     1
102
RTVSPropertyOp24
 70
     1
102
RTVSPropertyOp25
 70
     1
102
RTVSPropertyOp26
 70
     1
102
RTVSPropertyOp27
 70
     1
102
RTVSPropertyOp28
 70
     1
102
RTVSPropertyOp29
 70
     1
102
RTVSPropertyOp30
 70
     1
102
RTVSPropertyOp31
 70
     1
102
RTVSPropertyOp32
 70
     1
102
RTVSPropertyOp33
 70
     1
102
RTVSPropertyOp34
 70
     1
102
RTVSPropertyOp35
 70
     1
102
RTVSPropertyOp36
 70
     1
102
RTVSPropertyOp37
 70
     1
102
RTVSPropertyOp38
 70
     1
102
RTVSPropertyOp39
 70
     1
102
RTVSPropertyOp40
 70
     1
102
RTVSPropertyOp41
 70
     1
102
RTVSPropertyOp42
 70
     1
102
RTVSPropertyOp43
 70
     1
102
RTVSPropertyOp44
 70
     1
102
RTVSPropertyOp45
 70
     1
102
RTVSPropertyOp46
 70
     1
102
RTVSPropertyOp47
 70
     1
102
RTVSPropertyOp48
 70
     1
102
RTVSPropertyOp49
 70
     1
102
RTVSPropertyOp50
 70
     1
102
RTVSPropertyOp51
 70
     0
102
RTVSPropertyOp52
 70
     0
102
RTVSPropertyOp53
 70
     1
102
RTVSPropertyOp54
 70
     1
102
RTVSPropertyOp55
 70
     1
102
RTVSPropertyOp56
 70
     1
102
RTVSPropertyOp57
 70
     1
102
RTVSPropertyOp58
 70
     1
102
RTVSPropertyOp59
 70
     1
102
RTVSPropertyOp60
 70
     1
102
RTVSPropertyOp61
 70
     1
102
RTVSPropertyOp62
 70
     1
  0
XRECORD
  5
66C
102
{ACAD_REACTORS
330
66B
102
}
330
66B
100
AcDbXrecord
280
     1
102
RTVSPost2010Prop28
280
     0
102
RTVSPost2010PropOp28
 70
     1
102
RTVSPost2010Prop29
280
     1
102
RTVSPost2010PropOp29
 70
     1
102
RTVSPost2010Prop30
280
     1
102
RTVSPost2010PropOp30
 70
     1
102
RTVSPost2010Prop31
280
     0
102
RTVSPost2010PropOp31
 70
     1
102
RTVSPost2010Prop32
280
     0
102
RTVSPost2010PropOp32
 70
     1
102
RTVSPost2010Prop33
280
     0
102
RTVSPost2010PropOp33
 70
     1
102
RTVSPost2010Prop34
280
     0
102
RTVSPost2010PropOp34
 70
     1
102
RTVSPost2010Prop35
280
     0
102
RTVSPost2010PropOp35
 70
     1
102
RTVSPost2010Prop36
280
     0
102
RTVSPost2010PropOp36
 70
     1
102
RTVSPost2010Prop37
 90
       50
102
RTVSPost2010PropOp37
 70
     1
102
RTVSPost2010Prop38
140
0.0
102
RTVSPost2010PropOp38
 70
     1
102
RTVSPost2010Prop39
140
1.0
102
RTVSPost2010PropOp39
 70
     1
102
RTVSPost2010Prop40
 90
        0
102
RTVSPost2010PropOp40
 70
     1
102
RTVSPost2010Prop41ColorIndex
 90
       18
102
RTVSPost2010Prop41ColorRGB
 90
        0
102
RTVSPost2010PropOp41
 70
     1
102
RTVSPost2010Prop42
 90
       50
102
RTVSPost2010PropOp42
 70
     1
102
RTVSPost2010Prop43
 90
        3
102
RTVSPost2010PropOp43
 70
     1
102
RTVSPost2010Prop44ColorIndex
 90
        5
102
RTVSPost2010Prop44ColorRGB
 90
      255
102
RTVSPost2010PropOp44
 70
     1
102
RTVSPost2010Prop45
280
     0
102
RTVSPost2010PropOp45
 70
     1
102
RTVSPost2010Prop46
 90
       50
102
RTVSPost2010PropOp46
 70
     1
102
RTVSPost2010Prop47
 90
       50
102
RTVSPost2010PropOp47
 70
     1
102
RTVSPost2010Prop48
 90
       50
102
RTVSPost2010PropOp48
 70
     1
102
RTVSPost2010Prop49
280
     0
102
RTVSPost2010PropOp49
 70
     1
102
RTVSPost2010Prop50
 90
       50
102
RTVSPost2010PropOp50
 70
     1
102
RTVSPost2010Prop51ColorIndex
 90
      256
102
RTVSPost2010Prop51ColorRGB
 90
-16777216
102
RTVSPost2010PropOp51
 70
     0
102
RTVSPost2010Prop52
140
1.0
102
RTVSPost2010PropOp52
 70
     0
102
RTVSPost2010Prop53
 90
        2
102
RTVSPost2010PropOp53
 70
     1
102
RTVSPost2010Prop54
  1
strokes_ogs.tif
102
RTVSPost2010PropOp54
 70
     1
102
RTVSPost2010Prop55
280
     0
102
RTVSPost2010PropOp55
 70
     1
102
RTVSPost2010Prop56
140
1.0
102
RTVSPost2010PropOp56
 70
     1
102
RTVSPost2010Prop57
140
1.0
102
RTVSPost2010PropOp57
 70
     1
102
RTVSPropertyOp0
 70
     1
102
RTVSPropertyOp1
 70
     1
102
RTVSPropertyOp2
 70
     1
102
RTVSPropertyOp3
 70
     1
102
RTVSPropertyOp4
 70
     1
102
RTVSPropertyOp5
 70
     1
102
RTVSPropertyOp6
 70
     1
102
RTVSPropertyOp7
 70
     1
102
RTVSPropertyOp8
 70
     1
102
RTVSPropertyOp9
 70
     1
102
RTVSPropertyOp10
 70
     1
102
RTVSPropertyOp11
 70
     1
102
RTVSPropertyOp12
 70
     1
102
RTVSPropertyOp13
 70
     1
102
RTVSPropertyOp14
 70
     1
102
RTVSPropertyOp15
 70
     1
102
RTVSPropertyOp16
 70
     1
102
RTVSPropertyOp17
 70
     1
102
RTVSPropertyOp18
 70
     1
102
RTVSPropertyOp19
 70
     1
102
RTVSPropertyOp20
 70
     1
102
RTVSPropertyOp21
 70
     1
102
RTVSPropertyOp22
 70
     1
102
RTVSPropertyOp23
 70
     1
102
RTVSPropertyOp24
 70
     1
102
RTVSPropertyOp25
 70
     1
102
RTVSPropertyOp26
 70
     1
102
RTVSPropertyOp27
 70
     1
102
RTVSPropertyOp28
 70
     1
102
RTVSPropertyOp29
 70
     1
102
RTVSPropertyOp30
 70
     1
102
RTVSPropertyOp31
 70
     1
102
RTVSPropertyOp32
 70
     1
102
RTVSPropertyOp33
 70
     1
102
RTVSPropertyOp34
 70
     1
102
RTVSPropertyOp35
 70
     1
102
RTVSPropertyOp36
 70
     1
102
RTVSPropertyOp37
 70
     1
102
RTVSPropertyOp38
 70
     1
102
RTVSPropertyOp39
 70
     1
102
RTVSPropertyOp40
 70
     1
102
RTVSPropertyOp41
 70
     1
102
RTVSPropertyOp42
 70
     1
102
RTVSPropertyOp43
 70
     1
102
RTVSPropertyOp44
 70
     1
102
RTVSPropertyOp45
 70
     1
102
RTVSPropertyOp46
 70
     1
102
RTVSPropertyOp47
 70
     1
102
RTVSPropertyOp48
 70
     1
102
RTVSPropertyOp49
 70
     1
102
RTVSPropertyOp50
 70
     1
102
RTVSPropertyOp51
 70
     0
102
RTVSPropertyOp52
 70
     0
102
RTVSPropertyOp53
 70
     1
102
RTVSPropertyOp54
 70
     1
102
RTVSPropertyOp55
 70
     1
102
RTVSPropertyOp56
 70
     1
102
RTVSPropertyOp57
 70
     1
102
RTVSPropertyOp58
 70
     1
102
RTVSPropertyOp59
 70
     1
102
RTVSPropertyOp60
 70
     1
102
RTVSPropertyOp61
 70
     1
102
RTVSPropertyOp62
 70
     1
  0
XRECORD
  5
66E
102
{ACAD_REACTORS
330
66D
102
}
330
66D
100
AcDbXrecord
280
     1
102
RTVSPost2010Prop28
280
     0
102
RTVSPost2010PropOp28
 70
     1
102
RTVSPost2010Prop29
280
     1
102
RTVSPost2010PropOp29
 70
     1
102
RTVSPost2010Prop30
280
     1
102
RTVSPost2010PropOp30
 70
     1
102
RTVSPost2010Prop31
280
     0
102
RTVSPost2010PropOp31
 70
     1
102
RTVSPost2010Prop32
280
     0
102
RTVSPost2010PropOp32
 70
     1
102
RTVSPost2010Prop33
280
     0
102
RTVSPost2010PropOp33
 70
     1
102
RTVSPost2010Prop34
280
     0
102
RTVSPost2010PropOp34
 70
     1
102
RTVSPost2010Prop35
280
     0
102
RTVSPost2010PropOp35
 70
     1
102
RTVSPost2010Prop36
280
     0
102
RTVSPost2010PropOp36
 70
     1
102
RTVSPost2010Prop37
 90
       50
102
RTVSPost2010PropOp37
 70
     1
102
RTVSPost2010Prop38
140
0.0
102
RTVSPost2010PropOp38
 70
     1
102
RTVSPost2010Prop39
140
1.0
102
RTVSPost2010PropOp39
 70
     1
102
RTVSPost2010Prop40
 90
        0
102
RTVSPost2010PropOp40
 70
     1
102
RTVSPost2010Prop41ColorIndex
 90
       18
102
RTVSPost2010Prop41ColorRGB
 90
        0
102
RTVSPost2010PropOp41
 70
     1
102
RTVSPost2010Prop42
 90
       50
102
RTVSPost2010PropOp42
 70
     1
102
RTVSPost2010Prop43
 90
        3
102
RTVSPost2010PropOp43
 70
     1
102
RTVSPost2010Prop44ColorIndex
 90
        5
102
RTVSPost2010Prop44ColorRGB
 90
      255
102
RTVSPost2010PropOp44
 70
     1
102
RTVSPost2010Prop45
280
     0
102
RTVSPost2010PropOp45
 70
     1
102
RTVSPost2010Prop46
 90
       50
102
RTVSPost2010PropOp46
 70
     1
102
RTVSPost2010Prop47
 90
       50
102
RTVSPost2010PropOp47
 70
     1
102
RTVSPost2010Prop48
 90
       50
102
RTVSPost2010PropOp48
 70
     1
102
RTVSPost2010Prop49
280
     0
102
RTVSPost2010PropOp49
 70
     1
102
RTVSPost2010Prop50
 90
       50
102
RTVSPost2010PropOp50
 70
     1
102
RTVSPost2010Prop51ColorIndex
 90
      256
102
RTVSPost2010Prop51ColorRGB
 90
-16777216
102
RTVSPost2010PropOp51
 70
     0
102
RTVSPost2010Prop52
140
1.0
102
RTVSPost2010PropOp52
 70
     0
102
RTVSPost2010Prop53
 90
        2
102
RTVSPost2010PropOp53
 70
     1
102
RTVSPost2010Prop54
  1
strokes_ogs.tif
102
RTVSPost2010PropOp54
 70
     1
102
RTVSPost2010Prop55
280
     0
102
RTVSPost2010PropOp55
 70
     1
102
RTVSPost2010Prop56
140
1.0
102
RTVSPost2010PropOp56
 70
     1
102
RTVSPost2010Prop57
140
1.0
102
RTVSPost2010PropOp57
 70
     1
102
RTVSPropertyOp0
 70
     1
102
RTVSPropertyOp1
 70
     1
102
RTVSPropertyOp2
 70
     1
102
RTVSPropertyOp3
 70
     1
102
RTVSPropertyOp4
 70
     1
102
RTVSPropertyOp5
 70
     1
102
RTVSPropertyOp6
 70
     1
102
RTVSPropertyOp7
 70
     1
102
RTVSPropertyOp8
 70
     1
102
RTVSPropertyOp9
 70
     1
102
RTVSPropertyOp10
 70
     1
102
RTVSPropertyOp11
 70
     1
102
RTVSPropertyOp12
 70
     1
102
RTVSPropertyOp13
 70
     1
102
RTVSPropertyOp14
 70
     1
102
RTVSPropertyOp15
 70
     1
102
RTVSPropertyOp16
 70
     1
102
RTVSPropertyOp17
 70
     1
102
RTVSPropertyOp18
 70
     1
102
RTVSPropertyOp19
 70
     1
102
RTVSPropertyOp20
 70
     1
102
RTVSPropertyOp21
 70
     1
102
RTVSPropertyOp22
 70
     1
102
RTVSPropertyOp23
 70
     1
102
RTVSPropertyOp24
 70
     1
102
RTVSPropertyOp25
 70
     1
102
RTVSPropertyOp26
 70
     1
102
RTVSPropertyOp27
 70
     1
102
RTVSPropertyOp28
 70
     1
102
RTVSPropertyOp29
 70
     1
102
RTVSPropertyOp30
 70
     1
102
RTVSPropertyOp31
 70
     1
102
RTVSPropertyOp32
 70
     1
102
RTVSPropertyOp33
 70
     1
102
RTVSPropertyOp34
 70
     1
102
RTVSPropertyOp35
 70
     1
102
RTVSPropertyOp36
 70
     1
102
RTVSPropertyOp37
 70
     1
102
RTVSPropertyOp38
 70
     1
102
RTVSPropertyOp39
 70
     1
102
RTVSPropertyOp40
 70
     1
102
RTVSPropertyOp41
 70
     1
102
RTVSPropertyOp42
 70
     1
102
RTVSPropertyOp43
 70
     1
102
RTVSPropertyOp44
 70
     1
102
RTVSPropertyOp45
 70
     1
102
RTVSPropertyOp46
 70
     1
102
RTVSPropertyOp47
 70
     1
102
RTVSPropertyOp48
 70
     1
102
RTVSPropertyOp49
 70
     1
102
RTVSPropertyOp50
 70
     1
102
RTVSPropertyOp51
 70
     0
102
RTVSPropertyOp52
 70
     0
102
RTVSPropertyOp53
 70
     1
102
RTVSPropertyOp54
 70
     1
102
RTVSPropertyOp55
 70
     1
102
RTVSPropertyOp56
 70
     1
102
RTVSPropertyOp57
 70
     1
102
RTVSPropertyOp58
 70
     1
102
RTVSPropertyOp59
 70
     1
102
RTVSPropertyOp60
 70
     1
102
RTVSPropertyOp61
 70
     1
102
RTVSPropertyOp62
 70
     1
  0
XRECORD
  5
664
102
{ACAD_REACTORS
330
663
102
}
330
663
100
AcDbXrecord
280
     1
102
RTVSPost2010Prop28
280
     0
102
RTVSPost2010PropOp28
 70
     1
102
RTVSPost2010Prop29
280
     1
102
RTVSPost2010PropOp29
 70
     1
102
RTVSPost2010Prop30
280
     1
102
RTVSPost2010PropOp30
 70
     1
102
RTVSPost2010Prop31
280
     0
102
RTVSPost2010PropOp31
 70
     1
102
RTVSPost2010Prop32
280
     0
102
RTVSPost2010PropOp32
 70
     1
102
RTVSPost2010Prop33
280
     0
102
RTVSPost2010PropOp33
 70
     1
102
RTVSPost2010Prop34
280
     0
102
RTVSPost2010PropOp34
 70
     1
102
RTVSPost2010Prop35
280
     0
102
RTVSPost2010PropOp35
 70
     1
102
RTVSPost2010Prop36
280
     0
102
RTVSPost2010PropOp36
 70
     1
102
RTVSPost2010Prop37
 90
       50
102
RTVSPost2010PropOp37
 70
     1
102
RTVSPost2010Prop38
140
0.0
102
RTVSPost2010PropOp38
 70
     1
102
RTVSPost2010Prop39
140
1.0
102
RTVSPost2010PropOp39
 70
     1
102
RTVSPost2010Prop40
 90
        0
102
RTVSPost2010PropOp40
 70
     1
102
RTVSPost2010Prop41ColorIndex
 90
       18
102
RTVSPost2010Prop41ColorRGB
 90
        0
102
RTVSPost2010PropOp41
 70
     1
102
RTVSPost2010Prop42
 90
       50
102
RTVSPost2010PropOp42
 70
     1
102
RTVSPost2010Prop43
 90
        3
102
RTVSPost2010PropOp43
 70
     1
102
RTVSPost2010Prop44ColorIndex
 90
        5
102
RTVSPost2010Prop44ColorRGB
 90
      255
102
RTVSPost2010PropOp44
 70
     1
102
RTVSPost2010Prop45
280
     0
102
RTVSPost2010PropOp45
 70
     1
102
RTVSPost2010Prop46
 90
       50
102
RTVSPost2010PropOp46
 70
     1
102
RTVSPost2010Prop47
 90
       50
102
RTVSPost2010PropOp47
 70
     1
102
RTVSPost2010Prop48
 90
       50
102
RTVSPost2010PropOp48
 70
     1
102
RTVSPost2010Prop49
280
     0
102
RTVSPost2010PropOp49
 70
     1
102
RTVSPost2010Prop50
 90
       50
102
RTVSPost2010PropOp50
 70
     1
102
RTVSPost2010Prop51ColorIndex
 90
      256
102
RTVSPost2010Prop51ColorRGB
 90
-16777216
102
RTVSPost2010PropOp51
 70
     0
102
RTVSPost2010Prop52
140
1.0
102
RTVSPost2010PropOp52
 70
     0
102
RTVSPost2010Prop53
 90
        2
102
RTVSPost2010PropOp53
 70
     1
102
RTVSPost2010Prop54
  1
strokes_ogs.tif
102
RTVSPost2010PropOp54
 70
     1
102
RTVSPost2010Prop55
280
     0
102
RTVSPost2010PropOp55
 70
     1
102
RTVSPost2010Prop56
140
1.0
102
RTVSPost2010PropOp56
 70
     1
102
RTVSPost2010Prop57
140
1.0
102
RTVSPost2010PropOp57
 70
     1
102
RTVSPropertyOp0
 70
     1
102
RTVSPropertyOp1
 70
     1
102
RTVSPropertyOp2
 70
     1
102
RTVSPropertyOp3
 70
     1
102
RTVSPropertyOp4
 70
     1
102
RTVSPropertyOp5
 70
     1
102
RTVSPropertyOp6
 70
     1
102
RTVSPropertyOp7
 70
     1
102
RTVSPropertyOp8
 70
     1
102
RTVSPropertyOp9
 70
     1
102
RTVSPropertyOp10
 70
     1
102
RTVSPropertyOp11
 70
     1
102
RTVSPropertyOp12
 70
     1
102
RTVSPropertyOp13
 70
     1
102
RTVSPropertyOp14
 70
     1
102
RTVSPropertyOp15
 70
     1
102
RTVSPropertyOp16
 70
     1
102
RTVSPropertyOp17
 70
     1
102
RTVSPropertyOp18
 70
     1
102
RTVSPropertyOp19
 70
     1
102
RTVSPropertyOp20
 70
     1
102
RTVSPropertyOp21
 70
     1
102
RTVSPropertyOp22
 70
     1
102
RTVSPropertyOp23
 70
     1
102
RTVSPropertyOp24
 70
     1
102
RTVSPropertyOp25
 70
     1
102
RTVSPropertyOp26
 70
     1
102
RTVSPropertyOp27
 70
     1
102
RTVSPropertyOp28
 70
     1
102
RTVSPropertyOp29
 70
     1
102
RTVSPropertyOp30
 70
     1
102
RTVSPropertyOp31
 70
     1
102
RTVSPropertyOp32
 70
     1
102
RTVSPropertyOp33
 70
     1
102
RTVSPropertyOp34
 70
     1
102
RTVSPropertyOp35
 70
     1
102
RTVSPropertyOp36
 70
     1
102
RTVSPropertyOp37
 70
     1
102
RTVSPropertyOp38
 70
     1
102
RTVSPropertyOp39
 70
     1
102
RTVSPropertyOp40
 70
     1
102
RTVSPropertyOp41
 70
     1
102
RTVSPropertyOp42
 70
     1
102
RTVSPropertyOp43
 70
     1
102
RTVSPropertyOp44
 70
     1
102
RTVSPropertyOp45
 70
     1
102
RTVSPropertyOp46
 70
     1
102
RTVSPropertyOp47
 70
     1
102
RTVSPropertyOp48
 70
     1
102
RTVSPropertyOp49
 70
     1
102
RTVSPropertyOp50
 70
     1
102
RTVSPropertyOp51
 70
     0
102
RTVSPropertyOp52
 70
     0
102
RTVSPropertyOp53
 70
     1
102
RTVSPropertyOp54
 70
     1
102
RTVSPropertyOp55
 70
     1
102
RTVSPropertyOp56
 70
     1
102
RTVSPropertyOp57
 70
     1
102
RTVSPropertyOp58
 70
     1
102
RTVSPropertyOp59
 70
     1
102
RTVSPropertyOp60
 70
     1
102
RTVSPropertyOp61
 70
     1
102
RTVSPropertyOp62
 70
     1
  0
XRECORD
  5
658
102
{ACAD_REACTORS
330
657
102
}
330
657
100
AcDbXrecord
280
     1
102
RTVSPost2010Prop28
280
     0
102
RTVSPost2010PropOp28
 70
     1
102
RTVSPost2010Prop29
280
     1
102
RTVSPost2010PropOp29
 70
     1
102
RTVSPost2010Prop30
280
     1
102
RTVSPost2010PropOp30
 70
     1
102
RTVSPost2010Prop31
280
     0
102
RTVSPost2010PropOp31
 70
     1
102
RTVSPost2010Prop32
280
     0
102
RTVSPost2010PropOp32
 70
     1
102
RTVSPost2010Prop33
280
     0
102
RTVSPost2010PropOp33
 70
     1
102
RTVSPost2010Prop34
280
     0
102
RTVSPost2010PropOp34
 70
     1
102
RTVSPost2010Prop35
280
     0
102
RTVSPost2010PropOp35
 70
     1
102
RTVSPost2010Prop36
280
     0
102
RTVSPost2010PropOp36
 70
     1
102
RTVSPost2010Prop37
 90
       50
102
RTVSPost2010PropOp37
 70
     1
102
RTVSPost2010Prop38
140
0.0
102
RTVSPost2010PropOp38
 70
     1
102
RTVSPost2010Prop39
140
1.0
102
RTVSPost2010PropOp39
 70
     1
102
RTVSPost2010Prop40
 90
        0
102
RTVSPost2010PropOp40
 70
     1
102
RTVSPost2010Prop41ColorIndex
 90
       18
102
RTVSPost2010Prop41ColorRGB
 90
        0
102
RTVSPost2010PropOp41
 70
     1
102
RTVSPost2010Prop42
 90
       50
102
RTVSPost2010PropOp42
 70
     1
102
RTVSPost2010Prop43
 90
        3
102
RTVSPost2010PropOp43
 70
     1
102
RTVSPost2010Prop44ColorIndex
 90
        5
102
RTVSPost2010Prop44ColorRGB
 90
      255
102
RTVSPost2010PropOp44
 70
     1
102
RTVSPost2010Prop45
280
     0
102
RTVSPost2010PropOp45
 70
     1
102
RTVSPost2010Prop46
 90
       50
102
RTVSPost2010PropOp46
 70
     1
102
RTVSPost2010Prop47
 90
       50
102
RTVSPost2010PropOp47
 70
     1
102
RTVSPost2010Prop48
 90
       50
102
RTVSPost2010PropOp48
 70
     1
102
RTVSPost2010Prop49
280
     0
102
RTVSPost2010PropOp49
 70
     1
102
RTVSPost2010Prop50
 90
       50
102
RTVSPost2010PropOp50
 70
     1
102
RTVSPost2010Prop51ColorIndex
 90
      256
102
RTVSPost2010Prop51ColorRGB
 90
-16777216
102
RTVSPost2010PropOp51
 70
     0
102
RTVSPost2010Prop52
140
1.0
102
RTVSPost2010PropOp52
 70
     0
102
RTVSPost2010Prop53
 90
        2
102
RTVSPost2010PropOp53
 70
     1
102
RTVSPost2010Prop54
  1
strokes_ogs.tif
102
RTVSPost2010PropOp54
 70
     1
102
RTVSPost2010Prop55
280
     0
102
RTVSPost2010PropOp55
 70
     1
102
RTVSPost2010Prop56
140
1.0
102
RTVSPost2010PropOp56
 70
     1
102
RTVSPost2010Prop57
140
1.0
102
RTVSPost2010PropOp57
 70
     1
102
RTVSPropertyOp0
 70
     1
102
RTVSPropertyOp1
 70
     1
102
RTVSPropertyOp2
 70
     1
102
RTVSPropertyOp3
 70
     1
102
RTVSPropertyOp4
 70
     1
102
RTVSPropertyOp5
 70
     1
102
RTVSPropertyOp6
 70
     1
102
RTVSPropertyOp7
 70
     1
102
RTVSPropertyOp8
 70
     1
102
RTVSPropertyOp9
 70
     1
102
RTVSPropertyOp10
 70
     1
102
RTVSPropertyOp11
 70
     1
102
RTVSPropertyOp12
 70
     1
102
RTVSPropertyOp13
 70
     1
102
RTVSPropertyOp14
 70
     1
102
RTVSPropertyOp15
 70
     1
102
RTVSPropertyOp16
 70
     1
102
RTVSPropertyOp17
 70
     1
102
RTVSPropertyOp18
 70
     1
102
RTVSPropertyOp19
 70
     1
102
RTVSPropertyOp20
 70
     1
102
RTVSPropertyOp21
 70
     1
102
RTVSPropertyOp22
 70
     1
102
RTVSPropertyOp23
 70
     1
102
RTVSPropertyOp24
 70
     1
102
RTVSPropertyOp25
 70
     1
102
RTVSPropertyOp26
 70
     1
102
RTVSPropertyOp27
 70
     1
102
RTVSPropertyOp28
 70
     1
102
RTVSPropertyOp29
 70
     1
102
RTVSPropertyOp30
 70
     1
102
RTVSPropertyOp31
 70
     1
102
RTVSPropertyOp32
 70
     1
102
RTVSPropertyOp33
 70
     1
102
RTVSPropertyOp34
 70
     1
102
RTVSPropertyOp35
 70
     1
102
RTVSPropertyOp36
 70
     1
102
RTVSPropertyOp37
 70
     1
102
RTVSPropertyOp38
 70
     1
102
RTVSPropertyOp39
 70
     1
102
RTVSPropertyOp40
 70
     1
102
RTVSPropertyOp41
 70
     1
102
RTVSPropertyOp42
 70
     1
102
RTVSPropertyOp43
 70
     1
102
RTVSPropertyOp44
 70
     1
102
RTVSPropertyOp45
 70
     1
102
RTVSPropertyOp46
 70
     1
102
RTVSPropertyOp47
 70
     1
102
RTVSPropertyOp48
 70
     1
102
RTVSPropertyOp49
 70
     1
102
RTVSPropertyOp50
 70
     1
102
RTVSPropertyOp51
 70
     0
102
RTVSPropertyOp52
 70
     0
102
RTVSPropertyOp53
 70
     1
102
RTVSPropertyOp54
 70
     1
102
RTVSPropertyOp55
 70
     1
102
RTVSPropertyOp56
 70
     1
102
RTVSPropertyOp57
 70
     1
102
RTVSPropertyOp58
 70
     1
102
RTVSPropertyOp59
 70
     1
102
RTVSPropertyOp60
 70
     1
102
RTVSPropertyOp61
 70
     1
102
RTVSPropertyOp62
 70
     1
  0
XRECORD
  5
670
102
{ACAD_REACTORS
330
66F
102
}
330
66F
100
AcDbXrecord
280
     1
102
RTVSPost2010Prop28
280
     0
102
RTVSPost2010PropOp28
 70
     1
102
RTVSPost2010Prop29
280
     1
102
RTVSPost2010PropOp29
 70
     1
102
RTVSPost2010Prop30
280
     1
102
RTVSPost2010PropOp30
 70
     1
102
RTVSPost2010Prop31
280
     0
102
RTVSPost2010PropOp31
 70
     1
102
RTVSPost2010Prop32
280
     0
102
RTVSPost2010PropOp32
 70
     1
102
RTVSPost2010Prop33
280
     0
102
RTVSPost2010PropOp33
 70
     1
102
RTVSPost2010Prop34
280
     0
102
RTVSPost2010PropOp34
 70
     1
102
RTVSPost2010Prop35
280
     0
102
RTVSPost2010PropOp35
 70
     1
102
RTVSPost2010Prop36
280
     0
102
RTVSPost2010PropOp36
 70
     1
102
RTVSPost2010Prop37
 90
       50
102
RTVSPost2010PropOp37
 70
     1
102
RTVSPost2010Prop38
140
0.0
102
RTVSPost2010PropOp38
 70
     1
102
RTVSPost2010Prop39
140
1.0
102
RTVSPost2010PropOp39
 70
     1
102
RTVSPost2010Prop40
 90
        0
102
RTVSPost2010PropOp40
 70
     1
102
RTVSPost2010Prop41ColorIndex
 90
       18
102
RTVSPost2010Prop41ColorRGB
 90
        0
102
RTVSPost2010PropOp41
 70
     1
102
RTVSPost2010Prop42
 90
       50
102
RTVSPost2010PropOp42
 70
     1
102
RTVSPost2010Prop43
 90
        3
102
RTVSPost2010PropOp43
 70
     1
102
RTVSPost2010Prop44ColorIndex
 90
        5
102
RTVSPost2010Prop44ColorRGB
 90
      255
102
RTVSPost2010PropOp44
 70
     1
102
RTVSPost2010Prop45
280
     0
102
RTVSPost2010PropOp45
 70
     1
102
RTVSPost2010Prop46
 90
       50
102
RTVSPost2010PropOp46
 70
     1
102
RTVSPost2010Prop47
 90
       50
102
RTVSPost2010PropOp47
 70
     1
102
RTVSPost2010Prop48
 90
       50
102
RTVSPost2010PropOp48
 70
     1
102
RTVSPost2010Prop49
280
     0
102
RTVSPost2010PropOp49
 70
     1
102
RTVSPost2010Prop50
 90
       50
102
RTVSPost2010PropOp50
 70
     1
102
RTVSPost2010Prop51ColorIndex
 90
      256
102
RTVSPost2010Prop51ColorRGB
 90
-16777216
102
RTVSPost2010PropOp51
 70
     0
102
RTVSPost2010Prop52
140
1.0
102
RTVSPost2010PropOp52
 70
     0
102
RTVSPost2010Prop53
 90
        2
102
RTVSPost2010PropOp53
 70
     1
102
RTVSPost2010Prop54
  1
strokes_ogs.tif
102
RTVSPost2010PropOp54
 70
     1
102
RTVSPost2010Prop55
280
     0
102
RTVSPost2010PropOp55
 70
     1
102
RTVSPost2010Prop56
140
1.0
102
RTVSPost2010PropOp56
 70
     1
102
RTVSPost2010Prop57
140
1.0
102
RTVSPost2010PropOp57
 70
     1
102
RTVSPropertyOp0
 70
     1
102
RTVSPropertyOp1
 70
     1
102
RTVSPropertyOp2
 70
     1
102
RTVSPropertyOp3
 70
     1
102
RTVSPropertyOp4
 70
     1
102
RTVSPropertyOp5
 70
     1
102
RTVSPropertyOp6
 70
     1
102
RTVSPropertyOp7
 70
     1
102
RTVSPropertyOp8
 70
     1
102
RTVSPropertyOp9
 70
     1
102
RTVSPropertyOp10
 70
     1
102
RTVSPropertyOp11
 70
     1
102
RTVSPropertyOp12
 70
     1
102
RTVSPropertyOp13
 70
     1
102
RTVSPropertyOp14
 70
     1
102
RTVSPropertyOp15
 70
     1
102
RTVSPropertyOp16
 70
     1
102
RTVSPropertyOp17
 70
     1
102
RTVSPropertyOp18
 70
     1
102
RTVSPropertyOp19
 70
     1
102
RTVSPropertyOp20
 70
     1
102
RTVSPropertyOp21
 70
     1
102
RTVSPropertyOp22
 70
     1
102
RTVSPropertyOp23
 70
     1
102
RTVSPropertyOp24
 70
     1
102
RTVSPropertyOp25
 70
     1
102
RTVSPropertyOp26
 70
     1
102
RTVSPropertyOp27
 70
     1
102
RTVSPropertyOp28
 70
     1
102
RTVSPropertyOp29
 70
     1
102
RTVSPropertyOp30
 70
     1
102
RTVSPropertyOp31
 70
     1
102
RTVSPropertyOp32
 70
     1
102
RTVSPropertyOp33
 70
     1
102
RTVSPropertyOp34
 70
     1
102
RTVSPropertyOp35
 70
     1
102
RTVSPropertyOp36
 70
     1
102
RTVSPropertyOp37
 70
     1
102
RTVSPropertyOp38
 70
     1
102
RTVSPropertyOp39
 70
     1
102
RTVSPropertyOp40
 70
     1
102
RTVSPropertyOp41
 70
     1
102
RTVSPropertyOp42
 70
     1
102
RTVSPropertyOp43
 70
     1
102
RTVSPropertyOp44
 70
     1
102
RTVSPropertyOp45
 70
     1
102
RTVSPropertyOp46
 70
     1
102
RTVSPropertyOp47
 70
     1
102
RTVSPropertyOp48
 70
     1
102
RTVSPropertyOp49
 70
     1
102
RTVSPropertyOp50
 70
     1
102
RTVSPropertyOp51
 70
     0
102
RTVSPropertyOp52
 70
     0
102
RTVSPropertyOp53
 70
     1
102
RTVSPropertyOp54
 70
     1
102
RTVSPropertyOp55
 70
     1
102
RTVSPropertyOp56
 70
     1
102
RTVSPropertyOp57
 70
     1
102
RTVSPropertyOp58
 70
     1
102
RTVSPropertyOp59
 70
     1
102
RTVSPropertyOp60
 70
     1
102
RTVSPropertyOp61
 70
     1
102
RTVSPropertyOp62
 70
     1
  0
ENDSEC
  0
EOF
