  0
SECTION
  2
HEADER
  9
$ACADVER
  1
AC1009
  9
$INSBASE
 10
0.0
 20
0.0
 30
0.0
  9
$EXTMIN
 10
-63.019866527779811
 20
-39.436248133699678
 30
-0.0015258207003583
  9
$EXTMAX
 10
66.820221269526826
 20
33.798614887053418
 30
0.0000000349246037
  9
$LIMMIN
 10
0.0
 20
0.0
  9
$LIMMAX
 10
210.0
 20
297.0
  9
$ORTHOMODE
 70
     0
  9
$REGENMODE
 70
     1
  9
$FILLMODE
 70
     1
  9
$QTEXTMODE
 70
     0
  9
$MIRRTEXT
 70
     1
  9
$DRAGMODE
 70
     2
  9
$LTSCALE
 40
1.0
  9
$OSMODE
 70
    37
  9
$ATTMODE
 70
     1
  9
$TEXTSIZE
 40
2.5
  9
$TRACEWID
 40
1.0
  9
$TEXTSTYLE
  7
STANDARD
  9
$CLAYER
  8
0
  9
$CELTYPE
  6
BYLAYER
  9
$CECOLOR
 62
   256
  9
$DIMSCALE
 40
1.0
  9
$DIMASZ
 40
2.5
  9
$DIMEXO
 40
0.625
  9
$DIMDLI
 40
3.75
  9
$DIMRND
 40
0.0
  9
$DIMDLE
 40
0.0
  9
$DIMEXE
 40
1.25
  9
$DIMTP
 40
0.0
  9
$DIMTM
 40
0.0
  9
$DIMTXT
 40
2.5
  9
$DIMCEN
 40
2.5
  9
$DIMTSZ
 40
0.0
  9
$DIMTOL
 70
     0
  9
$DIMLIM
 70
     0
  9
$DIMTIH
 70
     0
  9
$DIMTOH
 70
     0
  9
$DIMSE1
 70
     0
  9
$DIMSE2
 70
     0
  9
$DIMTAD
 70
     1
  9
$DIMZIN
 70
     8
  9
$DIMBLK
  1

  9
$DIMASO
 70
     1
  9
$DIMSHO
 70
     1
  9
$DIMPOST
  1

  9
$DIMAPOST
  1

  9
$DIMALT
 70
     0
  9
$DIMALTD
 70
     3
  9
$DIMALTF
 40
0.0393700787
  9
$DIMLFAC
 40
1.0
  9
$DIMTOFL
 70
     1
  9
$DIMTVP
 40
0.0
  9
$DIMTIX
 70
     0
  9
$DIMSOXD
 70
     0
  9
$DIMSAH
 70
     0
  9
$DIMBLK1
  1

  9
$DIMBLK2
  1

  9
$DIMSTYLE
  2
ISO-25
  9
$DIMCLRD
 70
     0
  9
$DIMCLRE
 70
     0
  9
$DIMCLRT
 70
     0
  9
$DIMTFAC
 40
1.0
  9
$DIMGAP
 40
0.625
  9
$LUNITS
 70
     2
  9
$LUPREC
 70
     4
  9
$SKETCHINC
 40
1.0
  9
$FILLETRAD
 40
10.0
  9
$AUNITS
 70
     0
  9
$AUPREC
 70
     0
  9
$MENU
  1
.
  9
$ELEVATION
 40
0.0
  9
$PELEVATION
 40
0.0
  9
$THICKNESS
 40
0.0
  9
$LIMCHECK
 70
     0
  9
$BLIPMODE
 70
     0
  9
$CHAMFERA
 40
10.0
  9
$CHAMFERB
 40
10.0
  9
$SKPOLY
 70
     0
  9
$TDCREATE
 40
2456939.3967843521
  9
$TDUPDATE
 40
2456962.4627607302
  9
$TDINDWG
 40
0.0002062037
  9
$TDUSRTIMER
 40
0.0002059491
  9
$USRTIMER
 70
     1
  9
$ANGBASE
 50
0.0
  9
$ANGDIR
 70
     0
  9
$PDMODE
 70
     0
  9
$PDSIZE
 40
0.0
  9
$PLINEWID
 40
0.0
  9
$COORDS
 70
     1
  9
$SPLFRAME
 70
     0
  9
$SPLINETYPE
 70
     6
  9
$SPLINESEGS
 70
     8
  9
$ATTDIA
 70
     0
  9
$ATTREQ
 70
     1
  9
$HANDLING
 70
     1
  9
$HANDSEED
  5
880
  9
$SURFTAB1
 70
     6
  9
$SURFTAB2
 70
     6
  9
$SURFTYPE
 70
     6
  9
$SURFU
 70
     6
  9
$SURFV
 70
     6
  9
$UCSNAME
  2

  9
$UCSORG
 10
0.0
 20
0.0
 30
0.0
  9
$UCSXDIR
 10
1.0
 20
0.0
 30
0.0
  9
$UCSYDIR
 10
0.0
 20
1.0
 30
0.0
  9
$PUCSNAME
  2

  9
$PUCSORG
 10
0.0
 20
0.0
 30
0.0
  9
$PUCSXDIR
 10
1.0
 20
0.0
 30
0.0
  9
$PUCSYDIR
 10
0.0
 20
1.0
 30
0.0
  9
$USERI1
 70
     0
  9
$USERI2
 70
     0
  9
$USERI3
 70
     0
  9
$USERI4
 70
     0
  9
$USERI5
 70
     0
  9
$USERR1
 40
0.0
  9
$USERR2
 40
0.0
  9
$USERR3
 40
0.0
  9
$USERR4
 40
0.0
  9
$USERR5
 40
0.0
  9
$WORLDVIEW
 70
     1
  9
$SHADEDGE
 70
     3
  9
$SHADEDIF
 70
    70
  9
$TILEMODE
 70
     1
  9
$MAXACTVP
 70
    64
  9
$PLIMCHECK
 70
     0
  9
$PEXTMIN
 10
0.0
 20
0.0
 30
0.0
  9
$PEXTMAX
 10
210.0
 20
297.0
 30
0.0
  9
$PLIMMIN
 10
0.0
 20
0.0
  9
$PLIMMAX
 10
210.0
 20
297.0
  9
$UNITMODE
 70
     0
  9
$VISRETAIN
 70
     1
  9
$PLINEGEN
 70
     0
  9
$PSLTSCALE
 70
     1
  0
ENDSEC
  0
SECTION
  2
TABLES
  0
TABLE
  2
VPORT
 70
     1
  0
VPORT
  2
*ACTIVE
 70
     0
 10
0.0
 20
0.0
 11
1.0
 21
1.0
 12
1.9001773708735139
 22
-2.8188166233231291
 13
0.0
 23
0.0
 14
10.0
 24
10.0
 15
10.0
 25
10.0
 16
0.0
 26
0.0
 36
1.0
 17
0.0
 27
0.0
 37
0.0
 40
73.61596378235285
 41
1.7734375
 42
50.0
 43
0.0
 44
0.0
 50
0.0
 51
0.0
 71
     0
 72
   100
 73
     1
 74
     3
 75
     0
 76
     0
 77
     0
 78
     0
  0
ENDTAB
  0
TABLE
  2
LTYPE
 70
     4
  0
LTYPE
  2
CONTINUOUS
 70
     0
  3
Solid line
 72
    65
 73
     0
 40
0.0
  0
LTYPE
  2
PHANTOM2
 70
     0
  3
Phantom (.5x) ___ _ _ ___ _ _ ___ _ _ ___ _ _
 72
    65
 73
     6
 40
1.25
 49
0.625
 49
-0.125
 49
0.125
 49
-0.125
 49
0.125
 49
-0.125
  0
LTYPE
  2
CENTER2
 70
     0
  3
Center (.5x) ___ _ ___ _ ___ _ ___ _ ___ _ ___
 72
    65
 73
     4
 40
28.574999999999999
 49
19.050000000000001
 49
-3.1749999999999989
 49
3.1749999999999989
 49
-3.1749999999999989
  0
LTYPE
  2
DOT2
 70
     0
  3
Dot (.5x) ........................................
 72
    65
 73
     2
 40
3.1749999999999989
 49
0.0
 49
-3.1749999999999989
  0
ENDTAB
  0
TABLE
  2
LAYER
 70
    10
  0
LAYER
  2
0
 70
     0
 62
     7
  6
CONTINUOUS
  0
LAYER
  2
SK6
 70
     0
 62
     5
  6
CONTINUOUS
  0
LAYER
  2
SK2
 70
     0
 62
     7
  6
CONTINUOUS
  0
LAYER
  2
2
 70
     0
 62
     7
  6
CONTINUOUS
  0
LAYER
  2
SK1
 70
     0
 62
     4
  6
CONTINUOUS
  0
LAYER
  2
1
 70
     0
 62
     4
  6
CONTINUOUS
  0
LAYER
  2
SK4
 70
     0
 62
     2
  6
CENTER2
  0
LAYER
  2
4
 70
     0
 62
     2
  6
CENTER2
  0
LAYER
  2
80
 70
     0
 62
     6
  6
CONTINUOUS
  0
LAYER
  2
81
 70
     0
 62
     3
  6
CONTINUOUS
  0
ENDTAB
  0
TABLE
  2
STYLE
 70
     4
  0
STYLE
  2
STANDARD
 70
     0
 40
0.0
 41
1.0
 50
0.0
 71
     0
 42
2.5
  3
txt
  4

  0
STYLE
  2
ANNOTATIVE
 70
     0
 40
0.0
 41
1.0
 50
0.0
 71
     0
 42
0.2
  3
txt
  4

  0
STYLE
  2
SEACAD_SOLID_EDGE_ISO1_SYM
 70
     0
 40
0.0
 41
1.0
 50
0.0
 71
     0
 42
0.2
  3
txt
  4

  0
STYLE
  2
SEACAD_SOLID_EDGE_ISO
 70
     0
 40
0.0
 41
1.0
 50
0.0
 71
     0
 42
0.2
  3
txt
  4

  0
ENDTAB
  0
TABLE
  2
VIEW
 70
     0
  0
ENDTAB
  0
TABLE
  2
UCS
 70
     0
  0
ENDTAB
  0
TABLE
  2
APPID
 70
     4
  0
APPID
  2
ACAD
 70
     0
  0
APPID
  2
ACADANNOTATIVE
 70
     0
  0
APPID
  2
ACAD_NAV_VCDISPLAY
 70
     0
  0
APPID
  2
ACAD_MLEADERVER
 70
     0
  0
ENDTAB
  0
TABLE
  2
DIMSTYLE
 70
     3
  0
DIMSTYLE
  2
STANDARD
 70
     0
  3

  4

  5

  6

  7

 40
1.0
 41
0.18
 42
0.0625
 43
0.38
 44
0.18
 45
0.0
 46
0.0
 47
0.0
 48
0.0
140
0.18
141
0.09
142
0.0
143
25.399999999999999
144
1.0
145
0.0
146
1.0
147
0.09
 71
     0
 72
     0
 73
     1
 74
     1
 75
     0
 76
     0
 77
     0
 78
     0
170
     0
171
     2
172
     0
173
     0
174
     0
175
     0
176
     0
177
     0
178
     0
  0
DIMSTYLE
  2
ANNOTATIVE
 70
     0
  3

  4

  5

  6

  7

 40
1.0
 41
0.18
 42
0.0625
 43
0.38
 44
0.18
 45
0.0
 46
0.0
 47
0.0
 48
0.0
140
0.18
141
0.09
142
0.0
143
25.399999999999999
144
1.0
145
0.0
146
1.0
147
0.09
 71
     0
 72
     0
 73
     1
 74
     1
 75
     0
 76
     0
 77
     0
 78
     0
170
     0
171
     2
172
     0
173
     0
174
     0
175
     0
176
     0
177
     0
178
     0
  0
DIMSTYLE
  2
ISO-25
 70
     0
  3

  4

  5

  6

  7

 40
1.0
 41
2.5
 42
0.625
 43
3.75
 44
1.25
 45
0.0
 46
0.0
 47
0.0
 48
0.0
140
2.5
141
2.5
142
0.0
143
0.0393700787
144
1.0
145
0.0
146
1.0
147
0.625
 71
     0
 72
     0
 73
     0
 74
     0
 75
     0
 76
     0
 77
     1
 78
     8
170
     0
171
     3
172
     1
173
     0
174
     0
175
     0
176
     0
177
     0
178
     0
  0
ENDTAB
  0
ENDSEC
  0
SECTION
  2
BLOCKS
  0
BLOCK
  8
0
  2
$MODEL_SPACE
 70
     0
 10
0.0
 20
0.0
 30
0.0
  3
$MODEL_SPACE
  1

  0
ENDBLK
  5
4A8
  8
0
  0
BLOCK
 67
     1
  8
0
  2
$PAPER_SPACE
 70
     0
 10
0.0
 20
0.0
 30
0.0
  3
$PAPER_SPACE
  1

  0
ENDBLK
  5
4A4
 67
     1
  8
0
  0
BLOCK
  8
0
  2
GDIMGGROUP
 70
     0
 10
0.0
 20
0.0
 30
0.0
  3
GDIMGGROUP
  1

  0
POLYLINE
  5
44
  8
SK2
  6
CONTINUOUS
 62
   136
 66
     1
 10
0.0
 20
0.0
 30
0.0
  0
VERTEX
  5
4FA
  8
SK2
  6
CONTINUOUS
 62
   136
 10
-14.294692703200001
 20
6.4999998919999999
 30
0.0
  0
VERTEX
  5
4FB
  8
SK2
  6
CONTINUOUS
 62
   136
 10
-13.1280260005
 20
6.4999998919999999
 30
0.0
  0
VERTEX
  5
4FC
  8
SK2
  6
CONTINUOUS
 62
   136
 10
-13.711359351900001
 20
10.0
 30
0.0
  0
VERTEX
  5
4FD
  8
SK2
  6
CONTINUOUS
 62
   136
 10
-14.294692703200001
 20
6.4999998919999999
 30
0.0
  0
SEQEND
  5
4FE
  8
SK2
  6
CONTINUOUS
 62
   136
  0
POLYLINE
  5
45
  8
SK2
  6
CONTINUOUS
 62
   136
 66
     1
 10
0.0
 20
0.0
 30
0.0
  0
VERTEX
  5
4FF
  8
SK2
  6
CONTINUOUS
 62
   136
 10
-14.294692703200001
 20
-6.4999994449000003
 30
0.0
  0
VERTEX
  5
500
  8
SK2
  6
CONTINUOUS
 62
   136
 10
-13.1280260005
 20
-6.4999994449000003
 30
0.0
  0
VERTEX
  5
501
  8
SK2
  6
CONTINUOUS
 62
   136
 10
-13.711359351900001
 20
-9.9999995530000003
 30
0.0
  0
VERTEX
  5
502
  8
SK2
  6
CONTINUOUS
 62
   136
 10
-14.294692703200001
 20
-6.4999994449000003
 30
0.0
  0
SEQEND
  5
503
  8
SK2
  6
CONTINUOUS
 62
   136
  0
LINE
  5
46
  8
SK2
  6
CONTINUOUS
 62
   136
 10
0.0
 20
10.0
 30
0.0
 11
-15.4613594059
 21
10.0
 31
0.0
  0
LINE
  5
47
  8
SK2
  6
CONTINUOUS
 62
   136
 10
0.0
 20
-10.0
 30
0.0
 11
-15.4613594059
 21
-10.0
 31
0.0
  0
LINE
  5
48
  8
SK2
  6
CONTINUOUS
 62
   136
 10
-13.711359351900001
 20
10.0
 30
0.0
 11
-13.711359351900001
 21
-9.9999995530000003
 31
0.0
  0
TEXT
  5
4A
  8
SK2
  6
CONTINUOUS
 62
   136
 10
-14.586359351900001
 20
-5.1535683570000002
 30
0.0
 40
3.5
  1
O
 50
90.0
  7
SEACAD_SOLID_EDGE_ISO1_SYM
 11
-18.086359351900001
 21
-5.1535683570000002
 31
0.0
 73
     3
  0
TEXT
  5
4C
  8
SK2
  6
CONTINUOUS
 62
   136
 10
-14.586359351900001
 20
0.9376597131999995
 30
0.0
 40
3.5
  1
20
 50
90.0
  7
SEACAD_SOLID_EDGE_ISO
 11
-18.086359351900001
 21
0.9376597132
 31
0.0
 73
     3
  0
ENDBLK
  5
4E
  8
0
  0
BLOCK
  8
0
  2
GDIMGGROUP1
 70
     0
 10
0.0
 20
0.0
 30
0.0
  3
GDIMGGROUP1
  1

  0
POLYLINE
  5
52
  8
2
  6
CONTINUOUS
 62
   136
 66
     1
 10
0.0
 20
0.0
 30
0.0
  0
VERTEX
  5
504
  8
2
  6
CONTINUOUS
 62
   136
 10
3.5000001080000001
 20
-29.8488691232
 30
0.0
  0
VERTEX
  5
505
  8
2
  6
CONTINUOUS
 62
   136
 10
3.5000001080000001
 20
-28.682202420500001
 30
0.0
  0
VERTEX
  5
506
  8
2
  6
CONTINUOUS
 62
   136
 10
0.0
 20
-29.2655357718
 30
0.0
  0
VERTEX
  5
507
  8
2
  6
CONTINUOUS
 62
   136
 10
3.5000001080000001
 20
-29.8488691232
 30
0.0
  0
SEQEND
  5
508
  8
2
  6
CONTINUOUS
 62
   136
  0
POLYLINE
  5
53
  8
2
  6
CONTINUOUS
 62
   136
 66
     1
 10
0.0
 20
0.0
 30
0.0
  0
VERTEX
  5
509
  8
2
  6
CONTINUOUS
 62
   136
 10
17.4999996088
 20
-29.8488691232
 30
0.0
  0
VERTEX
  5
50A
  8
2
  6
CONTINUOUS
 62
   136
 10
17.4999996088
 20
-28.682202420500001
 30
0.0
  0
VERTEX
  5
50B
  8
2
  6
CONTINUOUS
 62
   136
 10
20.9999997169
 20
-29.2655357718
 30
0.0
  0
VERTEX
  5
50C
  8
2
  6
CONTINUOUS
 62
   136
 10
17.4999996088
 20
-29.8488691232
 30
0.0
  0
SEQEND
  5
50D
  8
2
  6
CONTINUOUS
 62
   136
  0
LINE
  5
54
  8
2
  6
CONTINUOUS
 62
   136
 10
0.0
 20
10.0
 30
0.0
 11
0.0
 21
-31.015535825899999
 31
0.0
  0
LINE
  5
55
  8
2
  6
CONTINUOUS
 62
   136
 10
21.0
 20
1.8527108618000001
 30
0.0
 11
21.0
 21
-31.015535825899999
 31
0.0
  0
LINE
  5
56
  8
2
  6
CONTINUOUS
 62
   136
 10
0.0
 20
-29.2655357718
 30
0.0
 11
20.9999997169
 21
-29.2655357718
 31
0.0
  0
TEXT
  5
57
  8
2
  6
CONTINUOUS
 62
   136
 10
8.7102271311999981
 20
-28.3905357718
 30
0.0
 40
3.5
  1
21
  7
SEACAD_SOLID_EDGE_ISO
 11
8.7102271311999981
 21
-24.8905357718
 31
0.0
 73
     3
  0
ENDBLK
  5
59
  8
0
  0
BLOCK
  8
0
  2
GDIMGGROUP2
 70
     0
 10
0.0
 20
0.0
 30
0.0
  3
GDIMGGROUP2
  1

  0
POLYLINE
  5
5C
  8
SK2
  6
CONTINUOUS
 62
   136
 66
     1
 10
0.0
 20
0.0
 30
0.0
  0
VERTEX
  5
50E
  8
SK2
  6
CONTINUOUS
 62
   136
 10
17.499999892000002
 20
-38.248870779400001
 30
0.0
  0
VERTEX
  5
50F
  8
SK2
  6
CONTINUOUS
 62
   136
 10
17.499999892000002
 20
-37.082204076700002
 30
0.0
  0
VERTEX
  5
510
  8
SK2
  6
CONTINUOUS
 62
   136
 10
21.0
 20
-37.665537428
 30
0.0
  0
VERTEX
  5
511
  8
SK2
  6
CONTINUOUS
 62
   136
 10
17.499999892000002
 20
-38.248870779400001
 30
0.0
  0
SEQEND
  5
512
  8
SK2
  6
CONTINUOUS
 62
   136
  0
POLYLINE
  5
5D
  8
SK2
  6
CONTINUOUS
 62
   136
 66
     1
 10
0.0
 20
0.0
 30
0.0
  0
VERTEX
  5
513
  8
SK2
  6
CONTINUOUS
 62
   136
 10
-47.499996792499999
 20
-38.248870779400001
 30
0.0
  0
VERTEX
  5
514
  8
SK2
  6
CONTINUOUS
 62
   136
 10
-47.499996792499999
 20
-37.082204076700002
 30
0.0
  0
VERTEX
  5
515
  8
SK2
  6
CONTINUOUS
 62
   136
 10
-50.999996900600003
 20
-37.665537428
 30
0.0
  0
VERTEX
  5
516
  8
SK2
  6
CONTINUOUS
 62
   136
 10
-47.499996792499999
 20
-38.248870779400001
 30
0.0
  0
SEQEND
  5
517
  8
SK2
  6
CONTINUOUS
 62
   136
  0
LINE
  5
5E
  8
SK2
  6
CONTINUOUS
 62
   136
 10
21.0
 20
1.8527108618000001
 30
0.0
 11
21.0
 21
-39.415537481999998
 31
0.0
  0
LINE
  5
5F
  8
SK2
  6
CONTINUOUS
 62
   136
 10
-51.0
 20
-9.2494446500999992
 30
0.0
 11
-51.0
 21
-39.415537481999998
 31
0.0
  0
LINE
  5
60
  8
SK2
  6
CONTINUOUS
 62
   136
 10
21.0
 20
-37.665537428
 30
0.0
 11
-50.999996900600003
 21
-37.665537428
 31
0.0
  0
TEXT
  5
61
  8
SK2
  6
CONTINUOUS
 62
   136
 10
-17.187498450300001
 20
-36.790537428
 30
0.0
 40
3.5
  1
72
  7
SEACAD_SOLID_EDGE_ISO
 11
-17.187498450300001
 21
-33.290537428
 31
0.0
 73
     3
  0
ENDBLK
  5
63
  8
0
  0
BLOCK
  8
0
  2
GDIMGGROUP3
 70
     0
 10
0.0
 20
0.0
 30
0.0
  3
GDIMGGROUP3
  1

  0
POLYLINE
  5
66
  8
SK2
  6
CONTINUOUS
 62
   136
 66
     1
 10
0.0
 20
0.0
 30
0.0
  0
VERTEX
  5
518
  8
SK2
  6
CONTINUOUS
 62
   136
 10
17.499999892000002
 20
-21.4488695157
 30
0.0
  0
VERTEX
  5
519
  8
SK2
  6
CONTINUOUS
 62
   136
 10
17.499999892000002
 20
-20.2822028131
 30
0.0
  0
VERTEX
  5
51A
  8
SK2
  6
CONTINUOUS
 62
   136
 10
21.0
 20
-20.865536164400002
 30
0.0
  0
VERTEX
  5
51B
  8
SK2
  6
CONTINUOUS
 62
   136
 10
17.499999892000002
 20
-21.4488695157
 30
0.0
  0
SEQEND
  5
51C
  8
SK2
  6
CONTINUOUS
 62
   136
  0
POLYLINE
  5
67
  8
SK2
  6
CONTINUOUS
 62
   136
 66
     1
 10
0.0
 20
0.0
 30
0.0
  0
VERTEX
  5
51D
  8
SK2
  6
CONTINUOUS
 62
   136
 10
7.4999991842
 20
-21.4488695157
 30
0.0
  0
VERTEX
  5
51E
  8
SK2
  6
CONTINUOUS
 62
   136
 10
7.4999991842
 20
-20.2822028131
 30
0.0
  0
VERTEX
  5
51F
  8
SK2
  6
CONTINUOUS
 62
   136
 10
3.9999990760999991
 20
-20.865536164400002
 30
0.0
  0
VERTEX
  5
520
  8
SK2
  6
CONTINUOUS
 62
   136
 10
7.4999991842
 20
-21.4488695157
 30
0.0
  0
SEQEND
  5
521
  8
SK2
  6
CONTINUOUS
 62
   136
  0
LINE
  5
68
  8
SK2
  6
CONTINUOUS
 62
   136
 10
21.0
 20
1.8527108618000001
 30
0.0
 11
21.0
 21
-22.615536218399999
 31
0.0
  0
LINE
  5
69
  8
SK2
  6
CONTINUOUS
 62
   136
 10
4.0
 20
-8.2808786614999992
 30
0.0
 11
4.0
 21
-22.615536218399999
 31
0.0
  0
LINE
  5
6A
  8
SK2
  6
CONTINUOUS
 62
   136
 10
21.0
 20
-20.865536164400002
 30
0.0
 11
3.9999990760999991
 21
-20.865536164400002
 31
0.0
  0
TEXT
  5
6B
  8
SK2
  6
CONTINUOUS
 62
   136
 10
10.670454083499999
 20
-19.990536164400002
 30
0.0
 40
3.5
  1
17
  7
SEACAD_SOLID_EDGE_ISO
 11
10.670454083499999
 21
-16.490536164400002
 31
0.0
 73
     3
  0
ENDBLK
  5
6D
  8
0
  0
BLOCK
  8
0
  2
GDIMGGROUP4
 70
     0
 10
0.0
 20
0.0
 30
0.0
  3
GDIMGGROUP4
  1

  0
POLYLINE
  5
70
  8
SK2
  6
CONTINUOUS
 62
   136
 66
     1
 10
0.0
 20
0.0
 30
0.0
  0
VERTEX
  5
522
  8
SK2
  6
CONTINUOUS
 62
   136
 10
34.703275859999998
 20
7.0000001079999992
 30
0.0
  0
VERTEX
  5
523
  8
SK2
  6
CONTINUOUS
 62
   136
 10
33.536609157299999
 20
7.0000001079999992
 30
0.0
  0
VERTEX
  5
524
  8
SK2
  6
CONTINUOUS
 62
   136
 10
34.119942508600012
 20
3.5
 30
0.0
  0
VERTEX
  5
525
  8
SK2
  6
CONTINUOUS
 62
   136
 10
34.703275859999998
 20
7.0000001079999992
 30
0.0
  0
SEQEND
  5
526
  8
SK2
  6
CONTINUOUS
 62
   136
  0
POLYLINE
  5
71
  8
SK2
  6
CONTINUOUS
 62
   136
 66
     1
 10
0.0
 20
0.0
 30
0.0
  0
VERTEX
  5
527
  8
SK2
  6
CONTINUOUS
 62
   136
 10
34.703275859999998
 20
-7.0000001079999992
 30
0.0
  0
VERTEX
  5
528
  8
SK2
  6
CONTINUOUS
 62
   136
 10
33.536609157299999
 20
-7.0000001079999992
 30
0.0
  0
VERTEX
  5
529
  8
SK2
  6
CONTINUOUS
 62
   136
 10
34.119942508600012
 20
-3.5
 30
0.0
  0
VERTEX
  5
52A
  8
SK2
  6
CONTINUOUS
 62
   136
 10
34.703275859999998
 20
-7.0000001079999992
 30
0.0
  0
SEQEND
  5
52B
  8
SK2
  6
CONTINUOUS
 62
   136
  0
LINE
  5
72
  8
SK2
  6
CONTINUOUS
 62
   136
 10
21.0
 20
3.5
 30
0.0
 11
35.869942562699997
 21
3.5
 31
0.0
  0
LINE
  5
73
  8
SK2
  6
CONTINUOUS
 62
   136
 10
21.0
 20
-3.5
 30
0.0
 11
35.869942562699997
 21
-3.5
 31
0.0
  0
LINE
  5
74
  8
SK2
  6
CONTINUOUS
 62
   136
 10
34.119942508600012
 20
20.067338257999999
 30
0.0
 11
34.119942508600012
 21
-10.5000004321
 31
0.0
  0
TEXT
  5
75
  8
SK2
  6
CONTINUOUS
 62
   136
 10
33.244942508600012
 20
10.523836704300001
 30
0.0
 40
3.5
  1
O
 50
90.0
  7
SEACAD_SOLID_EDGE_ISO1_SYM
 11
29.744942508600001
 21
10.523836704300001
 31
0.0
 73
     3
  0
TEXT
  5
76
  8
SK2
  6
CONTINUOUS
 62
   136
 10
33.244942508600012
 20
16.615064774499999
 30
0.0
 40
3.5
  1
7
 50
90.0
  7
SEACAD_SOLID_EDGE_ISO
 11
29.744942508600001
 21
16.615064774499999
 31
0.0
 73
     3
  0
ENDBLK
  5
78
  8
0
  0
BLOCK
  8
0
  2
SE
 70
     0
 10
0.0
 20
0.0
 30
0.0
  3
SE
  1

  0
LINE
  5
7D
  8
1
  6
CONTINUOUS
 10
21.0
 20
-2.9903437913999991
 30
0.0
 11
21.0
 21
-2.3472576452
 31
0.0
  0
LINE
  5
7E
  8
1
  6
CONTINUOUS
 10
20.538094609400002
 20
-3.7153900210000002
 30
0.0
 11
20.538094609400002
 21
-2.956832381399999
 31
0.0
  0
LINE
  5
7F
  8
1
  6
CONTINUOUS
 10
7.3602976573000003
 20
-9.8602976573000003
 30
0.0
 11
7.3602976573000003
 21
-7.3168668938999986
 31
0.0
  0
LINE
  5
80
  8
1
  6
CONTINUOUS
 10
6.5
 20
-9.0
 30
0.0
 11
6.5
 21
-6.707685904199999
 31
0.0
  0
LINE
  5
81
  8
1
  6
CONTINUOUS
 10
4.4000000000000004
 20
-9.0
 30
0.0
 11
4.4000000000000004
 21
-6.707685904199999
 31
0.0
  0
LINE
  5
82
  8
1
  6
CONTINUOUS
 10
4.0
 20
-9.5
 30
0.0
 11
4.0
 21
-7.0617573230999993
 31
0.0
  0
LINE
  5
83
  8
1
  6
CONTINUOUS
 10
3.5
 20
-10.0
 30
0.0
 11
3.5
 21
-7.4157768365000001
 31
0.0
  0
LINE
  5
84
  8
SK1
  6
CONTINUOUS
 10
-49.700000000000003
 20
10.0
 30
0.0
 11
-49.700000000000003
 21
-10.0
 31
0.0
  0
LINE
  5
85
  8
SK1
  6
CONTINUOUS
 10
-51.0
 20
-9.2494446500999992
 30
0.0
 11
-51.0
 21
9.2494446500999992
 31
0.0
  0
LINE
  5
86
  8
1
  6
CONTINUOUS
 10
3.5
 20
-6.7086700552999989
 30
0.0
 11
4.0
 21
-6.3546505418999999
 31
0.0
  0
POLYLINE
  5
87
  8
1
  6
CONTINUOUS
 66
     1
 10
0.0
 20
0.0
 30
0.0
  0
VERTEX
  5
52C
  8
1
  6
CONTINUOUS
 10
4.0
 20
-6.2838406763999988
 30
0.0
  0
VERTEX
  5
52D
  8
1
  6
CONTINUOUS
 10
4.0003222326999994
 20
-6.2727602096000004
 30
0.0
  0
VERTEX
  5
52E
  8
1
  6
CONTINUOUS
 10
4.0012825432999994
 20
-6.2616962986000004
 30
0.0
  0
VERTEX
  5
52F
  8
1
  6
CONTINUOUS
 10
4.0028713506999987
 20
-6.2506651322999991
 30
0.0
  0
VERTEX
  5
530
  8
1
  6
CONTINUOUS
 10
4.0050790736000002
 20
-6.2396828995999991
 30
0.0
  0
VERTEX
  5
531
  8
1
  6
CONTINUOUS
 10
4.007896130999999
 20
-6.2287657891999988
 30
0.0
  0
VERTEX
  5
532
  8
1
  6
CONTINUOUS
 10
4.0113129416999991
 20
-6.2179299901
 30
0.0
  0
VERTEX
  5
533
  8
1
  6
CONTINUOUS
 10
4.0153199244999991
 20
-6.2071916911000002
 30
0.0
  0
VERTEX
  5
534
  8
1
  6
CONTINUOUS
 10
4.0199074982000003
 20
-6.1965670811000004
 30
0.0
  0
VERTEX
  5
535
  8
1
  6
CONTINUOUS
 10
4.0250660817000004
 20
-6.1860723489999989
 30
0.0
  0
VERTEX
  5
536
  8
1
  6
CONTINUOUS
 10
4.0307860937999989
 20
-6.1757236836000002
 30
0.0
  0
VERTEX
  5
537
  8
1
  6
CONTINUOUS
 10
4.0370579533999988
 20
-6.1655372737
 30
0.0
  0
VERTEX
  5
538
  8
1
  6
CONTINUOUS
 10
4.0438720791999989
 20
-6.1555293083000002
 30
0.0
  0
VERTEX
  5
539
  8
1
  6
CONTINUOUS
 10
4.0512188900999986
 20
-6.1457159761999991
 30
0.0
  0
VERTEX
  5
53A
  8
1
  6
CONTINUOUS
 10
4.059088805
 20
-6.1361134662000003
 30
0.0
  0
VERTEX
  5
53B
  8
1
  6
CONTINUOUS
 10
4.0674722427000001
 20
-6.1267379673000004
 30
0.0
  0
VERTEX
  5
53C
  8
1
  6
CONTINUOUS
 10
4.076359622
 20
-6.1176056682000004
 30
0.0
  0
VERTEX
  5
53D
  8
1
  6
CONTINUOUS
 10
4.0857413618000002
 20
-6.1087327578999986
 30
0.0
  0
VERTEX
  5
53E
  8
1
  6
CONTINUOUS
 10
4.0956078808999994
 20
-6.1001354250999986
 30
0.0
  0
VERTEX
  5
53F
  8
1
  6
CONTINUOUS
 10
4.1059495980999987
 20
-6.0918298588999988
 30
0.0
  0
VERTEX
  5
540
  8
1
  6
CONTINUOUS
 10
4.1167569322000004
 20
-6.0838322478999993
 30
0.0
  0
VERTEX
  5
541
  8
1
  6
CONTINUOUS
 10
4.1280272222000001
 20
-6.0761546538999989
 30
0.0
  0
VERTEX
  5
542
  8
1
  6
CONTINUOUS
 10
4.139747966799999
 20
-6.0688032165000001
 30
0.0
  0
VERTEX
  5
543
  8
1
  6
CONTINUOUS
 10
4.1518948247000003
 20
-6.061785242
 30
0.0
  0
VERTEX
  5
544
  8
1
  6
CONTINUOUS
 10
4.1644434545999989
 20
-6.0551080363000001
 30
0.0
  0
VERTEX
  5
545
  8
1
  6
CONTINUOUS
 10
4.1773695151999988
 20
-6.0487789056999999
 30
0.0
  0
VERTEX
  5
546
  8
1
  6
CONTINUOUS
 10
4.1906486650000003
 20
-6.0428051562
 30
0.0
  0
VERTEX
  5
547
  8
1
  6
CONTINUOUS
 10
4.2042565627999986
 20
-6.0371940940999993
 30
0.0
  0
VERTEX
  5
548
  8
1
  6
CONTINUOUS
 10
4.2181688674000002
 20
-6.0319530254999991
 30
0.0
  0
VERTEX
  5
549
  8
1
  6
CONTINUOUS
 10
4.2323612372000001
 20
-6.0270892564
 30
0.0
  0
VERTEX
  5
54A
  8
1
  6
CONTINUOUS
 10
4.2468093310999997
 20
-6.0226100929999991
 30
0.0
  0
VERTEX
  5
54B
  8
1
  6
CONTINUOUS
 10
4.2614888077000002
 20
-6.0185228414999994
 30
0.0
  0
VERTEX
  5
54C
  8
1
  6
CONTINUOUS
 10
4.2763753257000001
 20
-6.0148348079999989
 30
0.0
  0
VERTEX
  5
54D
  8
1
  6
CONTINUOUS
 10
4.2914445436999991
 20
-6.0115532985999991
 30
0.0
  0
VERTEX
  5
54E
  8
1
  6
CONTINUOUS
 10
4.3066721204
 20
-6.0086856193999996
 30
0.0
  0
VERTEX
  5
54F
  8
1
  6
CONTINUOUS
 10
4.322033714599999
 20
-6.0062390766
 30
0.0
  0
VERTEX
  5
550
  8
1
  6
CONTINUOUS
 10
4.3375049847999989
 20
-6.0042209763000001
 30
0.0
  0
VERTEX
  5
551
  8
1
  6
CONTINUOUS
 10
4.3530615898000002
 20
-6.0026386247000003
 30
0.0
  0
VERTEX
  5
552
  8
1
  6
CONTINUOUS
 10
4.3686791881999989
 20
-6.0014993277999986
 30
0.0
  0
VERTEX
  5
553
  8
1
  6
CONTINUOUS
 10
4.3843334386999988
 20
-6.0008103919
 30
0.0
  0
VERTEX
  5
554
  8
1
  6
CONTINUOUS
 10
4.4000000000000004
 20
-6.0005791229999987
 30
0.0
  0
SEQEND
  5
555
  8
1
  6
CONTINUOUS
  0
LINE
  5
88
  8
1
  6
CONTINUOUS
 10
4.4000000000000004
 20
-6.0005791229999987
 30
0.0
 11
6.5
 21
-6.0005791229999987
 31
0.0
  0
POLYLINE
  5
89
  8
1
  6
CONTINUOUS
 66
     1
 10
0.0
 20
0.0
 30
0.0
  0
VERTEX
  5
556
  8
1
  6
CONTINUOUS
 10
6.5
 20
-6.0005791229999987
 30
0.0
  0
VERTEX
  5
557
  8
1
  6
CONTINUOUS
 10
6.5358434221000001
 20
-6.0259632986999989
 30
0.0
  0
VERTEX
  5
558
  8
1
  6
CONTINUOUS
 10
6.5716870615999987
 20
-6.0513473207999997
 30
0.0
  0
VERTEX
  5
559
  8
1
  6
CONTINUOUS
 10
6.6075309163
 20
-6.0767311910000004
 30
0.0
  0
VERTEX
  5
55A
  8
1
  6
CONTINUOUS
 10
6.6433749838000002
 20
-6.1021149107000001
 30
0.0
  0
VERTEX
  5
55B
  8
1
  6
CONTINUOUS
 10
6.6792192622000002
 20
-6.1274984814999991
 30
0.0
  0
VERTEX
  5
55C
  8
1
  6
CONTINUOUS
 10
6.7150637489999987
 20
-6.1528819051000001
 30
0.0
  0
VERTEX
  5
55D
  8
1
  6
CONTINUOUS
 10
6.7509084422000001
 20
-6.1782651828999988
 30
0.0
  0
VERTEX
  5
55E
  8
1
  6
CONTINUOUS
 10
6.7867533395999997
 20
-6.2036483163999989
 30
0.0
  0
VERTEX
  5
55F
  8
1
  6
CONTINUOUS
 10
6.8225984388000001
 20
-6.2290313073999988
 30
0.0
  0
VERTEX
  5
560
  8
1
  6
CONTINUOUS
 10
6.8584437377
 20
-6.2544141572000003
 30
0.0
  0
VERTEX
  5
561
  8
1
  6
CONTINUOUS
 10
6.8942892341999986
 20
-6.2797968674999991
 30
0.0
  0
VERTEX
  5
562
  8
1
  6
CONTINUOUS
 10
6.930134926
 20
-6.305179439899999
 30
0.0
  0
VERTEX
  5
563
  8
1
  6
CONTINUOUS
 10
6.9659808107999996
 20
-6.3305618758
 30
0.0
  0
VERTEX
  5
564
  8
1
  6
CONTINUOUS
 10
7.0018268864999991
 20
-6.3559441767999987
 30
0.0
  0
VERTEX
  5
565
  8
1
  6
CONTINUOUS
 10
7.037673150999999
 20
-6.3813263445999997
 30
0.0
  0
VERTEX
  5
566
  8
1
  6
CONTINUOUS
 10
7.0735196017999993
 20
-6.4067083805999987
 30
0.0
  0
VERTEX
  5
567
  8
1
  6
CONTINUOUS
 10
7.1093662369999997
 20
-6.4320902864000002
 30
0.0
  0
VERTEX
  5
568
  8
1
  6
CONTINUOUS
 10
7.1452130541999992
 20
-6.4574720636
 30
0.0
  0
VERTEX
  5
569
  8
1
  6
CONTINUOUS
 10
7.1810600513000002
 20
-6.4828537137999991
 30
0.0
  0
VERTEX
  5
56A
  8
1
  6
CONTINUOUS
 10
7.216907226
 20
-6.5082352384000002
 30
0.0
  0
VERTEX
  5
56B
  8
1
  6
CONTINUOUS
 10
7.2527545762000001
 20
-6.533616638999999
 30
0.0
  0
VERTEX
  5
56C
  8
1
  6
CONTINUOUS
 10
7.2886020996000003
 20
-6.5589979172000001
 30
0.0
  0
VERTEX
  5
56D
  8
1
  6
CONTINUOUS
 10
7.3244497940999986
 20
-6.5843790746000002
 30
0.0
  0
VERTEX
  5
56E
  8
1
  6
CONTINUOUS
 10
7.3602976573000003
 20
-6.6097601127000001
 30
0.0
  0
SEQEND
  5
56F
  8
1
  6
CONTINUOUS
  0
ARC
  5
8A
  8
1
  6
CONTINUOUS
 10
-2332.8597734829
 20
7088.5811032932997
 30
0.0
 40
7471.1688087961147
 50
288.2542023995
 51
288.36064971050001
  0
ARC
  5
8B
  8
1
  6
CONTINUOUS
 10
20.323933227400001
 20
-1.5381562070999999
 30
0.0
 40
0.7430989831857876
 50
286.75024382779998
 51
322.2347216151
  0
LINE
  5
8C
  8
1
  6
CONTINUOUS
 10
3.5
 20
-7.4157768365000001
 30
0.0
 11
4.0
 21
-7.0617573230999993
 31
0.0
  0
LINE
  5
8D
  8
1
  6
CONTINUOUS
 10
4.0
 20
-7.0617573230999993
 30
0.0
 11
4.0
 21
-6.990947457499999
 31
0.0
  0
POLYLINE
  5
8E
  8
1
  6
CONTINUOUS
 66
     1
 10
0.0
 20
0.0
 30
0.0
  0
VERTEX
  5
570
  8
1
  6
CONTINUOUS
 10
4.0
 20
-6.990947457499999
 30
0.0
  0
VERTEX
  5
571
  8
1
  6
CONTINUOUS
 10
4.0003222326999994
 20
-6.9798669907999997
 30
0.0
  0
VERTEX
  5
572
  8
1
  6
CONTINUOUS
 10
4.0012825432999994
 20
-6.9688030797999989
 30
0.0
  0
VERTEX
  5
573
  8
1
  6
CONTINUOUS
 10
4.0028713506999987
 20
-6.9577719135000002
 30
0.0
  0
VERTEX
  5
574
  8
1
  6
CONTINUOUS
 10
4.0050790736000002
 20
-6.9467896807000002
 30
0.0
  0
VERTEX
  5
575
  8
1
  6
CONTINUOUS
 10
4.007896130999999
 20
-6.935872570399999
 30
0.0
  0
VERTEX
  5
576
  8
1
  6
CONTINUOUS
 10
4.0113129416999991
 20
-6.9250367713000003
 30
0.0
  0
VERTEX
  5
577
  8
1
  6
CONTINUOUS
 10
4.0153199244999991
 20
-6.9142984722999996
 30
0.0
  0
VERTEX
  5
578
  8
1
  6
CONTINUOUS
 10
4.0199074982000003
 20
-6.9036738622999989
 30
0.0
  0
VERTEX
  5
579
  8
1
  6
CONTINUOUS
 10
4.0250660817000004
 20
-6.8931791302000001
 30
0.0
  0
VERTEX
  5
57A
  8
1
  6
CONTINUOUS
 10
4.0307860937999989
 20
-6.8828304647999996
 30
0.0
  0
VERTEX
  5
57B
  8
1
  6
CONTINUOUS
 10
4.0370579533999988
 20
-6.8726440549000003
 30
0.0
  0
VERTEX
  5
57C
  8
1
  6
CONTINUOUS
 10
4.0438720791999989
 20
-6.8626360894999996
 30
0.0
  0
VERTEX
  5
57D
  8
1
  6
CONTINUOUS
 10
4.0512188900999986
 20
-6.8528227574000002
 30
0.0
  0
VERTEX
  5
57E
  8
1
  6
CONTINUOUS
 10
4.059088805
 20
-6.8432202473999988
 30
0.0
  0
VERTEX
  5
57F
  8
1
  6
CONTINUOUS
 10
4.0674722427000001
 20
-6.8338447483999998
 30
0.0
  0
VERTEX
  5
580
  8
1
  6
CONTINUOUS
 10
4.076359622
 20
-6.8247124493999998
 30
0.0
  0
VERTEX
  5
581
  8
1
  6
CONTINUOUS
 10
4.0857413618000002
 20
-6.8158395389999988
 30
0.0
  0
VERTEX
  5
582
  8
1
  6
CONTINUOUS
 10
4.0956078808999994
 20
-6.8072422062999989
 30
0.0
  0
VERTEX
  5
583
  8
1
  6
CONTINUOUS
 10
4.1059495980999987
 20
-6.7989366400999991
 30
0.0
  0
VERTEX
  5
584
  8
1
  6
CONTINUOUS
 10
4.1167569322000004
 20
-6.7909390290999987
 30
0.0
  0
VERTEX
  5
585
  8
1
  6
CONTINUOUS
 10
4.1280272222000001
 20
-6.7832614351
 30
0.0
  0
VERTEX
  5
586
  8
1
  6
CONTINUOUS
 10
4.139747966799999
 20
-6.7759099976999986
 30
0.0
  0
VERTEX
  5
587
  8
1
  6
CONTINUOUS
 10
4.1518948247000003
 20
-6.7688920230999994
 30
0.0
  0
VERTEX
  5
588
  8
1
  6
CONTINUOUS
 10
4.1644434545999989
 20
-6.7622148175000003
 30
0.0
  0
VERTEX
  5
589
  8
1
  6
CONTINUOUS
 10
4.1773695151999988
 20
-6.7558856869000001
 30
0.0
  0
VERTEX
  5
58A
  8
1
  6
CONTINUOUS
 10
4.1906486650000003
 20
-6.7499119374000003
 30
0.0
  0
VERTEX
  5
58B
  8
1
  6
CONTINUOUS
 10
4.2042565627999986
 20
-6.7443008752999987
 30
0.0
  0
VERTEX
  5
58C
  8
1
  6
CONTINUOUS
 10
4.2181688674000002
 20
-6.7390598066999994
 30
0.0
  0
VERTEX
  5
58D
  8
1
  6
CONTINUOUS
 10
4.2323612372000001
 20
-6.7341960376000003
 30
0.0
  0
VERTEX
  5
58E
  8
1
  6
CONTINUOUS
 10
4.2468093310999997
 20
-6.7297168741999993
 30
0.0
  0
VERTEX
  5
58F
  8
1
  6
CONTINUOUS
 10
4.2614888077000002
 20
-6.7256296226999988
 30
0.0
  0
VERTEX
  5
590
  8
1
  6
CONTINUOUS
 10
4.2763753257000001
 20
-6.7219415891999992
 30
0.0
  0
VERTEX
  5
591
  8
1
  6
CONTINUOUS
 10
4.2914445436999991
 20
-6.7186600797000002
 30
0.0
  0
VERTEX
  5
592
  8
1
  6
CONTINUOUS
 10
4.3066721204
 20
-6.7157924005999989
 30
0.0
  0
VERTEX
  5
593
  8
1
  6
CONTINUOUS
 10
4.322033714599999
 20
-6.7133458577999994
 30
0.0
  0
VERTEX
  5
594
  8
1
  6
CONTINUOUS
 10
4.3375049847999989
 20
-6.7113277575000003
 30
0.0
  0
VERTEX
  5
595
  8
1
  6
CONTINUOUS
 10
4.3530615898000002
 20
-6.7097454058999997
 30
0.0
  0
VERTEX
  5
596
  8
1
  6
CONTINUOUS
 10
4.3686791881999989
 20
-6.7086061089999989
 30
0.0
  0
VERTEX
  5
597
  8
1
  6
CONTINUOUS
 10
4.3843334386999988
 20
-6.7079171730999994
 30
0.0
  0
VERTEX
  5
598
  8
1
  6
CONTINUOUS
 10
4.4000000000000004
 20
-6.707685904199999
 30
0.0
  0
SEQEND
  5
599
  8
1
  6
CONTINUOUS
  0
LINE
  5
8F
  8
1
  6
CONTINUOUS
 10
4.4000000000000004
 20
-6.707685904199999
 30
0.0
 11
6.5
 21
-6.707685904199999
 31
0.0
  0
POLYLINE
  5
90
  8
1
  6
CONTINUOUS
 66
     1
 10
0.0
 20
0.0
 30
0.0
  0
VERTEX
  5
59A
  8
1
  6
CONTINUOUS
 10
6.5
 20
-6.707685904199999
 30
0.0
  0
VERTEX
  5
59B
  8
1
  6
CONTINUOUS
 10
6.5358434221000001
 20
-6.7330700799000001
 30
0.0
  0
VERTEX
  5
59C
  8
1
  6
CONTINUOUS
 10
6.5716870615999987
 20
-6.758454102
 30
0.0
  0
VERTEX
  5
59D
  8
1
  6
CONTINUOUS
 10
6.6075309163
 20
-6.7838379721999997
 30
0.0
  0
VERTEX
  5
59E
  8
1
  6
CONTINUOUS
 10
6.6433749838000002
 20
-6.8092216919000004
 30
0.0
  0
VERTEX
  5
59F
  8
1
  6
CONTINUOUS
 10
6.6792192622000002
 20
-6.8346052627000002
 30
0.0
  0
VERTEX
  5
5A0
  8
1
  6
CONTINUOUS
 10
6.7150637489999987
 20
-6.8599886863000004
 30
0.0
  0
VERTEX
  5
5A1
  8
1
  6
CONTINUOUS
 10
6.7509084422000001
 20
-6.8853719639999991
 30
0.0
  0
VERTEX
  5
5A2
  8
1
  6
CONTINUOUS
 10
6.7867533395999997
 20
-6.9107550976000001
 30
0.0
  0
VERTEX
  5
5A3
  8
1
  6
CONTINUOUS
 10
6.8225984388000001
 20
-6.936138088599999
 30
0.0
  0
VERTEX
  5
5A4
  8
1
  6
CONTINUOUS
 10
6.8584437377
 20
-6.9615209383999996
 30
0.0
  0
VERTEX
  5
5A5
  8
1
  6
CONTINUOUS
 10
6.8942892341999986
 20
-6.9869036487000002
 30
0.0
  0
VERTEX
  5
5A6
  8
1
  6
CONTINUOUS
 10
6.930134926
 20
-7.0122862210000001
 30
0.0
  0
VERTEX
  5
5A7
  8
1
  6
CONTINUOUS
 10
6.9659808107999996
 20
-7.0376686570000002
 30
0.0
  0
VERTEX
  5
5A8
  8
1
  6
CONTINUOUS
 10
7.0018268864999991
 20
-7.0630509579999989
 30
0.0
  0
VERTEX
  5
5A9
  8
1
  6
CONTINUOUS
 10
7.037673150999999
 20
-7.0884331258
 30
0.0
  0
VERTEX
  5
5AA
  8
1
  6
CONTINUOUS
 10
7.0735196017999993
 20
-7.113815161799999
 30
0.0
  0
VERTEX
  5
5AB
  8
1
  6
CONTINUOUS
 10
7.1093662369999997
 20
-7.1391970675999987
 30
0.0
  0
VERTEX
  5
5AC
  8
1
  6
CONTINUOUS
 10
7.1452130541999992
 20
-7.1645788448000003
 30
0.0
  0
VERTEX
  5
5AD
  8
1
  6
CONTINUOUS
 10
7.1810600513000002
 20
-7.1899604949000002
 30
0.0
  0
VERTEX
  5
5AE
  8
1
  6
CONTINUOUS
 10
7.216907226
 20
-7.2153420195000004
 30
0.0
  0
VERTEX
  5
5AF
  8
1
  6
CONTINUOUS
 10
7.2527545762000001
 20
-7.2407234202000001
 30
0.0
  0
VERTEX
  5
5B0
  8
1
  6
CONTINUOUS
 10
7.2886020996000003
 20
-7.2661046984000004
 30
0.0
  0
VERTEX
  5
5B1
  8
1
  6
CONTINUOUS
 10
7.3244497940999986
 20
-7.2914858558000004
 30
0.0
  0
VERTEX
  5
5B2
  8
1
  6
CONTINUOUS
 10
7.3602976573000003
 20
-7.3168668938999986
 30
0.0
  0
SEQEND
  5
5B3
  8
1
  6
CONTINUOUS
  0
ARC
  5
91
  8
1
  6
CONTINUOUS
 10
-2332.8597734841001
 20
7087.8739965157001
 30
0.0
 40
7471.1688087999291
 50
288.2542023995
 51
288.36064971050001
  0
ARC
  5
92
  8
1
  6
CONTINUOUS
 10
20.323933227400001
 20
-2.245262988199999
 30
0.0
 40
0.7430989831867425
 50
286.75024382779998
 51
322.23472161500001
  0
ARC
  5
93
  8
1
  6
CONTINUOUS
 10
20.350230948499998
 20
-1.541168120699999
 30
0.0
 40
0.7205960725547024
 50
321.14340071100003
 51
334.38382493270001
  0
LINE
  5
94
  8
1
  6
CONTINUOUS
 10
21.0
 20
-1.852559744399999
 30
0.0
 11
21.0
 21
-2.3472576452
 31
0.0
  0
LINE
  5
95
  8
SK1
  6
CONTINUOUS
 10
-32.3733940694
 20
-6.7086700552999989
 30
0.0
 11
0.0
 21
-6.7086700552999989
 31
0.0
  0
POLYLINE
  5
96
  8
SK1
  6
CONTINUOUS
 66
     1
 10
0.0
 20
0.0
 30
0.0
  0
VERTEX
  5
5B4
  8
SK1
  6
CONTINUOUS
 10
-32.3733940694
 20
-7.4157768365000001
 30
0.0
  0
VERTEX
  5
5B5
  8
SK1
  6
CONTINUOUS
 10
-32.381786800199997
 20
-7.4157573139999986
 30
0.0
  0
VERTEX
  5
5B6
  8
SK1
  6
CONTINUOUS
 10
-32.390185312
 20
-7.4156986640999989
 30
0.0
  0
VERTEX
  5
5B7
  8
SK1
  6
CONTINUOUS
 10
-32.398588852400003
 20
-7.4156007629999987
 30
0.0
  0
VERTEX
  5
5B8
  8
SK1
  6
CONTINUOUS
 10
-32.406996669199998
 20
-7.4154634873000003
 30
0.0
  0
VERTEX
  5
5B9
  8
SK1
  6
CONTINUOUS
 10
-32.41540801
 20
-7.4152867133000004
 30
0.0
  0
VERTEX
  5
5BA
  8
SK1
  6
CONTINUOUS
 10
-32.423822122700003
 20
-7.4150703172999997
 30
0.0
  0
VERTEX
  5
5BB
  8
SK1
  6
CONTINUOUS
 10
-32.4322382549
 20
-7.4148141757000001
 30
0.0
  0
VERTEX
  5
5BC
  8
SK1
  6
CONTINUOUS
 10
-32.440655654300002
 20
-7.4145181648999996
 30
0.0
  0
VERTEX
  5
5BD
  8
SK1
  6
CONTINUOUS
 10
-32.449073568700001
 20
-7.4141821612000003
 30
0.0
  0
VERTEX
  5
5BE
  8
SK1
  6
CONTINUOUS
 10
-32.4574912458
 20
-7.4138060409999991
 30
0.0
  0
VERTEX
  5
5BF
  8
SK1
  6
CONTINUOUS
 10
-32.465907933300002
 20
-7.4133896806999999
 30
0.0
  0
VERTEX
  5
5C0
  8
SK1
  6
CONTINUOUS
 10
-32.474322878999999
 20
-7.4129329566999989
 30
0.0
  0
VERTEX
  5
5C1
  8
SK1
  6
CONTINUOUS
 10
-32.482735330499999
 20
-7.4124357451999989
 30
0.0
  0
VERTEX
  5
5C2
  8
SK1
  6
CONTINUOUS
 10
-32.4911445356
 20
-7.4118979226999988
 30
0.0
  0
VERTEX
  5
5C3
  8
SK1
  6
CONTINUOUS
 10
-32.499549741999999
 20
-7.4113193655999989
 30
0.0
  0
VERTEX
  5
5C4
  8
SK1
  6
CONTINUOUS
 10
-32.5079501974
 20
-7.4106999501999988
 30
0.0
  0
VERTEX
  5
5C5
  8
SK1
  6
CONTINUOUS
 10
-32.516345149599999
 20
-7.4100395528999989
 30
0.0
  0
VERTEX
  5
5C6
  8
SK1
  6
CONTINUOUS
 10
-32.524733846300002
 20
-7.4093380500999988
 30
0.0
  0
VERTEX
  5
5C7
  8
SK1
  6
CONTINUOUS
 10
-32.533115535100009
 20
-7.4085953179999988
 30
0.0
  0
VERTEX
  5
5C8
  8
SK1
  6
CONTINUOUS
 10
-32.5414894639
 20
-7.4078112332000003
 30
0.0
  0
VERTEX
  5
5C9
  8
SK1
  6
CONTINUOUS
 10
-32.549854880300003
 20
-7.4069856719000002
 30
0.0
  0
VERTEX
  5
5CA
  8
SK1
  6
CONTINUOUS
 10
-32.558211032099997
 20
-7.4061185104999989
 30
0.0
  0
VERTEX
  5
5CB
  8
SK1
  6
CONTINUOUS
 10
-32.566557166899997
 20
-7.4052096253999986
 30
0.0
  0
VERTEX
  5
5CC
  8
SK1
  6
CONTINUOUS
 10
-32.57489253260001
 20
-7.4042588929999988
 30
0.0
  0
VERTEX
  5
5CD
  8
SK1
  6
CONTINUOUS
 10
-32.583216376800003
 20
-7.4032661896
 30
0.0
  0
VERTEX
  5
5CE
  8
SK1
  6
CONTINUOUS
 10
-32.591527947199999
 20
-7.4022313915999991
 30
0.0
  0
VERTEX
  5
5CF
  8
SK1
  6
CONTINUOUS
 10
-32.5998264917
 20
-7.4011543753999991
 30
0.0
  0
VERTEX
  5
5D0
  8
SK1
  6
CONTINUOUS
 10
-32.608111257799997
 20
-7.4000350172999996
 30
0.0
  0
VERTEX
  5
5D1
  8
SK1
  6
CONTINUOUS
 10
-32.616381493299997
 20
-7.3988731937000001
 30
0.0
  0
VERTEX
  5
5D2
  8
SK1
  6
CONTINUOUS
 10
-32.624636445999997
 20
-7.3976687810000001
 30
0.0
  0
VERTEX
  5
5D3
  8
SK1
  6
CONTINUOUS
 10
-32.632875363499998
 20
-7.3964216554999993
 30
0.0
  0
VERTEX
  5
5D4
  8
SK1
  6
CONTINUOUS
 10
-32.6410974936
 20
-7.3951316935999989
 30
0.0
  0
VERTEX
  5
5D5
  8
SK1
  6
CONTINUOUS
 10
-32.6493020841
 20
-7.3937987715999993
 30
0.0
  0
VERTEX
  5
5D6
  8
SK1
  6
CONTINUOUS
 10
-32.657488382499999
 20
-7.3924227661000002
 30
0.0
  0
VERTEX
  5
5D7
  8
SK1
  6
CONTINUOUS
 10
-32.665655636700002
 20
-7.3910035532
 30
0.0
  0
VERTEX
  5
5D8
  8
SK1
  6
CONTINUOUS
 10
-32.6738030944
 20
-7.3895410094000002
 30
0.0
  0
VERTEX
  5
5D9
  8
SK1
  6
CONTINUOUS
 10
-32.681930003300003
 20
-7.3880350110000004
 30
0.0
  0
VERTEX
  5
5DA
  8
SK1
  6
CONTINUOUS
 10
-32.690035611100001
 20
-7.3864854344999999
 30
0.0
  0
VERTEX
  5
5DB
  8
SK1
  6
CONTINUOUS
 10
-32.698119165599998
 20
-7.3848921561000003
 30
0.0
  0
VERTEX
  5
5DC
  8
SK1
  6
CONTINUOUS
 10
-32.706179914400003
 20
-7.3832550523
 30
0.0
  0
VERTEX
  5
5DD
  8
SK1
  6
CONTINUOUS
 10
-32.714217105300001
 20
-7.3815739993999996
 30
0.0
  0
VERTEX
  5
5DE
  8
SK1
  6
CONTINUOUS
 10
-32.722229986000002
 20
-7.3798488738000003
 30
0.0
  0
VERTEX
  5
5DF
  8
SK1
  6
CONTINUOUS
 10
-32.730217804200009
 20
-7.3780795519
 30
0.0
  0
VERTEX
  5
5E0
  8
SK1
  6
CONTINUOUS
 10
-32.7381798077
 20
-7.376265909899999
 30
0.0
  0
VERTEX
  5
5E1
  8
SK1
  6
CONTINUOUS
 10
-32.746115244099997
 20
-7.3744078244000004
 30
0.0
  0
VERTEX
  5
5E2
  8
SK1
  6
CONTINUOUS
 10
-32.7540233613
 20
-7.3725051715999994
 30
0.0
  0
VERTEX
  5
5E3
  8
SK1
  6
CONTINUOUS
 10
-32.761921431200001
 20
-7.3705532890000001
 30
0.0
  0
VERTEX
  5
5E4
  8
SK1
  6
CONTINUOUS
 10
-32.769842756899997
 20
-7.3685424260000003
 30
0.0
  0
VERTEX
  5
5E5
  8
SK1
  6
CONTINUOUS
 10
-32.777744425999998
 20
-7.3664821078999987
 30
0.0
  0
VERTEX
  5
5E6
  8
SK1
  6
CONTINUOUS
 10
-32.785624634400001
 20
-7.364371972999999
 30
0.0
  0
VERTEX
  5
5E7
  8
SK1
  6
CONTINUOUS
 10
-32.793481577800002
 20
-7.3622116596999998
 30
0.0
  0
VERTEX
  5
5E8
  8
SK1
  6
CONTINUOUS
 10
-32.801313452000002
 20
-7.3600008061000004
 30
0.0
  0
VERTEX
  5
5E9
  8
SK1
  6
CONTINUOUS
 10
-32.809118452900002
 20
-7.3577390505999993
 30
0.0
  0
VERTEX
  5
5EA
  8
SK1
  6
CONTINUOUS
 10
-32.8168947761
 20
-7.3554260313999986
 30
0.0
  0
VERTEX
  5
5EB
  8
SK1
  6
CONTINUOUS
 10
-32.824640617600011
 20
-7.3530613866999994
 30
0.0
  0
VERTEX
  5
5EC
  8
SK1
  6
CONTINUOUS
 10
-32.832354172999999
 20
-7.3506447550000003
 30
0.0
  0
VERTEX
  5
5ED
  8
SK1
  6
CONTINUOUS
 10
-32.840033638200012
 20
-7.3481757743999996
 30
0.0
  0
VERTEX
  5
5EE
  8
SK1
  6
CONTINUOUS
 10
-32.847677208900009
 20
-7.3456540832000004
 30
0.0
  0
VERTEX
  5
5EF
  8
SK1
  6
CONTINUOUS
 10
-32.855283081099998
 20
-7.3430793197000002
 30
0.0
  0
VERTEX
  5
5F0
  8
SK1
  6
CONTINUOUS
 10
-32.862849450300011
 20
-7.3404511222000002
 30
0.0
  0
VERTEX
  5
5F1
  8
SK1
  6
CONTINUOUS
 10
-32.8703745125
 20
-7.3377691288999989
 30
0.0
  0
VERTEX
  5
5F2
  8
SK1
  6
CONTINUOUS
 10
-32.877856463400001
 20
-7.3350329782000001
 30
0.0
  0
VERTEX
  5
5F3
  8
SK1
  6
CONTINUOUS
 10
-32.885293498899998
 20
-7.3322423081999997
 30
0.0
  0
VERTEX
  5
5F4
  8
SK1
  6
CONTINUOUS
 10
-32.892683814599998
 20
-7.3293967572999996
 30
0.0
  0
VERTEX
  5
5F5
  8
SK1
  6
CONTINUOUS
 10
-32.900025606500002
 20
-7.3264959638000002
 30
0.0
  0
VERTEX
  5
5F6
  8
SK1
  6
CONTINUOUS
 10
-32.907317070200001
 20
-7.3235395658999991
 30
0.0
  0
VERTEX
  5
5F7
  8
SK1
  6
CONTINUOUS
 10
-32.914556401700011
 20
-7.3205272020000001
 30
0.0
  0
VERTEX
  5
5F8
  8
SK1
  6
CONTINUOUS
 10
-32.921741796500001
 20
-7.3174585101999989
 30
0.0
  0
VERTEX
  5
5F9
  8
SK1
  6
CONTINUOUS
 10
-32.928871450700001
 20
-7.3143331287999986
 30
0.0
  0
VERTEX
  5
5FA
  8
SK1
  6
CONTINUOUS
 10
-32.935943559899997
 20
-7.3111506962000004
 30
0.0
  0
VERTEX
  5
5FB
  8
SK1
  6
CONTINUOUS
 10
-32.942956319899999
 20
-7.307910850599999
 30
0.0
  0
VERTEX
  5
5FC
  8
SK1
  6
CONTINUOUS
 10
-32.949907926599998
 20
-7.3046132302000002
 30
0.0
  0
VERTEX
  5
5FD
  8
SK1
  6
CONTINUOUS
 10
-32.956796575699997
 20
-7.3012574734999998
 30
0.0
  0
VERTEX
  5
5FE
  8
SK1
  6
CONTINUOUS
 10
-32.963620951899998
 20
-7.2978429663000002
 30
0.0
  0
VERTEX
  5
5FF
  8
SK1
  6
CONTINUOUS
 10
-32.970391868
 20
-7.2943616527000001
 30
0.0
  0
VERTEX
  5
600
  8
SK1
  6
CONTINUOUS
 10
-32.9771047419
 20
-7.2908131131999996
 30
0.0
  0
VERTEX
  5
601
  8
SK1
  6
CONTINUOUS
 10
-32.9837555501
 20
-7.2871974696999997
 30
0.0
  0
VERTEX
  5
602
  8
SK1
  6
CONTINUOUS
 10
-32.990340269100003
 20
-7.283514843899999
 30
0.0
  0
VERTEX
  5
603
  8
SK1
  6
CONTINUOUS
 10
-32.996854875499999
 20
-7.2797653577999988
 30
0.0
  0
VERTEX
  5
604
  8
SK1
  6
CONTINUOUS
 10
-33.003295345700003
 20
-7.2759491330999992
 30
0.0
  0
VERTEX
  5
605
  8
SK1
  6
CONTINUOUS
 10
-33.009657656400002
 20
-7.272066291699999
 30
0.0
  0
VERTEX
  5
606
  8
SK1
  6
CONTINUOUS
 10
-33.015937784099997
 20
-7.2681169554999991
 30
0.0
  0
VERTEX
  5
607
  8
SK1
  6
CONTINUOUS
 10
-33.022131705300012
 20
-7.2641012462000001
 30
0.0
  0
VERTEX
  5
608
  8
SK1
  6
CONTINUOUS
 10
-33.028235396600003
 20
-7.2600192858000003
 30
0.0
  0
VERTEX
  5
609
  8
SK1
  6
CONTINUOUS
 10
-33.034244834500001
 20
-7.2558711961000002
 30
0.0
  0
VERTEX
  5
60A
  8
SK1
  6
CONTINUOUS
 10
-33.040155995500001
 20
-7.2516570988999991
 30
0.0
  0
VERTEX
  5
60B
  8
SK1
  6
CONTINUOUS
 10
-33.045964856099999
 20
-7.2473771161
 30
0.0
  0
VERTEX
  5
60C
  8
SK1
  6
CONTINUOUS
 10
-33.05166739300001
 20
-7.2430313694999997
 30
0.0
  0
VERTEX
  5
60D
  8
SK1
  6
CONTINUOUS
 10
-33.057259582599997
 20
-7.2386199810000003
 30
0.0
  0
VERTEX
  5
60E
  8
SK1
  6
CONTINUOUS
 10
-33.062737401500002
 20
-7.2341430724000002
 30
0.0
  0
VERTEX
  5
60F
  8
SK1
  6
CONTINUOUS
 10
-33.0680968263
 20
-7.229600765499999
 30
0.0
  0
VERTEX
  5
610
  8
SK1
  6
CONTINUOUS
 10
-33.0733338334
 20
-7.2249931822000004
 30
0.0
  0
VERTEX
  5
611
  8
SK1
  6
CONTINUOUS
 10
-33.078444399399999
 20
-7.2203204444000004
 30
0.0
  0
VERTEX
  5
612
  8
SK1
  6
CONTINUOUS
 10
-33.083426637300001
 20
-7.2155804714
 30
0.0
  0
VERTEX
  5
613
  8
SK1
  6
CONTINUOUS
 10
-33.088287623299998
 20
-7.2107588743999997
 30
0.0
  0
VERTEX
  5
614
  8
SK1
  6
CONTINUOUS
 10
-33.09301818050001
 20
-7.2058596832999999
 30
0.0
  0
VERTEX
  5
615
  8
SK1
  6
CONTINUOUS
 10
-33.097612589599997
 20
-7.2008855157999996
 30
0.0
  0
VERTEX
  5
616
  8
SK1
  6
CONTINUOUS
 10
-33.102065131700002
 20
-7.1958389895000003
 30
0.0
  0
VERTEX
  5
617
  8
SK1
  6
CONTINUOUS
 10
-33.1063700877
 20
-7.1907227220000003
 30
0.0
  0
VERTEX
  5
618
  8
SK1
  6
CONTINUOUS
 10
-33.110521738400003
 20
-7.1855393310000002
 30
0.0
  0
VERTEX
  5
619
  8
SK1
  6
CONTINUOUS
 10
-33.114514364999998
 20
-7.180291434099999
 30
0.0
  0
VERTEX
  5
61A
  8
SK1
  6
CONTINUOUS
 10
-33.118342248200001
 20
-7.1749816489999994
 30
0.0
  0
VERTEX
  5
61B
  8
SK1
  6
CONTINUOUS
 10
-33.121999669000012
 20
-7.1696125932000001
 30
0.0
  0
VERTEX
  5
61C
  8
SK1
  6
CONTINUOUS
 10
-33.125480908299998
 20
-7.1641868845000003
 30
0.0
  0
VERTEX
  5
61D
  8
SK1
  6
CONTINUOUS
 10
-33.128780247100011
 20
-7.1587071403999989
 30
0.0
  0
VERTEX
  5
61E
  8
SK1
  6
CONTINUOUS
 10
-33.131891966200001
 20
-7.1531759786000002
 30
0.0
  0
VERTEX
  5
61F
  8
SK1
  6
CONTINUOUS
 10
-33.1348103467
 20
-7.1475960166999988
 30
0.0
  0
VERTEX
  5
620
  8
SK1
  6
CONTINUOUS
 10
-33.137529669400003
 20
-7.1419698723999989
 30
0.0
  0
VERTEX
  5
621
  8
SK1
  6
CONTINUOUS
 10
-33.140048833100003
 20
-7.1362889389999991
 30
0.0
  0
VERTEX
  5
622
  8
SK1
  6
CONTINUOUS
 10
-33.142367517899999
 20
-7.1305420998000004
 30
0.0
  0
VERTEX
  5
623
  8
SK1
  6
CONTINUOUS
 10
-33.144479235600002
 20
-7.1247420075000001
 30
0.0
  0
VERTEX
  5
624
  8
SK1
  6
CONTINUOUS
 10
-33.14638109860001
 20
-7.1188945077999994
 30
0.0
  0
VERTEX
  5
625
  8
SK1
  6
CONTINUOUS
 10
-33.148070219099999
 20
-7.113005446099999
 30
0.0
  0
VERTEX
  5
626
  8
SK1
  6
CONTINUOUS
 10
-33.149543709500001
 20
-7.1070806679999992
 30
0.0
  0
VERTEX
  5
627
  8
SK1
  6
CONTINUOUS
 10
-33.150798682000001
 20
-7.1011260189999987
 30
0.0
  0
VERTEX
  5
628
  8
SK1
  6
CONTINUOUS
 10
-33.151832249000002
 20
-7.0951473446999991
 30
0.0
  0
VERTEX
  5
629
  8
SK1
  6
CONTINUOUS
 10
-33.152641522700002
 20
-7.0891504904999989
 30
0.0
  0
VERTEX
  5
62A
  8
SK1
  6
CONTINUOUS
 10
-33.153223615500011
 20
-7.0831413020999996
 30
0.0
  0
VERTEX
  5
62B
  8
SK1
  6
CONTINUOUS
 10
-33.1535756396
 20
-7.077125624899999
 30
0.0
  0
VERTEX
  5
62C
  8
SK1
  6
CONTINUOUS
 10
-33.1536947074
 20
-7.0711093044000002
 30
0.0
  0
VERTEX
  5
62D
  8
SK1
  6
CONTINUOUS
 10
-33.153578557499998
 20
-7.0651308201999994
 30
0.0
  0
VERTEX
  5
62E
  8
SK1
  6
CONTINUOUS
 10
-33.153229146400001
 20
-7.0591407738000003
 30
0.0
  0
VERTEX
  5
62F
  8
SK1
  6
CONTINUOUS
 10
-33.152649930000003
 20
-7.0531444582000002
 30
0.0
  0
VERTEX
  5
630
  8
SK1
  6
CONTINUOUS
 10
-33.151844364600002
 20
-7.0471474713999989
 30
0.0
  0
VERTEX
  5
631
  8
SK1
  6
CONTINUOUS
 10
-33.150815906399998
 20
-7.0411554115000001
 30
0.0
  0
VERTEX
  5
632
  8
SK1
  6
CONTINUOUS
 10
-33.149568011500001
 20
-7.0351738766
 30
0.0
  0
VERTEX
  5
633
  8
SK1
  6
CONTINUOUS
 10
-33.148104136199997
 20
-7.0292084647999991
 30
0.0
  0
VERTEX
  5
634
  8
SK1
  6
CONTINUOUS
 10
-33.146427736500002
 20
-7.0232647740999994
 30
0.0
  0
VERTEX
  5
635
  8
SK1
  6
CONTINUOUS
 10
-33.144542268800009
 20
-7.0173484026999988
 30
0.0
  0
VERTEX
  5
636
  8
SK1
  6
CONTINUOUS
 10
-33.142451189100001
 20
-7.0114649486999996
 30
0.0
  0
VERTEX
  5
637
  8
SK1
  6
CONTINUOUS
 10
-33.140157953699998
 20
-7.0056200100000003
 30
0.0
  0
VERTEX
  5
638
  8
SK1
  6
CONTINUOUS
 10
-33.137666018700003
 20
-6.9998191848999989
 30
0.0
  0
VERTEX
  5
639
  8
SK1
  6
CONTINUOUS
 10
-33.134978840300001
 20
-6.9940680714000001
 30
0.0
  0
VERTEX
  5
63A
  8
SK1
  6
CONTINUOUS
 10
-33.132099874700003
 20
-6.9883722674999991
 30
0.0
  0
VERTEX
  5
63B
  8
SK1
  6
CONTINUOUS
 10
-33.1290305598
 20
-6.9827336648999996
 30
0.0
  0
VERTEX
  5
63C
  8
SK1
  6
CONTINUOUS
 10
-33.125759883400001
 20
-6.9771236194000004
 30
0.0
  0
VERTEX
  5
63D
  8
SK1
  6
CONTINUOUS
 10
-33.122303830500002
 20
-6.9715595961999988
 30
0.0
  0
VERTEX
  5
63E
  8
SK1
  6
CONTINUOUS
 10
-33.118668055900002
 20
-6.9660438395000002
 30
0.0
  0
VERTEX
  5
63F
  8
SK1
  6
CONTINUOUS
 10
-33.1148582147
 20
-6.9605785936000002
 30
0.0
  0
VERTEX
  5
640
  8
SK1
  6
CONTINUOUS
 10
-33.110879961499997
 20
-6.9551661026999989
 30
0.0
  0
VERTEX
  5
641
  8
SK1
  6
CONTINUOUS
 10
-33.106738951399997
 20
-6.9498086112999991
 30
0.0
  0
VERTEX
  5
642
  8
SK1
  6
CONTINUOUS
 10
-33.1024408392
 20
-6.9445083634999998
 30
0.0
  0
VERTEX
  5
643
  8
SK1
  6
CONTINUOUS
 10
-33.097991279799999
 20
-6.9392676036000003
 30
0.0
  0
VERTEX
  5
644
  8
SK1
  6
CONTINUOUS
 10
-33.093395928
 20
-6.9340885759999997
 30
0.0
  0
VERTEX
  5
645
  8
SK1
  6
CONTINUOUS
 10
-33.0886604389
 20
-6.9289735248999991
 30
0.0
  0
VERTEX
  5
646
  8
SK1
  6
CONTINUOUS
 10
-33.083790467100002
 20
-6.9239246946000002
 30
0.0
  0
VERTEX
  5
647
  8
SK1
  6
CONTINUOUS
 10
-33.078791667700003
 20
-6.9189443294000004
 30
0.0
  0
VERTEX
  5
648
  8
SK1
  6
CONTINUOUS
 10
-33.073669695600003
 20
-6.9140346735999989
 30
0.0
  0
VERTEX
  5
649
  8
SK1
  6
CONTINUOUS
 10
-33.0684302055
 20
-6.9091979714000002
 30
0.0
  0
VERTEX
  5
64A
  8
SK1
  6
CONTINUOUS
 10
-33.063087729099998
 20
-6.9044438258999996
 30
0.0
  0
VERTEX
  5
64B
  8
SK1
  6
CONTINUOUS
 10
-33.0576425211
 20
-6.8997655029999994
 30
0.0
  0
VERTEX
  5
64C
  8
SK1
  6
CONTINUOUS
 10
-33.052083672199998
 20
-6.8951494839
 30
0.0
  0
VERTEX
  5
64D
  8
SK1
  6
CONTINUOUS
 10
-33.046414634500003
 20
-6.8905958722999996
 30
0.0
  0
VERTEX
  5
64E
  8
SK1
  6
CONTINUOUS
 10
-33.04063886010001
 20
-6.8861047723000004
 30
0.0
  0
VERTEX
  5
64F
  8
SK1
  6
CONTINUOUS
 10
-33.034759801
 20
-6.8816762878999986
 30
0.0
  0
VERTEX
  5
650
  8
SK1
  6
CONTINUOUS
 10
-33.028780909399998
 20
-6.8773105228999993
 30
0.0
  0
VERTEX
  5
651
  8
SK1
  6
CONTINUOUS
 10
-33.022705637199998
 20
-6.8730075814999987
 30
0.0
  0
VERTEX
  5
652
  8
SK1
  6
CONTINUOUS
 10
-33.016537436500002
 20
-6.8687675675999991
 30
0.0
  0
VERTEX
  5
653
  8
SK1
  6
CONTINUOUS
 10
-33.010279759500001
 20
-6.8645905851000002
 30
0.0
  0
VERTEX
  5
654
  8
SK1
  6
CONTINUOUS
 10
-33.003936058199997
 20
-6.8604767379999991
 30
0.0
  0
VERTEX
  5
655
  8
SK1
  6
CONTINUOUS
 10
-32.997509784599998
 20
-6.8564261302
 30
0.0
  0
VERTEX
  5
656
  8
SK1
  6
CONTINUOUS
 10
-32.991004390900002
 20
-6.8524388658999991
 30
0.0
  0
VERTEX
  5
657
  8
SK1
  6
CONTINUOUS
 10
-32.984423329099997
 20
-6.8485150488000004
 30
0.0
  0
VERTEX
  5
658
  8
SK1
  6
CONTINUOUS
 10
-32.977770051299998
 20
-6.8446547829999993
 30
0.0
  0
VERTEX
  5
659
  8
SK1
  6
CONTINUOUS
 10
-32.971048009599997
 20
-6.840858172399999
 30
0.0
  0
VERTEX
  5
65A
  8
SK1
  6
CONTINUOUS
 10
-32.964260655899999
 20
-6.8371253211000003
 30
0.0
  0
VERTEX
  5
65B
  8
SK1
  6
CONTINUOUS
 10
-32.957411442500003
 20
-6.8334563329999991
 30
0.0
  0
VERTEX
  5
65C
  8
SK1
  6
CONTINUOUS
 10
-32.950503821399998
 20
-6.8298513119999997
 30
0.0
  0
VERTEX
  5
65D
  8
SK1
  6
CONTINUOUS
 10
-32.943541244599999
 20
-6.8263103621000001
 30
0.0
  0
VERTEX
  5
65E
  8
SK1
  6
CONTINUOUS
 10
-32.936527164200001
 20
-6.822833587399999
 30
0.0
  0
VERTEX
  5
65F
  8
SK1
  6
CONTINUOUS
 10
-32.929465032300001
 20
-6.8194210916999989
 30
0.0
  0
VERTEX
  5
660
  8
SK1
  6
CONTINUOUS
 10
-32.922360937000001
 20
-6.8160741947999997
 30
0.0
  0
VERTEX
  5
661
  8
SK1
  6
CONTINUOUS
 10
-32.915229073900001
 20
-6.8127968023000003
 30
0.0
  0
VERTEX
  5
662
  8
SK1
  6
CONTINUOUS
 10
-32.9080443812
 20
-6.8095753812000002
 30
0.0
  0
VERTEX
  5
663
  8
SK1
  6
CONTINUOUS
 10
-32.9008082215
 20
-6.806409691799999
 30
0.0
  0
VERTEX
  5
664
  8
SK1
  6
CONTINUOUS
 10
-32.893521957600001
 20
-6.8032994941
 30
0.0
  0
VERTEX
  5
665
  8
SK1
  6
CONTINUOUS
 10
-32.886186952199999
 20
-6.8002445484000003
 30
0.0
  0
VERTEX
  5
666
  8
SK1
  6
CONTINUOUS
 10
-32.878804568
 20
-6.7972446149000003
 30
0.0
  0
VERTEX
  5
667
  8
SK1
  6
CONTINUOUS
 10
-32.871376167699999
 20
-6.794299453699999
 30
0.0
  0
VERTEX
  5
668
  8
SK1
  6
CONTINUOUS
 10
-32.863903114099998
 20
-6.7914088250000004
 30
0.0
  0
VERTEX
  5
669
  8
SK1
  6
CONTINUOUS
 10
-32.856386769799997
 20
-6.788572488999999
 30
0.0
  0
VERTEX
  5
66A
  8
SK1
  6
CONTINUOUS
 10
-32.848828497699998
 20
-6.7857902058999997
 30
0.0
  0
VERTEX
  5
66B
  8
SK1
  6
CONTINUOUS
 10
-32.841229660300002
 20
-6.7830617357999996
 30
0.0
  0
VERTEX
  5
66C
  8
SK1
  6
CONTINUOUS
 10
-32.833591620500002
 20
-6.7803868390000002
 30
0.0
  0
VERTEX
  5
66D
  8
SK1
  6
CONTINUOUS
 10
-32.825915741000003
 20
-6.7777652755999993
 30
0.0
  0
VERTEX
  5
66E
  8
SK1
  6
CONTINUOUS
 10
-32.8182033844
 20
-6.7751968057000003
 30
0.0
  0
VERTEX
  5
66F
  8
SK1
  6
CONTINUOUS
 10
-32.8104559135
 20
-6.7726811897000001
 30
0.0
  0
VERTEX
  5
670
  8
SK1
  6
CONTINUOUS
 10
-32.802674691100002
 20
-6.7702181875000003
 30
0.0
  0
VERTEX
  5
671
  8
SK1
  6
CONTINUOUS
 10
-32.794861079699999
 20
-6.7678075594999996
 30
0.0
  0
VERTEX
  5
672
  8
SK1
  6
CONTINUOUS
 10
-32.787016442300001
 20
-6.7654490659000004
 30
0.0
  0
VERTEX
  5
673
  8
SK1
  6
CONTINUOUS
 10
-32.779142141400001
 20
-6.7631424666999989
 30
0.0
  0
VERTEX
  5
674
  8
SK1
  6
CONTINUOUS
 10
-32.7712395398
 20
-6.7608875220999991
 30
0.0
  0
VERTEX
  5
675
  8
SK1
  6
CONTINUOUS
 10
-32.763310000200001
 20
-6.7586839923999991
 30
0.0
  0
VERTEX
  5
676
  8
SK1
  6
CONTINUOUS
 10
-32.755354885400003
 20
-6.7565316377999993
 30
0.0
  0
VERTEX
  5
677
  8
SK1
  6
CONTINUOUS
 10
-32.747375558000002
 20
-6.7544302182999996
 30
0.0
  0
VERTEX
  5
678
  8
SK1
  6
CONTINUOUS
 10
-32.739373380799996
 20
-6.7523794941999986
 30
0.0
  0
VERTEX
  5
679
  8
SK1
  6
CONTINUOUS
 10
-32.731349716499999
 20
-6.7503792256999997
 30
0.0
  0
VERTEX
  5
67A
  8
SK1
  6
CONTINUOUS
 10
-32.723305927800013
 20
-6.748429172999999
 30
0.0
  0
VERTEX
  5
67B
  8
SK1
  6
CONTINUOUS
 10
-32.715243377500002
 20
-6.7465290960999988
 30
0.0
  0
VERTEX
  5
67C
  8
SK1
  6
CONTINUOUS
 10
-32.707163428200012
 20
-6.7446787553999989
 30
0.0
  0
VERTEX
  5
67D
  8
SK1
  6
CONTINUOUS
 10
-32.699067442699999
 20
-6.7428779108999999
 30
0.0
  0
VERTEX
  5
67E
  8
SK1
  6
CONTINUOUS
 10
-32.690956783700003
 20
-6.7411263228999987
 30
0.0
  0
VERTEX
  5
67F
  8
SK1
  6
CONTINUOUS
 10
-32.682832813899999
 20
-6.7394237514999986
 30
0.0
  0
VERTEX
  5
680
  8
SK1
  6
CONTINUOUS
 10
-32.674696896100002
 20
-6.7377699570000003
 30
0.0
  0
VERTEX
  5
681
  8
SK1
  6
CONTINUOUS
 10
-32.6665503929
 20
-6.7361646993999997
 30
0.0
  0
VERTEX
  5
682
  8
SK1
  6
CONTINUOUS
 10
-32.658394667099998
 20
-6.7346077390999994
 30
0.0
  0
VERTEX
  5
683
  8
SK1
  6
CONTINUOUS
 10
-32.6502002151
 20
-6.7330932846999998
 30
0.0
  0
VERTEX
  5
684
  8
SK1
  6
CONTINUOUS
 10
-32.641986537800001
 20
-6.7316249616999988
 30
0.0
  0
VERTEX
  5
685
  8
SK1
  6
CONTINUOUS
 10
-32.633754775
 20
-6.7302027917999991
 30
0.0
  0
VERTEX
  5
686
  8
SK1
  6
CONTINUOUS
 10
-32.625505622299997
 20
-6.7288267132000001
 30
0.0
  0
VERTEX
  5
687
  8
SK1
  6
CONTINUOUS
 10
-32.617239775000002
 20
-6.7274966639999993
 30
0.0
  0
VERTEX
  5
688
  8
SK1
  6
CONTINUOUS
 10
-32.608957928700001
 20
-6.7262125823999996
 30
0.0
  0
VERTEX
  5
689
  8
SK1
  6
CONTINUOUS
 10
-32.600660778799998
 20
-6.7249744064999986
 30
0.0
  0
VERTEX
  5
68A
  8
SK1
  6
CONTINUOUS
 10
-32.592349020599997
 20
-6.7237820745999999
 30
0.0
  0
VERTEX
  5
68B
  8
SK1
  6
CONTINUOUS
 10
-32.584023349699997
 20
-6.7226355247000003
 30
0.0
  0
VERTEX
  5
68C
  8
SK1
  6
CONTINUOUS
 10
-32.575684461400002
 20
-6.721534694999999
 30
0.0
  0
VERTEX
  5
68D
  8
SK1
  6
CONTINUOUS
 10
-32.567333051200002
 20
-6.720479523699999
 30
0.0
  0
VERTEX
  5
68E
  8
SK1
  6
CONTINUOUS
 10
-32.558969814500003
 20
-6.7194699488999987
 30
0.0
  0
VERTEX
  5
68F
  8
SK1
  6
CONTINUOUS
 10
-32.550595446800003
 20
-6.7185059087000001
 30
0.0
  0
VERTEX
  5
690
  8
SK1
  6
CONTINUOUS
 10
-32.542210643499999
 20
-6.7175873414999989
 30
0.0
  0
VERTEX
  5
691
  8
SK1
  6
CONTINUOUS
 10
-32.533816100100012
 20
-6.716714185199999
 30
0.0
  0
VERTEX
  5
692
  8
SK1
  6
CONTINUOUS
 10
-32.525412511900001
 20
-6.7158863780999987
 30
0.0
  0
VERTEX
  5
693
  8
SK1
  6
CONTINUOUS
 10
-32.517000574400001
 20
-6.7151038583
 30
0.0
  0
VERTEX
  5
694
  8
SK1
  6
CONTINUOUS
 10
-32.508580983000002
 20
-6.7143665639999988
 30
0.0
  0
VERTEX
  5
695
  8
SK1
  6
CONTINUOUS
 10
-32.500154433200009
 20
-6.7136744332999996
 30
0.0
  0
VERTEX
  5
696
  8
SK1
  6
CONTINUOUS
 10
-32.4917216204
 20
-6.7130274044
 30
0.0
  0
VERTEX
  5
697
  8
SK1
  6
CONTINUOUS
 10
-32.483283239999999
 20
-6.7124254153999994
 30
0.0
  0
VERTEX
  5
698
  8
SK1
  6
CONTINUOUS
 10
-32.474839987499998
 20
-6.7118684044999997
 30
0.0
  0
VERTEX
  5
699
  8
SK1
  6
CONTINUOUS
 10
-32.466392558300001
 20
-6.7113563099000002
 30
0.0
  0
VERTEX
  5
69A
  8
SK1
  6
CONTINUOUS
 10
-32.4579416479
 20
-6.7108890697000003
 30
0.0
  0
VERTEX
  5
69B
  8
SK1
  6
CONTINUOUS
 10
-32.449487951599998
 20
-6.7104666221000002
 30
0.0
  0
VERTEX
  5
69C
  8
SK1
  6
CONTINUOUS
 10
-32.441032164900001
 20
-6.7100889052000001
 30
0.0
  0
VERTEX
  5
69D
  8
SK1
  6
CONTINUOUS
 10
-32.432574983199999
 20
-6.7097558572000002
 30
0.0
  0
VERTEX
  5
69E
  8
SK1
  6
CONTINUOUS
 10
-32.424117102099999
 20
-6.709467416299999
 30
0.0
  0
VERTEX
  5
69F
  8
SK1
  6
CONTINUOUS
 10
-32.415659216800002
 20
-6.7092235204999993
 30
0.0
  0
VERTEX
  5
6A0
  8
SK1
  6
CONTINUOUS
 10
-32.407202022900002
 20
-6.7090241080999986
 30
0.0
  0
VERTEX
  5
6A1
  8
SK1
  6
CONTINUOUS
 10
-32.398746215800003
 20
-6.708869117299999
 30
0.0
  0
VERTEX
  5
6A2
  8
SK1
  6
CONTINUOUS
 10
-32.390292490900009
 20
-6.7087584860999989
 30
0.0
  0
VERTEX
  5
6A3
  8
SK1
  6
CONTINUOUS
 10
-32.381841543600011
 20
-6.7086921526999994
 30
0.0
  0
VERTEX
  5
6A4
  8
SK1
  6
CONTINUOUS
 10
-32.3733940694
 20
-6.7086700552999989
 30
0.0
  0
SEQEND
  5
6A5
  8
SK1
  6
CONTINUOUS
  0
LINE
  5
97
  8
SK1
  6
CONTINUOUS
 10
-32.3733940694
 20
-7.4157768365000001
 30
0.0
 11
0.0
 21
-7.4157768365000001
 31
0.0
  0
POLYLINE
  5
98
  8
SK1
  6
CONTINUOUS
 66
     1
 10
0.0
 20
0.0
 30
0.0
  0
VERTEX
  5
6A6
  8
SK1
  6
CONTINUOUS
 10
-31.146435421100001
 20
-6.7086700552999989
 30
0.0
  0
VERTEX
  5
6A7
  8
SK1
  6
CONTINUOUS
 10
-31.764924280399999
 20
-7.0578772193999999
 30
0.0
  0
VERTEX
  5
6A8
  8
SK1
  6
CONTINUOUS
 10
-32.3733940694
 20
-7.4157768365000001
 30
0.0
  0
SEQEND
  5
6A9
  8
SK1
  6
CONTINUOUS
  0
POLYLINE
  5
99
  8
1
  6
CONTINUOUS
 66
     1
 10
0.0
 20
0.0
 30
0.0
  0
VERTEX
  5
6AA
  8
1
  6
CONTINUOUS
 10
20.911372511900002
 20
-2.7003576881999991
 30
0.0
  0
VERTEX
  5
6AB
  8
1
  6
CONTINUOUS
 10
20.428833766899999
 20
-2.5693291379000001
 30
0.0
  0
VERTEX
  5
6AC
  8
1
  6
CONTINUOUS
 10
19.943911531400001
 20
-2.4427767222000001
 30
0.0
  0
SEQEND
  5
6AD
  8
1
  6
CONTINUOUS
  0
ARC
  5
9A
  8
1
  6
CONTINUOUS
 10
20.3961127655
 20
-2.3833557072999989
 30
0.0
 40
0.604965174294835
 50
328.39902636940002
 51
3.4208513133999991
  0
LINE
  5
9B
  8
1
  6
CONTINUOUS
 10
21.0
 20
2.9903437913999991
 30
0.0
 11
21.0
 21
2.3472576452
 31
0.0
  0
LINE
  5
9C
  8
1
  6
CONTINUOUS
 10
3.5
 20
7.4157768365000001
 30
0.0
 11
3.5
 21
10.0
 31
0.0
  0
LINE
  5
9D
  8
1
  6
CONTINUOUS
 10
20.538094609400002
 20
3.7153900210000002
 30
0.0
 11
20.538094609400002
 21
2.956832381399999
 31
0.0
  0
LINE
  5
9E
  8
1
  6
CONTINUOUS
 10
7.3602976573000003
 20
7.3168668938999986
 30
0.0
 11
7.3602976573000003
 21
9.8602976573000003
 31
0.0
  0
LINE
  5
9F
  8
1
  6
CONTINUOUS
 10
6.5
 20
6.707685904199999
 30
0.0
 11
6.5
 21
9.0
 31
0.0
  0
LINE
  5
A0
  8
1
  6
CONTINUOUS
 10
4.4000000000000004
 20
6.707685904199999
 30
0.0
 11
4.4000000000000004
 21
9.0
 31
0.0
  0
LINE
  5
A1
  8
1
  6
CONTINUOUS
 10
4.0
 20
9.5
 30
0.0
 11
4.0
 21
7.0617573230999993
 31
0.0
  0
LINE
  5
A2
  8
1
  6
CONTINUOUS
 10
21.0
 20
1.8527108618000001
 30
0.0
 11
21.0
 21
-1.8527108618000001
 31
0.0
  0
LINE
  5
A3
  8
1
  6
CONTINUOUS
 10
3.5
 20
6.7086700552999989
 30
0.0
 11
3.5
 21
-6.7086700552999989
 31
0.0
  0
LINE
  5
A4
  8
1
  6
CONTINUOUS
 10
20.538094609400002
 20
2.2497256002000001
 30
0.0
 11
20.538094609400002
 21
-2.2497256002000001
 31
0.0
  0
LINE
  5
A5
  8
1
  6
CONTINUOUS
 10
7.3602976573000003
 20
6.6097601127000001
 30
0.0
 11
7.3602976573000003
 21
-6.6097601127000001
 31
0.0
  0
LINE
  5
A6
  8
1
  6
CONTINUOUS
 10
6.5
 20
6.0005791229999987
 30
0.0
 11
6.5
 21
-6.0005791229999987
 31
0.0
  0
LINE
  5
A7
  8
1
  6
CONTINUOUS
 10
4.4000000000000004
 20
6.0005791229999987
 30
0.0
 11
4.4000000000000004
 21
-6.0005791229999987
 31
0.0
  0
LINE
  5
A8
  8
1
  6
CONTINUOUS
 10
4.0
 20
6.3546505418999999
 30
0.0
 11
4.0
 21
-6.3546505418999999
 31
0.0
  0
LINE
  5
A9
  8
1
  6
CONTINUOUS
 10
3.5
 20
7.4157768365000001
 30
0.0
 11
4.0
 21
7.0617573230999993
 31
0.0
  0
LINE
  5
AA
  8
1
  6
CONTINUOUS
 10
4.0
 20
7.0617573230999993
 30
0.0
 11
4.0
 21
6.990947457499999
 31
0.0
  0
POLYLINE
  5
AB
  8
1
  6
CONTINUOUS
 66
     1
 10
0.0
 20
0.0
 30
0.0
  0
VERTEX
  5
6AE
  8
1
  6
CONTINUOUS
 10
4.0
 20
6.990947457499999
 30
0.0
  0
VERTEX
  5
6AF
  8
1
  6
CONTINUOUS
 10
4.0003239918000002
 20
6.9797659798999989
 30
0.0
  0
VERTEX
  5
6B0
  8
1
  6
CONTINUOUS
 10
4.001289429799999
 20
6.9686169200999988
 30
0.0
  0
VERTEX
  5
6B1
  8
1
  6
CONTINUOUS
 10
4.0028865079999996
 20
6.9575153348000001
 30
0.0
  0
VERTEX
  5
6B2
  8
1
  6
CONTINUOUS
 10
4.0051054201999987
 20
6.9464762808999998
 30
0.0
  0
VERTEX
  5
6B3
  8
1
  6
CONTINUOUS
 10
4.0079363603999996
 20
6.9355148152999986
 30
0.0
  0
VERTEX
  5
6B4
  8
1
  6
CONTINUOUS
 10
4.011369522599999
 20
6.9246459947999996
 30
0.0
  0
VERTEX
  5
6B5
  8
1
  6
CONTINUOUS
 10
4.0153951006000002
 20
6.9138848763
 30
0.0
  0
VERTEX
  5
6B6
  8
1
  6
CONTINUOUS
 10
4.020003288299999
 20
6.9032465164999994
 30
0.0
  0
VERTEX
  5
6B7
  8
1
  6
CONTINUOUS
 10
4.0251842798000004
 20
6.8927459723000002
 30
0.0
  0
VERTEX
  5
6B8
  8
1
  6
CONTINUOUS
 10
4.0309282689999986
 20
6.8823983005999994
 30
0.0
  0
VERTEX
  5
6B9
  8
1
  6
CONTINUOUS
 10
4.0372254496000002
 20
6.8722185582000002
 30
0.0
  0
VERTEX
  5
6BA
  8
1
  6
CONTINUOUS
 10
4.0440660157999986
 20
6.8622218018999996
 30
0.0
  0
VERTEX
  5
6BB
  8
1
  6
CONTINUOUS
 10
4.0514401613999986
 20
6.8524230885000001
 30
0.0
  0
VERTEX
  5
6BC
  8
1
  6
CONTINUOUS
 10
4.059338080299999
 20
6.8428374749999987
 30
0.0
  0
VERTEX
  5
6BD
  8
1
  6
CONTINUOUS
 10
4.0677499666000001
 20
6.8334800180999986
 30
0.0
  0
VERTEX
  5
6BE
  8
1
  6
CONTINUOUS
 10
4.0766660139999988
 20
6.8243657747000004
 30
0.0
  0
VERTEX
  5
6BF
  8
1
  6
CONTINUOUS
 10
4.0860764165000001
 20
6.8155098015000002
 30
0.0
  0
VERTEX
  5
6C0
  8
1
  6
CONTINUOUS
 10
4.095971368099999
 20
6.8069271555999986
 30
0.0
  0
VERTEX
  5
6C1
  8
1
  6
CONTINUOUS
 10
4.1063410626999994
 20
6.7986328935999989
 30
0.0
  0
VERTEX
  5
6C2
  8
1
  6
CONTINUOUS
 10
4.1171756941000002
 20
6.790642072399999
 30
0.0
  0
VERTEX
  5
6C3
  8
1
  6
CONTINUOUS
 10
4.128458221499999
 20
6.7829703814000002
 30
0.0
  0
VERTEX
  5
6C4
  8
1
  6
CONTINUOUS
 10
4.1401644935000004
 20
6.7756280872000003
 30
0.0
  0
VERTEX
  5
6C5
  8
1
  6
CONTINUOUS
 10
4.152274038299999
 20
6.7686221128999993
 30
0.0
  0
VERTEX
  5
6C6
  8
1
  6
CONTINUOUS
 10
4.1647663843
 20
6.7619593814999988
 30
0.0
  0
VERTEX
  5
6C7
  8
1
  6
CONTINUOUS
 10
4.177621059799999
 20
6.7556468160999996
 30
0.0
  0
VERTEX
  5
6C8
  8
1
  6
CONTINUOUS
 10
4.1908175932000002
 20
6.7496913396
 30
0.0
  0
VERTEX
  5
6C9
  8
1
  6
CONTINUOUS
 10
4.2043355127999993
 20
6.744099875099999
 30
0.0
  0
VERTEX
  5
6CA
  8
1
  6
CONTINUOUS
 10
4.2181543468999987
 20
6.7388793455999991
 30
0.0
  0
VERTEX
  5
6CB
  8
1
  6
CONTINUOUS
 10
4.2322536238000001
 20
6.7340366741999986
 30
0.0
  0
VERTEX
  5
6CC
  8
1
  6
CONTINUOUS
 10
4.2466128719
 20
6.7295787838000001
 30
0.0
  0
VERTEX
  5
6CD
  8
1
  6
CONTINUOUS
 10
4.2612116195
 20
6.725512597499999
 30
0.0
  0
VERTEX
  5
6CE
  8
1
  6
CONTINUOUS
 10
4.2760293949000001
 20
6.7218450382999997
 30
0.0
  0
VERTEX
  5
6CF
  8
1
  6
CONTINUOUS
 10
4.2910457265000002
 20
6.7185830292999986
 30
0.0
  0
VERTEX
  5
6D0
  8
1
  6
CONTINUOUS
 10
4.3062401426000001
 20
6.7157334934000001
 30
0.0
  0
VERTEX
  5
6D1
  8
1
  6
CONTINUOUS
 10
4.321592171499999
 20
6.7133033537999989
 30
0.0
  0
VERTEX
  5
6D2
  8
1
  6
CONTINUOUS
 10
4.3370813416000003
 20
6.7112995333000001
 30
0.0
  0
VERTEX
  5
6D3
  8
1
  6
CONTINUOUS
 10
4.3526871812000003
 20
6.7097289551000001
 30
0.0
  0
VERTEX
  5
6D4
  8
1
  6
CONTINUOUS
 10
4.3683892184999991
 20
6.708598542199999
 30
0.0
  0
VERTEX
  5
6D5
  8
1
  6
CONTINUOUS
 10
4.3841669819999991
 20
6.7079152175000001
 30
0.0
  0
VERTEX
  5
6D6
  8
1
  6
CONTINUOUS
 10
4.4000000000000004
 20
6.707685904199999
 30
0.0
  0
SEQEND
  5
6D7
  8
1
  6
CONTINUOUS
  0
LINE
  5
AC
  8
1
  6
CONTINUOUS
 10
4.4000000000000004
 20
6.707685904199999
 30
0.0
 11
6.5
 21
6.707685904199999
 31
0.0
  0
POLYLINE
  5
AD
  8
1
  6
CONTINUOUS
 66
     1
 10
0.0
 20
0.0
 30
0.0
  0
VERTEX
  5
6D8
  8
1
  6
CONTINUOUS
 10
6.5
 20
6.707685904199999
 30
0.0
  0
VERTEX
  5
6D9
  8
1
  6
CONTINUOUS
 10
6.5358434221000001
 20
6.7330700798000001
 30
0.0
  0
VERTEX
  5
6DA
  8
1
  6
CONTINUOUS
 10
6.5716870614999987
 20
6.7584541019
 30
0.0
  0
VERTEX
  5
6DB
  8
1
  6
CONTINUOUS
 10
6.6075309160999991
 20
6.7838379720999997
 30
0.0
  0
VERTEX
  5
6DC
  8
1
  6
CONTINUOUS
 10
6.6433749837000002
 20
6.8092216917999986
 30
0.0
  0
VERTEX
  5
6DD
  8
1
  6
CONTINUOUS
 10
6.6792192620000002
 20
6.8346052626000002
 30
0.0
  0
VERTEX
  5
6DE
  8
1
  6
CONTINUOUS
 10
6.7150637488999987
 20
6.8599886861000003
 30
0.0
  0
VERTEX
  5
6DF
  8
1
  6
CONTINUOUS
 10
6.7509084420000001
 20
6.8853719638999991
 30
0.0
  0
VERTEX
  5
6E0
  8
1
  6
CONTINUOUS
 10
6.7867533393999997
 20
6.9107550975000001
 30
0.0
  0
VERTEX
  5
6E1
  8
1
  6
CONTINUOUS
 10
6.8225984386
 20
6.936138088399999
 30
0.0
  0
VERTEX
  5
6E2
  8
1
  6
CONTINUOUS
 10
6.8584437376
 20
6.9615209382999996
 30
0.0
  0
VERTEX
  5
6E3
  8
1
  6
CONTINUOUS
 10
6.8942892339999986
 20
6.9869036486000002
 30
0.0
  0
VERTEX
  5
6E4
  8
1
  6
CONTINUOUS
 10
6.9301349258
 20
7.0122862209000001
 30
0.0
  0
VERTEX
  5
6E5
  8
1
  6
CONTINUOUS
 10
6.9659808106999996
 20
7.0376686569000002
 30
0.0
  0
VERTEX
  5
6E6
  8
1
  6
CONTINUOUS
 10
7.0018268863999991
 20
7.0630509578999989
 30
0.0
  0
VERTEX
  5
6E7
  8
1
  6
CONTINUOUS
 10
7.0376731507999999
 20
7.0884331256999999
 30
0.0
  0
VERTEX
  5
6E8
  8
1
  6
CONTINUOUS
 10
7.0735196017999993
 20
7.1138151616999989
 30
0.0
  0
VERTEX
  5
6E9
  8
1
  6
CONTINUOUS
 10
7.1093662368999997
 20
7.1391970675999987
 30
0.0
  0
VERTEX
  5
6EA
  8
1
  6
CONTINUOUS
 10
7.1452130541999992
 20
7.1645788448000003
 30
0.0
  0
VERTEX
  5
6EB
  8
1
  6
CONTINUOUS
 10
7.1810600513000002
 20
7.1899604949000002
 30
0.0
  0
VERTEX
  5
6EC
  8
1
  6
CONTINUOUS
 10
7.216907226
 20
7.2153420195000004
 30
0.0
  0
VERTEX
  5
6ED
  8
1
  6
CONTINUOUS
 10
7.2527545762000001
 20
7.2407234202000001
 30
0.0
  0
VERTEX
  5
6EE
  8
1
  6
CONTINUOUS
 10
7.2886020996000003
 20
7.2661046984000004
 30
0.0
  0
VERTEX
  5
6EF
  8
1
  6
CONTINUOUS
 10
7.3244497940999986
 20
7.2914858558000004
 30
0.0
  0
VERTEX
  5
6F0
  8
1
  6
CONTINUOUS
 10
7.3602976573000003
 20
7.3168668938999986
 30
0.0
  0
SEQEND
  5
6F1
  8
1
  6
CONTINUOUS
  0
ARC
  5
AE
  8
1
  6
CONTINUOUS
 10
-2332.8597746393998
 20
-7087.8740000075013
 30
0.0
 40
7471.1688124778757
 50
71.639350289500001
 51
71.745797600399996
  0
ARC
  5
AF
  8
1
  6
CONTINUOUS
 10
20.323989514000001
 20
2.245344908699999
 30
0.0
 40
0.7430043173798451
 50
37.762942702899998
 51
73.252091854200003
  0
LINE
  5
B0
  8
1
  6
CONTINUOUS
 10
3.5
 20
6.7086700552999989
 30
0.0
 11
4.0
 21
6.3546505418999999
 31
0.0
  0
POLYLINE
  5
B1
  8
1
  6
CONTINUOUS
 66
     1
 10
0.0
 20
0.0
 30
0.0
  0
VERTEX
  5
6F2
  8
1
  6
CONTINUOUS
 10
4.0
 20
6.2838406763999988
 30
0.0
  0
VERTEX
  5
6F3
  8
1
  6
CONTINUOUS
 10
4.0003239918000002
 20
6.2726591987000004
 30
0.0
  0
VERTEX
  5
6F4
  8
1
  6
CONTINUOUS
 10
4.001289429799999
 20
6.2615101389000003
 30
0.0
  0
VERTEX
  5
6F5
  8
1
  6
CONTINUOUS
 10
4.0028865079999996
 20
6.2504085535999989
 30
0.0
  0
VERTEX
  5
6F6
  8
1
  6
CONTINUOUS
 10
4.0051054201999987
 20
6.2393694997000004
 30
0.0
  0
VERTEX
  5
6F7
  8
1
  6
CONTINUOUS
 10
4.0079363603999996
 20
6.2284080341000001
 30
0.0
  0
VERTEX
  5
6F8
  8
1
  6
CONTINUOUS
 10
4.011369522599999
 20
6.2175392136000003
 30
0.0
  0
VERTEX
  5
6F9
  8
1
  6
CONTINUOUS
 10
4.0153951006000002
 20
6.2067780950999989
 30
0.0
  0
VERTEX
  5
6FA
  8
1
  6
CONTINUOUS
 10
4.020003288299999
 20
6.1961397353000001
 30
0.0
  0
VERTEX
  5
6FB
  8
1
  6
CONTINUOUS
 10
4.0251842798000004
 20
6.185639191099999
 30
0.0
  0
VERTEX
  5
6FC
  8
1
  6
CONTINUOUS
 10
4.0309282689999986
 20
6.1752915194
 30
0.0
  0
VERTEX
  5
6FD
  8
1
  6
CONTINUOUS
 10
4.0372254496000002
 20
6.1651117769999999
 30
0.0
  0
VERTEX
  5
6FE
  8
1
  6
CONTINUOUS
 10
4.0440660157999986
 20
6.1551150207000003
 30
0.0
  0
VERTEX
  5
6FF
  8
1
  6
CONTINUOUS
 10
4.0514401613999986
 20
6.145316307399999
 30
0.0
  0
VERTEX
  5
700
  8
1
  6
CONTINUOUS
 10
4.059338080299999
 20
6.1357306938000002
 30
0.0
  0
VERTEX
  5
701
  8
1
  6
CONTINUOUS
 10
4.0677499666000001
 20
6.1263732369000001
 30
0.0
  0
VERTEX
  5
702
  8
1
  6
CONTINUOUS
 10
4.0766660139999988
 20
6.1172589935000001
 30
0.0
  0
VERTEX
  5
703
  8
1
  6
CONTINUOUS
 10
4.0860764165000001
 20
6.1084030203999991
 30
0.0
  0
VERTEX
  5
704
  8
1
  6
CONTINUOUS
 10
4.095971368099999
 20
6.0998203744000001
 30
0.0
  0
VERTEX
  5
705
  8
1
  6
CONTINUOUS
 10
4.1063410626999994
 20
6.0915261124000004
 30
0.0
  0
VERTEX
  5
706
  8
1
  6
CONTINUOUS
 10
4.1171756941000002
 20
6.0835352911999996
 30
0.0
  0
VERTEX
  5
707
  8
1
  6
CONTINUOUS
 10
4.128458221499999
 20
6.075863600199999
 30
0.0
  0
VERTEX
  5
708
  8
1
  6
CONTINUOUS
 10
4.1401644935000004
 20
6.0685213060000001
 30
0.0
  0
VERTEX
  5
709
  8
1
  6
CONTINUOUS
 10
4.152274038299999
 20
6.061515331699999
 30
0.0
  0
VERTEX
  5
70A
  8
1
  6
CONTINUOUS
 10
4.1647663843
 20
6.0548526002999994
 30
0.0
  0
VERTEX
  5
70B
  8
1
  6
CONTINUOUS
 10
4.177621059799999
 20
6.0485400349000003
 30
0.0
  0
VERTEX
  5
70C
  8
1
  6
CONTINUOUS
 10
4.1908175932000002
 20
6.0425845583999998
 30
0.0
  0
VERTEX
  5
70D
  8
1
  6
CONTINUOUS
 10
4.2043355127999993
 20
6.0369930938999987
 30
0.0
  0
VERTEX
  5
70E
  8
1
  6
CONTINUOUS
 10
4.2181543468999987
 20
6.0317725643999998
 30
0.0
  0
VERTEX
  5
70F
  8
1
  6
CONTINUOUS
 10
4.2322536238000001
 20
6.0269298929999993
 30
0.0
  0
VERTEX
  5
710
  8
1
  6
CONTINUOUS
 10
4.2466128719
 20
6.0224720025999989
 30
0.0
  0
VERTEX
  5
711
  8
1
  6
CONTINUOUS
 10
4.2612116195
 20
6.0184058162999987
 30
0.0
  0
VERTEX
  5
712
  8
1
  6
CONTINUOUS
 10
4.2760293949000001
 20
6.0147382571000003
 30
0.0
  0
VERTEX
  5
713
  8
1
  6
CONTINUOUS
 10
4.2910457265000002
 20
6.0114762480999993
 30
0.0
  0
VERTEX
  5
714
  8
1
  6
CONTINUOUS
 10
4.3062401426000001
 20
6.008626712299999
 30
0.0
  0
VERTEX
  5
715
  8
1
  6
CONTINUOUS
 10
4.321592171499999
 20
6.0061965725999986
 30
0.0
  0
VERTEX
  5
716
  8
1
  6
CONTINUOUS
 10
4.3370813416000003
 20
6.0041927520999998
 30
0.0
  0
VERTEX
  5
717
  8
1
  6
CONTINUOUS
 10
4.3526871812000003
 20
6.002622173899999
 30
0.0
  0
VERTEX
  5
718
  8
1
  6
CONTINUOUS
 10
4.3683892184999991
 20
6.0014917609999996
 30
0.0
  0
VERTEX
  5
719
  8
1
  6
CONTINUOUS
 10
4.3841669819999991
 20
6.0008084362999989
 30
0.0
  0
VERTEX
  5
71A
  8
1
  6
CONTINUOUS
 10
4.4000000000000004
 20
6.0005791229999987
 30
0.0
  0
SEQEND
  5
71B
  8
1
  6
CONTINUOUS
  0
LINE
  5
B2
  8
1
  6
CONTINUOUS
 10
4.4000000000000004
 20
6.0005791229999987
 30
0.0
 11
6.5
 21
6.0005791229999987
 31
0.0
  0
POLYLINE
  5
B3
  8
1
  6
CONTINUOUS
 66
     1
 10
0.0
 20
0.0
 30
0.0
  0
VERTEX
  5
71C
  8
1
  6
CONTINUOUS
 10
6.5
 20
6.0005791229999987
 30
0.0
  0
VERTEX
  5
71D
  8
1
  6
CONTINUOUS
 10
6.5358434221000001
 20
6.0259632985999989
 30
0.0
  0
VERTEX
  5
71E
  8
1
  6
CONTINUOUS
 10
6.5716870614999987
 20
6.0513473206999997
 30
0.0
  0
VERTEX
  5
71F
  8
1
  6
CONTINUOUS
 10
6.6075309160999991
 20
6.0767311909000004
 30
0.0
  0
VERTEX
  5
720
  8
1
  6
CONTINUOUS
 10
6.6433749837000002
 20
6.1021149105999992
 30
0.0
  0
VERTEX
  5
721
  8
1
  6
CONTINUOUS
 10
6.6792192620000002
 20
6.1274984813999991
 30
0.0
  0
VERTEX
  5
722
  8
1
  6
CONTINUOUS
 10
6.7150637488999987
 20
6.1528819050000001
 30
0.0
  0
VERTEX
  5
723
  8
1
  6
CONTINUOUS
 10
6.7509084420000001
 20
6.1782651826999988
 30
0.0
  0
VERTEX
  5
724
  8
1
  6
CONTINUOUS
 10
6.7867533393999997
 20
6.2036483162999989
 30
0.0
  0
VERTEX
  5
725
  8
1
  6
CONTINUOUS
 10
6.8225984386
 20
6.2290313071999996
 30
0.0
  0
VERTEX
  5
726
  8
1
  6
CONTINUOUS
 10
6.8584437376
 20
6.2544141571000003
 30
0.0
  0
VERTEX
  5
727
  8
1
  6
CONTINUOUS
 10
6.8942892339999986
 20
6.2797968673999991
 30
0.0
  0
VERTEX
  5
728
  8
1
  6
CONTINUOUS
 10
6.9301349258
 20
6.3051794396999998
 30
0.0
  0
VERTEX
  5
729
  8
1
  6
CONTINUOUS
 10
6.9659808106999996
 20
6.3305618757
 30
0.0
  0
VERTEX
  5
72A
  8
1
  6
CONTINUOUS
 10
7.0018268863999991
 20
6.3559441766999987
 30
0.0
  0
VERTEX
  5
72B
  8
1
  6
CONTINUOUS
 10
7.0376731507999999
 20
6.3813263444999997
 30
0.0
  0
VERTEX
  5
72C
  8
1
  6
CONTINUOUS
 10
7.0735196017999993
 20
6.4067083804999987
 30
0.0
  0
VERTEX
  5
72D
  8
1
  6
CONTINUOUS
 10
7.1093662368999997
 20
6.4320902864000002
 30
0.0
  0
VERTEX
  5
72E
  8
1
  6
CONTINUOUS
 10
7.1452130541999992
 20
6.4574720636
 30
0.0
  0
VERTEX
  5
72F
  8
1
  6
CONTINUOUS
 10
7.1810600513000002
 20
6.4828537136999991
 30
0.0
  0
VERTEX
  5
730
  8
1
  6
CONTINUOUS
 10
7.216907226
 20
6.5082352383000002
 30
0.0
  0
VERTEX
  5
731
  8
1
  6
CONTINUOUS
 10
7.2527545762000001
 20
6.533616638999999
 30
0.0
  0
VERTEX
  5
732
  8
1
  6
CONTINUOUS
 10
7.2886020996000003
 20
6.5589979172000001
 30
0.0
  0
VERTEX
  5
733
  8
1
  6
CONTINUOUS
 10
7.3244497940999986
 20
6.5843790746000002
 30
0.0
  0
VERTEX
  5
734
  8
1
  6
CONTINUOUS
 10
7.3602976573000003
 20
6.6097601127000001
 30
0.0
  0
SEQEND
  5
735
  8
1
  6
CONTINUOUS
  0
ARC
  5
B4
  8
1
  6
CONTINUOUS
 10
-2332.8597746379
 20
-7088.5811067842014
 30
0.0
 40
7471.1688124731072
 50
71.639350289500001
 51
71.745797600399996
  0
ARC
  5
B5
  8
1
  6
CONTINUOUS
 10
20.323989514000001
 20
1.5382381275000001
 30
0.0
 40
0.7430043173798483
 50
37.762942702899998
 51
73.252091854200003
  0
POLYLINE
  5
B6
  8
1
  6
CONTINUOUS
 66
     1
 10
0.0
 20
0.0
 30
0.0
  0
VERTEX
  5
736
  8
1
  6
CONTINUOUS
 10
19.9433389418
 20
2.4426302972
 30
0.0
  0
VERTEX
  5
737
  8
1
  6
CONTINUOUS
 10
20.4285488519
 20
2.5692532818
 30
0.0
  0
VERTEX
  5
738
  8
1
  6
CONTINUOUS
 10
20.911372511900002
 20
2.7003576881999991
 30
0.0
  0
SEQEND
  5
739
  8
1
  6
CONTINUOUS
  0
ARC
  5
B7
  8
1
  6
CONTINUOUS
 10
20.396282457600002
 20
2.3833982998000001
 30
0.0
 40
0.6047983283130745
 50
356.5741616287001
 51
31.6059606884
  0
LINE
  5
B8
  8
1
  6
CONTINUOUS
 10
21.0
 20
2.3472576452
 30
0.0
 11
21.0
 21
1.8525600001
 31
0.0
  0
LINE
  5
B9
  8
SK1
  6
CONTINUOUS
 10
-32.3733940694
 20
7.4157768365000001
 30
0.0
 11
0.0
 21
7.4157768365000001
 31
0.0
  0
POLYLINE
  5
BA
  8
SK1
  6
CONTINUOUS
 66
     1
 10
0.0
 20
0.0
 30
0.0
  0
VERTEX
  5
73A
  8
SK1
  6
CONTINUOUS
 10
-32.3733940694
 20
7.4157768365000001
 30
0.0
  0
VERTEX
  5
73B
  8
SK1
  6
CONTINUOUS
 10
-31.764924280399999
 20
7.0578772193999999
 30
0.0
  0
VERTEX
  5
73C
  8
SK1
  6
CONTINUOUS
 10
-31.146435421100001
 20
6.7086700552999989
 30
0.0
  0
SEQEND
  5
73D
  8
SK1
  6
CONTINUOUS
  0
POLYLINE
  5
BB
  8
SK1
  6
CONTINUOUS
 66
     1
 10
0.0
 20
0.0
 30
0.0
  0
VERTEX
  5
73E
  8
SK1
  6
CONTINUOUS
 10
-32.3733940694
 20
6.7086700552999989
 30
0.0
  0
VERTEX
  5
73F
  8
SK1
  6
CONTINUOUS
 10
-32.381786800199997
 20
6.7086917909999997
 30
0.0
  0
VERTEX
  5
740
  8
SK1
  6
CONTINUOUS
 10
-32.390185312
 20
6.7087570624000001
 30
0.0
  0
VERTEX
  5
741
  8
SK1
  6
CONTINUOUS
 10
-32.398588852400003
 20
6.7088659660000003
 30
0.0
  0
VERTEX
  5
742
  8
SK1
  6
CONTINUOUS
 10
-32.406996669199998
 20
6.7090185985000002
 30
0.0
  0
VERTEX
  5
743
  8
SK1
  6
CONTINUOUS
 10
-32.41540801
 20
6.7092150561999988
 30
0.0
  0
VERTEX
  5
744
  8
SK1
  6
CONTINUOUS
 10
-32.423822122700003
 20
6.7094554358999998
 30
0.0
  0
VERTEX
  5
745
  8
SK1
  6
CONTINUOUS
 10
-32.4322382549
 20
6.7097398338999987
 30
0.0
  0
VERTEX
  5
746
  8
SK1
  6
CONTINUOUS
 10
-32.440655654300002
 20
6.7100683469
 30
0.0
  0
VERTEX
  5
747
  8
SK1
  6
CONTINUOUS
 10
-32.449073568700001
 20
6.7104410714
 30
0.0
  0
VERTEX
  5
748
  8
SK1
  6
CONTINUOUS
 10
-32.4574912458
 20
6.7108581038999988
 30
0.0
  0
VERTEX
  5
749
  8
SK1
  6
CONTINUOUS
 10
-32.465907933300002
 20
6.7113195409999991
 30
0.0
  0
VERTEX
  5
74A
  8
SK1
  6
CONTINUOUS
 10
-32.474322878999999
 20
6.711825479299999
 30
0.0
  0
VERTEX
  5
74B
  8
SK1
  6
CONTINUOUS
 10
-32.482735330499999
 20
6.7123760151000003
 30
0.0
  0
VERTEX
  5
74C
  8
SK1
  6
CONTINUOUS
 10
-32.4911445356
 20
6.7129712451999994
 30
0.0
  0
VERTEX
  5
74D
  8
SK1
  6
CONTINUOUS
 10
-32.499549741999999
 20
6.713611266
 30
0.0
  0
VERTEX
  5
74E
  8
SK1
  6
CONTINUOUS
 10
-32.5079501974
 20
6.7142961739999993
 30
0.0
  0
VERTEX
  5
74F
  8
SK1
  6
CONTINUOUS
 10
-32.516345149599999
 20
6.7150260659000001
 30
0.0
  0
VERTEX
  5
750
  8
SK1
  6
CONTINUOUS
 10
-32.524733846300002
 20
6.7158010380999986
 30
0.0
  0
VERTEX
  5
751
  8
SK1
  6
CONTINUOUS
 10
-32.533115535100009
 20
6.7166211872000003
 30
0.0
  0
VERTEX
  5
752
  8
SK1
  6
CONTINUOUS
 10
-32.5414894639
 20
6.717486609799999
 30
0.0
  0
VERTEX
  5
753
  8
SK1
  6
CONTINUOUS
 10
-32.549854880300003
 20
6.718397402299999
 30
0.0
  0
VERTEX
  5
754
  8
SK1
  6
CONTINUOUS
 10
-32.558211032099997
 20
6.7193536612999987
 30
0.0
  0
VERTEX
  5
755
  8
SK1
  6
CONTINUOUS
 10
-32.566557166899997
 20
6.7203554833999997
 30
0.0
  0
VERTEX
  5
756
  8
SK1
  6
CONTINUOUS
 10
-32.57489253260001
 20
6.7214029651000002
 30
0.0
  0
VERTEX
  5
757
  8
SK1
  6
CONTINUOUS
 10
-32.583216376800003
 20
6.7224962028999986
 30
0.0
  0
VERTEX
  5
758
  8
SK1
  6
CONTINUOUS
 10
-32.591527947199999
 20
6.7236352934000001
 30
0.0
  0
VERTEX
  5
759
  8
SK1
  6
CONTINUOUS
 10
-32.5998264917
 20
6.7248203329999994
 30
0.0
  0
VERTEX
  5
75A
  8
SK1
  6
CONTINUOUS
 10
-32.608111257799997
 20
6.7260514184999991
 30
0.0
  0
VERTEX
  5
75B
  8
SK1
  6
CONTINUOUS
 10
-32.616381493299997
 20
6.7273286462000002
 30
0.0
  0
VERTEX
  5
75C
  8
SK1
  6
CONTINUOUS
 10
-32.624636445999997
 20
6.728652112799999
 30
0.0
  0
VERTEX
  5
75D
  8
SK1
  6
CONTINUOUS
 10
-32.632875363499998
 20
6.7300219146999991
 30
0.0
  0
VERTEX
  5
75E
  8
SK1
  6
CONTINUOUS
 10
-32.6410974936
 20
6.7314381484999997
 30
0.0
  0
VERTEX
  5
75F
  8
SK1
  6
CONTINUOUS
 10
-32.6493020841
 20
6.7329009107999997
 30
0.0
  0
VERTEX
  5
760
  8
SK1
  6
CONTINUOUS
 10
-32.657488382499999
 20
6.7344102980999994
 30
0.0
  0
VERTEX
  5
761
  8
SK1
  6
CONTINUOUS
 10
-32.665655636700002
 20
6.7359664069000003
 30
0.0
  0
VERTEX
  5
762
  8
SK1
  6
CONTINUOUS
 10
-32.6738030944
 20
6.7375693337999989
 30
0.0
  0
VERTEX
  5
763
  8
SK1
  6
CONTINUOUS
 10
-32.681930003300003
 20
6.7392191752999988
 30
0.0
  0
VERTEX
  5
764
  8
SK1
  6
CONTINUOUS
 10
-32.690035611100001
 20
6.7409160278999991
 30
0.0
  0
VERTEX
  5
765
  8
SK1
  6
CONTINUOUS
 10
-32.698119165599998
 20
6.7426599882999998
 30
0.0
  0
VERTEX
  5
766
  8
SK1
  6
CONTINUOUS
 10
-32.706179914400003
 20
6.7444511527999991
 30
0.0
  0
VERTEX
  5
767
  8
SK1
  6
CONTINUOUS
 10
-32.714217105300001
 20
6.7462896181999996
 30
0.0
  0
VERTEX
  5
768
  8
SK1
  6
CONTINUOUS
 10
-32.722229986000002
 20
6.7481754807999996
 30
0.0
  0
VERTEX
  5
769
  8
SK1
  6
CONTINUOUS
 10
-32.730217804200009
 20
6.7501088372999991
 30
0.0
  0
VERTEX
  5
76A
  8
SK1
  6
CONTINUOUS
 10
-32.7381798077
 20
6.7520897841999989
 30
0.0
  0
VERTEX
  5
76B
  8
SK1
  6
CONTINUOUS
 10
-32.746115244099997
 20
6.7541184179999991
 30
0.0
  0
VERTEX
  5
76C
  8
SK1
  6
CONTINUOUS
 10
-32.7540233613
 20
6.7561948352999988
 30
0.0
  0
VERTEX
  5
76D
  8
SK1
  6
CONTINUOUS
 10
-32.761921431200001
 20
6.7583240772000002
 30
0.0
  0
VERTEX
  5
76E
  8
SK1
  6
CONTINUOUS
 10
-32.769842756899997
 20
6.7605166036000002
 30
0.0
  0
VERTEX
  5
76F
  8
SK1
  6
CONTINUOUS
 10
-32.777744425999998
 20
6.7627618537999989
 30
0.0
  0
VERTEX
  5
770
  8
SK1
  6
CONTINUOUS
 10
-32.785624634400001
 20
6.7650600827999989
 30
0.0
  0
VERTEX
  5
771
  8
SK1
  6
CONTINUOUS
 10
-32.793481577800002
 20
6.7674115457999999
 30
0.0
  0
VERTEX
  5
772
  8
SK1
  6
CONTINUOUS
 10
-32.801313452000002
 20
6.7698164977999991
 30
0.0
  0
VERTEX
  5
773
  8
SK1
  6
CONTINUOUS
 10
-32.809118452900002
 20
6.7722751938999988
 30
0.0
  0
VERTEX
  5
774
  8
SK1
  6
CONTINUOUS
 10
-32.8168947761
 20
6.7747878890999988
 30
0.0
  0
VERTEX
  5
775
  8
SK1
  6
CONTINUOUS
 10
-32.824640617600011
 20
6.7773548385999991
 30
0.0
  0
VERTEX
  5
776
  8
SK1
  6
CONTINUOUS
 10
-32.832354172999999
 20
6.7799762973000002
 30
0.0
  0
VERTEX
  5
777
  8
SK1
  6
CONTINUOUS
 10
-32.840033638200012
 20
6.7826525203000001
 30
0.0
  0
VERTEX
  5
778
  8
SK1
  6
CONTINUOUS
 10
-32.847677208900009
 20
6.7853837626999987
 30
0.0
  0
VERTEX
  5
779
  8
SK1
  6
CONTINUOUS
 10
-32.855283081099998
 20
6.7881702796000001
 30
0.0
  0
VERTEX
  5
77A
  8
SK1
  6
CONTINUOUS
 10
-32.862849450300011
 20
6.7910123259999997
 30
0.0
  0
VERTEX
  5
77B
  8
SK1
  6
CONTINUOUS
 10
-32.8703745125
 20
6.793910157
 30
0.0
  0
VERTEX
  5
77C
  8
SK1
  6
CONTINUOUS
 10
-32.877856463400001
 20
6.796864027699999
 30
0.0
  0
VERTEX
  5
77D
  8
SK1
  6
CONTINUOUS
 10
-32.885293498899998
 20
6.7998741929999991
 30
0.0
  0
VERTEX
  5
77E
  8
SK1
  6
CONTINUOUS
 10
-32.892683814599998
 20
6.8029409082000001
 30
0.0
  0
VERTEX
  5
77F
  8
SK1
  6
CONTINUOUS
 10
-32.900025606500002
 20
6.8060644282
 30
0.0
  0
VERTEX
  5
780
  8
SK1
  6
CONTINUOUS
 10
-32.907317070200001
 20
6.8092450080999987
 30
0.0
  0
VERTEX
  5
781
  8
SK1
  6
CONTINUOUS
 10
-32.914556401700011
 20
6.8124829030999994
 30
0.0
  0
VERTEX
  5
782
  8
SK1
  6
CONTINUOUS
 10
-32.921741796500001
 20
6.8157783679999993
 30
0.0
  0
VERTEX
  5
783
  8
SK1
  6
CONTINUOUS
 10
-32.928871450700001
 20
6.8191316580999981
 30
0.0
  0
VERTEX
  5
784
  8
SK1
  6
CONTINUOUS
 10
-32.935943559899997
 20
6.8225430283000001
 30
0.0
  0
VERTEX
  5
785
  8
SK1
  6
CONTINUOUS
 10
-32.942956319899999
 20
6.826012733799999
 30
0.0
  0
VERTEX
  5
786
  8
SK1
  6
CONTINUOUS
 10
-32.949907926599998
 20
6.8295410295999996
 30
0.0
  0
VERTEX
  5
787
  8
SK1
  6
CONTINUOUS
 10
-32.956796575699997
 20
6.8331281707000002
 30
0.0
  0
VERTEX
  5
788
  8
SK1
  6
CONTINUOUS
 10
-32.963620951899998
 20
6.8367746812999988
 30
0.0
  0
VERTEX
  5
789
  8
SK1
  6
CONTINUOUS
 10
-32.970391868
 20
6.8404889209000004
 30
0.0
  0
VERTEX
  5
78A
  8
SK1
  6
CONTINUOUS
 10
-32.9771047419
 20
6.8442710458000002
 30
0.0
  0
VERTEX
  5
78B
  8
SK1
  6
CONTINUOUS
 10
-32.9837555501
 20
6.8481206871999998
 30
0.0
  0
VERTEX
  5
78C
  8
SK1
  6
CONTINUOUS
 10
-32.990340269100003
 20
6.8520374760999996
 30
0.0
  0
VERTEX
  5
78D
  8
SK1
  6
CONTINUOUS
 10
-32.996854875499999
 20
6.8560210436000002
 30
0.0
  0
VERTEX
  5
78E
  8
SK1
  6
CONTINUOUS
 10
-33.003295345700003
 20
6.8600710210000004
 30
0.0
  0
VERTEX
  5
78F
  8
SK1
  6
CONTINUOUS
 10
-33.009657656400002
 20
6.8641870391999991
 30
0.0
  0
VERTEX
  5
790
  8
SK1
  6
CONTINUOUS
 10
-33.015937784099997
 20
6.8683687294000002
 30
0.0
  0
VERTEX
  5
791
  8
SK1
  6
CONTINUOUS
 10
-33.022131705300012
 20
6.8726157226999991
 30
0.0
  0
VERTEX
  5
792
  8
SK1
  6
CONTINUOUS
 10
-33.028235396600003
 20
6.876927650299999
 30
0.0
  0
VERTEX
  5
793
  8
SK1
  6
CONTINUOUS
 10
-33.034244834500001
 20
6.8813041432000004
 30
0.0
  0
VERTEX
  5
794
  8
SK1
  6
CONTINUOUS
 10
-33.040155995500001
 20
6.8857448325000004
 30
0.0
  0
VERTEX
  5
795
  8
SK1
  6
CONTINUOUS
 10
-33.045964856099999
 20
6.8902493494000003
 30
0.0
  0
VERTEX
  5
796
  8
SK1
  6
CONTINUOUS
 10
-33.05166739300001
 20
6.8948173248999991
 30
0.0
  0
VERTEX
  5
797
  8
SK1
  6
CONTINUOUS
 10
-33.057259582599997
 20
6.899448390299999
 30
0.0
  0
VERTEX
  5
798
  8
SK1
  6
CONTINUOUS
 10
-33.062737401500002
 20
6.9041421764999988
 30
0.0
  0
VERTEX
  5
799
  8
SK1
  6
CONTINUOUS
 10
-33.0680968263
 20
6.9088983148000001
 30
0.0
  0
VERTEX
  5
79A
  8
SK1
  6
CONTINUOUS
 10
-33.0733338334
 20
6.9137164360999996
 30
0.0
  0
VERTEX
  5
79B
  8
SK1
  6
CONTINUOUS
 10
-33.078444399399999
 20
6.9185961716999991
 30
0.0
  0
VERTEX
  5
79C
  8
SK1
  6
CONTINUOUS
 10
-33.083426637300001
 20
6.923539440199999
 30
0.0
  0
VERTEX
  5
79D
  8
SK1
  6
CONTINUOUS
 10
-33.088287623299998
 20
6.9285607671999996
 30
0.0
  0
VERTEX
  5
79E
  8
SK1
  6
CONTINUOUS
 10
-33.09301818050001
 20
6.9336556067999986
 30
0.0
  0
VERTEX
  5
79F
  8
SK1
  6
CONTINUOUS
 10
-33.097612589599997
 20
6.9388209917999992
 30
0.0
  0
VERTEX
  5
7A0
  8
SK1
  6
CONTINUOUS
 10
-33.102065131700002
 20
6.9440539548000002
 30
0.0
  0
VERTEX
  5
7A1
  8
SK1
  6
CONTINUOUS
 10
-33.1063700877
 20
6.9493515283000002
 30
0.0
  0
VERTEX
  5
7A2
  8
SK1
  6
CONTINUOUS
 10
-33.110521738400003
 20
6.954710744899999
 30
0.0
  0
VERTEX
  5
7A3
  8
SK1
  6
CONTINUOUS
 10
-33.114514364999998
 20
6.9601286373000004
 30
0.0
  0
VERTEX
  5
7A4
  8
SK1
  6
CONTINUOUS
 10
-33.118342248200001
 20
6.9656022378999989
 30
0.0
  0
VERTEX
  5
7A5
  8
SK1
  6
CONTINUOUS
 10
-33.121999669000012
 20
6.9711285794000002
 30
0.0
  0
VERTEX
  5
7A6
  8
SK1
  6
CONTINUOUS
 10
-33.125480908299998
 20
6.9767046944000004
 30
0.0
  0
VERTEX
  5
7A7
  8
SK1
  6
CONTINUOUS
 10
-33.128780247100011
 20
6.9823276154999991
 30
0.0
  0
VERTEX
  5
7A8
  8
SK1
  6
CONTINUOUS
 10
-33.131891966200001
 20
6.9879943752999987
 30
0.0
  0
VERTEX
  5
7A9
  8
SK1
  6
CONTINUOUS
 10
-33.1348103467
 20
6.9937020063000004
 30
0.0
  0
VERTEX
  5
7AA
  8
SK1
  6
CONTINUOUS
 10
-33.137529669400003
 20
6.9994475411000003
 30
0.0
  0
VERTEX
  5
7AB
  8
SK1
  6
CONTINUOUS
 10
-33.140048833100003
 20
7.005239433699999
 30
0.0
  0
VERTEX
  5
7AC
  8
SK1
  6
CONTINUOUS
 10
-33.142367517899999
 20
7.0110886659
 30
0.0
  0
VERTEX
  5
7AD
  8
SK1
  6
CONTINUOUS
 10
-33.144479235600002
 20
7.0169822409
 30
0.0
  0
VERTEX
  5
7AE
  8
SK1
  6
CONTINUOUS
 10
-33.14638109860001
 20
7.022914137499999
 30
0.0
  0
VERTEX
  5
7AF
  8
SK1
  6
CONTINUOUS
 10
-33.148070219099999
 20
7.028878334199999
 30
0.0
  0
VERTEX
  5
7B0
  8
SK1
  6
CONTINUOUS
 10
-33.149543709500001
 20
7.0348688095999998
 30
0.0
  0
VERTEX
  5
7B1
  8
SK1
  6
CONTINUOUS
 10
-33.150798682000001
 20
7.040879542499999
 30
0.0
  0
VERTEX
  5
7B2
  8
SK1
  6
CONTINUOUS
 10
-33.151832249000002
 20
7.0469045113000002
 30
0.0
  0
VERTEX
  5
7B3
  8
SK1
  6
CONTINUOUS
 10
-33.152641522700002
 20
7.0529376947999989
 30
0.0
  0
VERTEX
  5
7B4
  8
SK1
  6
CONTINUOUS
 10
-33.153223615500011
 20
7.0589730714999988
 30
0.0
  0
VERTEX
  5
7B5
  8
SK1
  6
CONTINUOUS
 10
-33.1535756396
 20
7.065004619999999
 30
0.0
  0
VERTEX
  5
7B6
  8
SK1
  6
CONTINUOUS
 10
-33.1536947074
 20
7.0710263190999987
 30
0.0
  0
VERTEX
  5
7B7
  8
SK1
  6
CONTINUOUS
 10
-33.153578557499998
 20
7.076999537499999
 30
0.0
  0
VERTEX
  5
7B8
  8
SK1
  6
CONTINUOUS
 10
-33.153229146400001
 20
7.0829737784000004
 30
0.0
  0
VERTEX
  5
7B9
  8
SK1
  6
CONTINUOUS
 10
-33.152649930000003
 20
7.0889439594999999
 30
0.0
  0
VERTEX
  5
7BA
  8
SK1
  6
CONTINUOUS
 10
-33.151844364600002
 20
7.0949046930999993
 30
0.0
  0
VERTEX
  5
7BB
  8
SK1
  6
CONTINUOUS
 10
-33.150815906399998
 20
7.1008505914999986
 30
0.0
  0
VERTEX
  5
7BC
  8
SK1
  6
CONTINUOUS
 10
-33.149568011500001
 20
7.106776267299999
 30
0.0
  0
VERTEX
  5
7BD
  8
SK1
  6
CONTINUOUS
 10
-33.148104136199997
 20
7.1126763326999987
 30
0.0
  0
VERTEX
  5
7BE
  8
SK1
  6
CONTINUOUS
 10
-33.146427736500002
 20
7.1185454001999986
 30
0.0
  0
VERTEX
  5
7BF
  8
SK1
  6
CONTINUOUS
 10
-33.144542268800009
 20
7.1243780820999998
 30
0.0
  0
VERTEX
  5
7C0
  8
SK1
  6
CONTINUOUS
 10
-33.142451189100001
 20
7.1301689907999997
 30
0.0
  0
VERTEX
  5
7C1
  8
SK1
  6
CONTINUOUS
 10
-33.140157953699998
 20
7.1359127387000001
 30
0.0
  0
VERTEX
  5
7C2
  8
SK1
  6
CONTINUOUS
 10
-33.137666018700003
 20
7.1416039382000003
 30
0.0
  0
VERTEX
  5
7C3
  8
SK1
  6
CONTINUOUS
 10
-33.134978840300001
 20
7.1472372016999994
 30
0.0
  0
VERTEX
  5
7C4
  8
SK1
  6
CONTINUOUS
 10
-33.132099874700003
 20
7.1528071414999994
 30
0.0
  0
VERTEX
  5
7C5
  8
SK1
  6
CONTINUOUS
 10
-33.1290305598
 20
7.1583119898999996
 30
0.0
  0
VERTEX
  5
7C6
  8
SK1
  6
CONTINUOUS
 10
-33.125759883400001
 20
7.1637800583000004
 30
0.0
  0
VERTEX
  5
7C7
  8
SK1
  6
CONTINUOUS
 10
-33.122303830500002
 20
7.1691947207000002
 30
0.0
  0
VERTEX
  5
7C8
  8
SK1
  6
CONTINUOUS
 10
-33.118668055900002
 20
7.1745540789999991
 30
0.0
  0
VERTEX
  5
7C9
  8
SK1
  6
CONTINUOUS
 10
-33.1148582147
 20
7.1798562354999991
 30
0.0
  0
VERTEX
  5
7CA
  8
SK1
  6
CONTINUOUS
 10
-33.110879961499997
 20
7.1850992921000003
 30
0.0
  0
VERTEX
  5
7CB
  8
SK1
  6
CONTINUOUS
 10
-33.106738951399997
 20
7.1902813509000003
 30
0.0
  0
VERTEX
  5
7CC
  8
SK1
  6
CONTINUOUS
 10
-33.1024408392
 20
7.1954005140000001
 30
0.0
  0
VERTEX
  5
7CD
  8
SK1
  6
CONTINUOUS
 10
-33.097991279799999
 20
7.2004548834999991
 30
0.0
  0
VERTEX
  5
7CE
  8
SK1
  6
CONTINUOUS
 10
-33.093395928
 20
7.2054425613999991
 30
0.0
  0
VERTEX
  5
7CF
  8
SK1
  6
CONTINUOUS
 10
-33.0886604389
 20
7.2103616498000003
 30
0.0
  0
VERTEX
  5
7D0
  8
SK1
  6
CONTINUOUS
 10
-33.083790467100002
 20
7.2152102508000002
 30
0.0
  0
VERTEX
  5
7D1
  8
SK1
  6
CONTINUOUS
 10
-33.078791667700003
 20
7.2199864664999991
 30
0.0
  0
VERTEX
  5
7D2
  8
SK1
  6
CONTINUOUS
 10
-33.073669695600003
 20
7.2246883988999988
 30
0.0
  0
VERTEX
  5
7D3
  8
SK1
  6
CONTINUOUS
 10
-33.0684302055
 20
7.2293141500999987
 30
0.0
  0
VERTEX
  5
7D4
  8
SK1
  6
CONTINUOUS
 10
-33.063087729099998
 20
7.233854825599999
 30
0.0
  0
VERTEX
  5
7D5
  8
SK1
  6
CONTINUOUS
 10
-33.0576425211
 20
7.2383173333000004
 30
0.0
  0
VERTEX
  5
7D6
  8
SK1
  6
CONTINUOUS
 10
-33.052083672199998
 20
7.2427148454999992
 30
0.0
  0
VERTEX
  5
7D7
  8
SK1
  6
CONTINUOUS
 10
-33.046414634500003
 20
7.2470474698
 30
0.0
  0
VERTEX
  5
7D8
  8
SK1
  6
CONTINUOUS
 10
-33.04063886010001
 20
7.2513153140000002
 30
0.0
  0
VERTEX
  5
7D9
  8
SK1
  6
CONTINUOUS
 10
-33.034759801
 20
7.2555184855999988
 30
0.0
  0
VERTEX
  5
7DA
  8
SK1
  6
CONTINUOUS
 10
-33.028780909399998
 20
7.2596570921000003
 30
0.0
  0
VERTEX
  5
7DB
  8
SK1
  6
CONTINUOUS
 10
-33.022705637199998
 20
7.2637312413999986
 30
0.0
  0
VERTEX
  5
7DC
  8
SK1
  6
CONTINUOUS
 10
-33.016537436500002
 20
7.2677410407999998
 30
0.0
  0
VERTEX
  5
7DD
  8
SK1
  6
CONTINUOUS
 10
-33.010279759500001
 20
7.2716865981999996
 30
0.0
  0
VERTEX
  5
7DE
  8
SK1
  6
CONTINUOUS
 10
-33.003936058199997
 20
7.2755680209999998
 30
0.0
  0
VERTEX
  5
7DF
  8
SK1
  6
CONTINUOUS
 10
-32.997509784599998
 20
7.2793854170000003
 30
0.0
  0
VERTEX
  5
7E0
  8
SK1
  6
CONTINUOUS
 10
-32.991004390900002
 20
7.2831388936000003
 30
0.0
  0
VERTEX
  5
7E1
  8
SK1
  6
CONTINUOUS
 10
-32.984423329099997
 20
7.286828558699999
 30
0.0
  0
VERTEX
  5
7E2
  8
SK1
  6
CONTINUOUS
 10
-32.977770051299998
 20
7.290454519699999
 30
0.0
  0
VERTEX
  5
7E3
  8
SK1
  6
CONTINUOUS
 10
-32.971048009599997
 20
7.2940168842999986
 30
0.0
  0
VERTEX
  5
7E4
  8
SK1
  6
CONTINUOUS
 10
-32.964260655899999
 20
7.2975157600999987
 30
0.0
  0
VERTEX
  5
7E5
  8
SK1
  6
CONTINUOUS
 10
-32.957411442500003
 20
7.3009512547000002
 30
0.0
  0
VERTEX
  5
7E6
  8
SK1
  6
CONTINUOUS
 10
-32.950503821399998
 20
7.3043234758000004
 30
0.0
  0
VERTEX
  5
7E7
  8
SK1
  6
CONTINUOUS
 10
-32.943541244599999
 20
7.3076325310000003
 30
0.0
  0
VERTEX
  5
7E8
  8
SK1
  6
CONTINUOUS
 10
-32.936527164200001
 20
7.310878527799999
 30
0.0
  0
VERTEX
  5
7E9
  8
SK1
  6
CONTINUOUS
 10
-32.929465032300001
 20
7.3140615739000001
 30
0.0
  0
VERTEX
  5
7EA
  8
SK1
  6
CONTINUOUS
 10
-32.922360937000001
 20
7.3171806453999988
 30
0.0
  0
VERTEX
  5
7EB
  8
SK1
  6
CONTINUOUS
 10
-32.915229073900001
 20
7.3202323833999996
 30
0.0
  0
VERTEX
  5
7EC
  8
SK1
  6
CONTINUOUS
 10
-32.9080443812
 20
7.3232295677999986
 30
0.0
  0
VERTEX
  5
7ED
  8
SK1
  6
CONTINUOUS
 10
-32.9008082215
 20
7.3261725152999988
 30
0.0
  0
VERTEX
  5
7EE
  8
SK1
  6
CONTINUOUS
 10
-32.893521957600001
 20
7.329061542399999
 30
0.0
  0
VERTEX
  5
7EF
  8
SK1
  6
CONTINUOUS
 10
-32.886186952199999
 20
7.3318969655999986
 30
0.0
  0
VERTEX
  5
7F0
  8
SK1
  6
CONTINUOUS
 10
-32.878804568
 20
7.334679101599999
 30
0.0
  0
VERTEX
  5
7F1
  8
SK1
  6
CONTINUOUS
 10
-32.871376167699999
 20
7.3374082668999998
 30
0.0
  0
VERTEX
  5
7F2
  8
SK1
  6
CONTINUOUS
 10
-32.863903114099998
 20
7.3400847781999996
 30
0.0
  0
VERTEX
  5
7F3
  8
SK1
  6
CONTINUOUS
 10
-32.856386769799997
 20
7.3427089519999997
 30
0.0
  0
VERTEX
  5
7F4
  8
SK1
  6
CONTINUOUS
 10
-32.848828497699998
 20
7.3452811047999997
 30
0.0
  0
VERTEX
  5
7F5
  8
SK1
  6
CONTINUOUS
 10
-32.841229660300002
 20
7.3478015533000001
 30
0.0
  0
VERTEX
  5
7F6
  8
SK1
  6
CONTINUOUS
 10
-32.833591620500002
 20
7.3502706140999994
 30
0.0
  0
VERTEX
  5
7F7
  8
SK1
  6
CONTINUOUS
 10
-32.825915741000003
 20
7.352688603699999
 30
0.0
  0
VERTEX
  5
7F8
  8
SK1
  6
CONTINUOUS
 10
-32.8182033844
 20
7.3550558387000002
 30
0.0
  0
VERTEX
  5
7F9
  8
SK1
  6
CONTINUOUS
 10
-32.8104559135
 20
7.3573726355999991
 30
0.0
  0
VERTEX
  5
7FA
  8
SK1
  6
CONTINUOUS
 10
-32.802674691100002
 20
7.3596393111999996
 30
0.0
  0
VERTEX
  5
7FB
  8
SK1
  6
CONTINUOUS
 10
-32.794861079699999
 20
7.3618561819000004
 30
0.0
  0
VERTEX
  5
7FC
  8
SK1
  6
CONTINUOUS
 10
-32.787016442300001
 20
7.3640235644000001
 30
0.0
  0
VERTEX
  5
7FD
  8
SK1
  6
CONTINUOUS
 10
-32.779142141400001
 20
7.3661417751
 30
0.0
  0
VERTEX
  5
7FE
  8
SK1
  6
CONTINUOUS
 10
-32.7712395398
 20
7.3682111307999998
 30
0.0
  0
VERTEX
  5
7FF
  8
SK1
  6
CONTINUOUS
 10
-32.763310000200001
 20
7.3702319478999989
 30
0.0
  0
VERTEX
  5
800
  8
SK1
  6
CONTINUOUS
 10
-32.755354885400003
 20
7.3722045430999987
 30
0.0
  0
VERTEX
  5
801
  8
SK1
  6
CONTINUOUS
 10
-32.747375558000002
 20
7.3741292328999988
 30
0.0
  0
VERTEX
  5
802
  8
SK1
  6
CONTINUOUS
 10
-32.739373380799996
 20
7.3760063339999986
 30
0.0
  0
VERTEX
  5
803
  8
SK1
  6
CONTINUOUS
 10
-32.731349716499999
 20
7.3778361628999987
 30
0.0
  0
VERTEX
  5
804
  8
SK1
  6
CONTINUOUS
 10
-32.723305927800013
 20
7.3796190361000003
 30
0.0
  0
VERTEX
  5
805
  8
SK1
  6
CONTINUOUS
 10
-32.715243377500002
 20
7.3813552702999994
 30
0.0
  0
VERTEX
  5
806
  8
SK1
  6
CONTINUOUS
 10
-32.707163428200012
 20
7.3830451821
 30
0.0
  0
VERTEX
  5
807
  8
SK1
  6
CONTINUOUS
 10
-32.699067442699999
 20
7.3846890879
 30
0.0
  0
VERTEX
  5
808
  8
SK1
  6
CONTINUOUS
 10
-32.690956783700003
 20
7.3862873044999997
 30
0.0
  0
VERTEX
  5
809
  8
SK1
  6
CONTINUOUS
 10
-32.682832813899999
 20
7.3878401483999996
 30
0.0
  0
VERTEX
  5
80A
  8
SK1
  6
CONTINUOUS
 10
-32.674696896100002
 20
7.3893479362000001
 30
0.0
  0
VERTEX
  5
80B
  8
SK1
  6
CONTINUOUS
 10
-32.6665503929
 20
7.3908109843999998
 30
0.0
  0
VERTEX
  5
80C
  8
SK1
  6
CONTINUOUS
 10
-32.658394667099998
 20
7.3922296096000002
 30
0.0
  0
VERTEX
  5
80D
  8
SK1
  6
CONTINUOUS
 10
-32.6502002151
 20
7.3936091226
 30
0.0
  0
VERTEX
  5
80E
  8
SK1
  6
CONTINUOUS
 10
-32.641986537800001
 20
7.394946202799999
 30
0.0
  0
VERTEX
  5
80F
  8
SK1
  6
CONTINUOUS
 10
-32.633754775
 20
7.3962408560000004
 30
0.0
  0
VERTEX
  5
810
  8
SK1
  6
CONTINUOUS
 10
-32.625505622299997
 20
7.3974931636000001
 30
0.0
  0
VERTEX
  5
811
  8
SK1
  6
CONTINUOUS
 10
-32.617239775000002
 20
7.3987032074999988
 30
0.0
  0
VERTEX
  5
812
  8
SK1
  6
CONTINUOUS
 10
-32.608957928700001
 20
7.3998710691999987
 30
0.0
  0
VERTEX
  5
813
  8
SK1
  6
CONTINUOUS
 10
-32.600660778799998
 20
7.4009968304999987
 30
0.0
  0
VERTEX
  5
814
  8
SK1
  6
CONTINUOUS
 10
-32.592349020599997
 20
7.4020805728999992
 30
0.0
  0
VERTEX
  5
815
  8
SK1
  6
CONTINUOUS
 10
-32.584023349699997
 20
7.4031223783
 30
0.0
  0
VERTEX
  5
816
  8
SK1
  6
CONTINUOUS
 10
-32.575684461400002
 20
7.4041223281999997
 30
0.0
  0
VERTEX
  5
817
  8
SK1
  6
CONTINUOUS
 10
-32.567333051200002
 20
7.4050805043999999
 30
0.0
  0
VERTEX
  5
818
  8
SK1
  6
CONTINUOUS
 10
-32.558969814500003
 20
7.4059969884000001
 30
0.0
  0
VERTEX
  5
819
  8
SK1
  6
CONTINUOUS
 10
-32.550595446800003
 20
7.406871862
 30
0.0
  0
VERTEX
  5
81A
  8
SK1
  6
CONTINUOUS
 10
-32.542210643499999
 20
7.4077052067999993
 30
0.0
  0
VERTEX
  5
81B
  8
SK1
  6
CONTINUOUS
 10
-32.533816100100012
 20
7.4084971046000003
 30
0.0
  0
VERTEX
  5
81C
  8
SK1
  6
CONTINUOUS
 10
-32.525412511900001
 20
7.4092476369
 30
0.0
  0
VERTEX
  5
81D
  8
SK1
  6
CONTINUOUS
 10
-32.517000574400001
 20
7.4099568854999989
 30
0.0
  0
VERTEX
  5
81E
  8
SK1
  6
CONTINUOUS
 10
-32.508580983000002
 20
7.4106249320000002
 30
0.0
  0
VERTEX
  5
81F
  8
SK1
  6
CONTINUOUS
 10
-32.500154433200009
 20
7.4112518580999991
 30
0.0
  0
VERTEX
  5
820
  8
SK1
  6
CONTINUOUS
 10
-32.4917216204
 20
7.4118377453999988
 30
0.0
  0
VERTEX
  5
821
  8
SK1
  6
CONTINUOUS
 10
-32.483283239999999
 20
7.4123826757
 30
0.0
  0
VERTEX
  5
822
  8
SK1
  6
CONTINUOUS
 10
-32.474839987499998
 20
7.4128867305999986
 30
0.0
  0
VERTEX
  5
823
  8
SK1
  6
CONTINUOUS
 10
-32.466392558300001
 20
7.4133499917999988
 30
0.0
  0
VERTEX
  5
824
  8
SK1
  6
CONTINUOUS
 10
-32.4579416479
 20
7.4137725409000002
 30
0.0
  0
VERTEX
  5
825
  8
SK1
  6
CONTINUOUS
 10
-32.449487951599998
 20
7.4141544595999997
 30
0.0
  0
VERTEX
  5
826
  8
SK1
  6
CONTINUOUS
 10
-32.441032164900001
 20
7.4144958295999999
 30
0.0
  0
VERTEX
  5
827
  8
SK1
  6
CONTINUOUS
 10
-32.432574983199999
 20
7.4147967326000002
 30
0.0
  0
VERTEX
  5
828
  8
SK1
  6
CONTINUOUS
 10
-32.424117102099999
 20
7.4150572501999994
 30
0.0
  0
VERTEX
  5
829
  8
SK1
  6
CONTINUOUS
 10
-32.415659216800002
 20
7.415277464099999
 30
0.0
  0
VERTEX
  5
82A
  8
SK1
  6
CONTINUOUS
 10
-32.407202022900002
 20
7.4154574559000004
 30
0.0
  0
VERTEX
  5
82B
  8
SK1
  6
CONTINUOUS
 10
-32.398746215800003
 20
7.4155973073999988
 30
0.0
  0
VERTEX
  5
82C
  8
SK1
  6
CONTINUOUS
 10
-32.390292490900009
 20
7.4156971003000001
 30
0.0
  0
VERTEX
  5
82D
  8
SK1
  6
CONTINUOUS
 10
-32.381841543600011
 20
7.4157569161000003
 30
0.0
  0
VERTEX
  5
82E
  8
SK1
  6
CONTINUOUS
 10
-32.3733940694
 20
7.4157768365000001
 30
0.0
  0
SEQEND
  5
82F
  8
SK1
  6
CONTINUOUS
  0
LINE
  5
BC
  8
SK1
  6
CONTINUOUS
 10
-32.3733940694
 20
6.7086700552999989
 30
0.0
 11
0.0
 21
6.7086700552999989
 31
0.0
  0
ARC
  5
BD
  8
1
  6
CONTINUOUS
 10
20.350845336199999
 20
1.5415555663999989
 30
0.0
 40
0.7198745692093911
 50
25.609510145000002
 51
38.863264211199997
  0
ARC
  5
BE
  8
1
  6
CONTINUOUS
 10
20.199999999999999
 20
-2.9903437913999991
 30
0.0
 40
0.8000000000000046
 50
295.0
 51
0.0
  0
LINE
  5
BF
  8
1
  6
CONTINUOUS
 10
7.3602976573000003
 20
-9.8602976573000003
 30
0.0
 11
20.538094609400002
 21
-3.7153900210000002
 31
0.0
  0
LINE
  5
C0
  8
1
  6
CONTINUOUS
 10
6.5
 20
-9.0
 30
0.0
 11
7.3602976573000003
 21
-9.8602976573000003
 31
0.0
  0
LINE
  5
C1
  8
1
  6
CONTINUOUS
 10
4.4000000000000004
 20
-9.0
 30
0.0
 11
6.5
 21
-9.0
 31
0.0
  0
ARC
  5
C2
  8
1
  6
CONTINUOUS
 10
4.4000000000000004
 20
-9.4000000000000004
 30
0.0
 40
0.3999999999999993
 50
90.0
 51
180.0
  0
LINE
  5
C3
  8
1
  6
CONTINUOUS
 10
3.5
 20
-10.0
 30
0.0
 11
4.0
 21
-9.5
 31
0.0
  0
LINE
  5
C4
  8
1
  6
CONTINUOUS
 10
3.5
 20
10.0
 30
0.0
 11
0.0
 21
10.0
 31
0.0
  0
LINE
  5
C5
  8
SK1
  6
CONTINUOUS
 10
-49.700000000000003
 20
-10.0
 30
0.0
 11
0.0
 21
-10.0
 31
0.0
  0
LINE
  5
C6
  8
SK1
  6
CONTINUOUS
 10
-49.700000000000003
 20
10.0
 30
0.0
 11
-51.0
 21
9.2494446500999992
 31
0.0
  0
LINE
  5
C7
  8
SK1
  6
CONTINUOUS
 10
-51.0
 20
-9.2494446500999992
 30
0.0
 11
-49.700000000000003
 21
-10.0
 31
0.0
  0
ARC
  5
C8
  8
1
  6
CONTINUOUS
 10
20.199999999999999
 20
2.9903437913999991
 30
0.0
 40
0.7999999999999952
 50
0.0
 51
65.0
  0
LINE
  5
C9
  8
1
  6
CONTINUOUS
 10
20.538094609400002
 20
3.7153900210000002
 30
0.0
 11
7.3602976573000003
 21
9.8602976573000003
 31
0.0
  0
LINE
  5
CA
  8
1
  6
CONTINUOUS
 10
7.3602976573000003
 20
9.8602976573000003
 30
0.0
 11
6.5
 21
9.0
 31
0.0
  0
LINE
  5
CB
  8
1
  6
CONTINUOUS
 10
6.5
 20
9.0
 30
0.0
 11
4.4000000000000004
 21
9.0
 31
0.0
  0
ARC
  5
CC
  8
1
  6
CONTINUOUS
 10
4.4000000000000004
 20
9.4000000000000004
 30
0.0
 40
0.3999999999999993
 50
180.0
 51
270.0
  0
LINE
  5
CD
  8
1
  6
CONTINUOUS
 10
4.0
 20
9.5
 30
0.0
 11
3.5
 21
10.0
 31
0.0
  0
LINE
  5
D0
  8
SK4
 10
-53.0
 20
0.0
 30
0.0
 11
23.0
 21
0.0
 31
0.0
  0
LINE
  5
D2
  8
4
 10
21.0
 20
0.0
 30
0.0
 11
0.0
 21
0.0
 31
0.0
  0
LINE
  5
D4
  8
80
  6
CONTINUOUS
 10
0.0
 20
0.0
 30
0.0
 11
-5.0
 21
0.0
 31
0.0
  0
POINT
  5
D5
  8
80
  6
CONTINUOUS
 10
0.0
 20
0.0
 30
0.0
  0
POINT
  5
D7
  8
81
  6
CONTINUOUS
 10
21.0
 20
0.0
 30
0.0
  0
LINE
  5
D8
  8
81
  6
CONTINUOUS
 10
21.0
 20
0.0
 30
0.0
 11
26.0
 21
0.0
 31
0.0
  0
LINE
  5
D9
  8
SK2
  6
CONTINUOUS
 62
     7
 10
0.0
 20
10.0
 30
0.0
 11
0.0
 21
-10.0
 31
0.0
  0
LINE
  5
DB
  8
1
  6
DOT2
 10
20.538094609400002
 20
3.7153900210000002
 30
0.0
 11
21.0
 21
3.5
 31
0.0
  0
LINE
  5
DC
  8
1
  6
DOT2
 10
21.0
 20
2.9903437913999991
 30
0.0
 11
21.0
 21
3.5
 31
0.0
  0
LINE
  5
DD
  8
SK1
  6
CONTINUOUS
 10
0.0
 20
10.0
 30
0.0
 11
-49.700000000000003
 21
10.0
 31
0.0
  0
LINE
  5
DE
  8
1
  6
CONTINUOUS
 10
0.0
 20
7.4157768365000001
 30
0.0
 11
3.5
 21
7.4157768365000001
 31
0.0
  0
LINE
  5
DF
  8
1
  6
CONTINUOUS
 10
0.0
 20
6.7086700552999989
 30
0.0
 11
3.5
 21
6.7086700552999989
 31
0.0
  0
LINE
  5
E0
  8
1
  6
CONTINUOUS
 10
0.0
 20
-6.7086700552999989
 30
0.0
 11
3.5
 21
-6.7086700552999989
 31
0.0
  0
LINE
  5
E1
  8
1
  6
CONTINUOUS
 10
0.0
 20
-7.4157768365000001
 30
0.0
 11
3.5
 21
-7.4157768365000001
 31
0.0
  0
LINE
  5
E2
  8
1
  6
CONTINUOUS
 10
0.0
 20
-10.0
 30
0.0
 11
3.5
 21
-10.0
 31
0.0
  0
ENDBLK
  5
E4
  8
0
  0
BLOCK
  8
0
  2
GDIMGGROUP5
 70
     0
 10
0.0
 20
0.0
 30
0.0
  3
GDIMGGROUP5
  1

  0
POLYLINE
  5
E7
  8
SK2
  6
CONTINUOUS
 62
   136
 66
     1
 10
0.0
 20
0.0
 30
0.0
  0
VERTEX
  5
830
  8
SK2
  6
CONTINUOUS
 62
   136
 10
-59.214472835400002
 20
6.4999998919999999
 30
0.0
  0
VERTEX
  5
831
  8
SK2
  6
CONTINUOUS
 62
   136
 10
-58.047806132700011
 20
6.4999998919999999
 30
0.0
  0
VERTEX
  5
832
  8
SK2
  6
CONTINUOUS
 62
   136
 10
-58.631139483999988
 20
10.0
 30
0.0
  0
VERTEX
  5
833
  8
SK2
  6
CONTINUOUS
 62
   136
 10
-59.214472835400002
 20
6.4999998919999999
 30
0.0
  0
SEQEND
  5
834
  8
SK2
  6
CONTINUOUS
 62
   136
  0
POLYLINE
  5
E8
  8
SK2
  6
CONTINUOUS
 62
   136
 66
     1
 10
0.0
 20
0.0
 30
0.0
  0
VERTEX
  5
835
  8
SK2
  6
CONTINUOUS
 62
   136
 10
-59.214472835400002
 20
-6.4999994449000003
 30
0.0
  0
VERTEX
  5
836
  8
SK2
  6
CONTINUOUS
 62
   136
 10
-58.047806132700011
 20
-6.4999994449000003
 30
0.0
  0
VERTEX
  5
837
  8
SK2
  6
CONTINUOUS
 62
   136
 10
-58.631139483999988
 20
-9.9999995530000003
 30
0.0
  0
VERTEX
  5
838
  8
SK2
  6
CONTINUOUS
 62
   136
 10
-59.214472835400002
 20
-6.4999994449000003
 30
0.0
  0
SEQEND
  5
839
  8
SK2
  6
CONTINUOUS
 62
   136
  0
LINE
  5
E9
  8
SK2
  6
CONTINUOUS
 62
   136
 10
-49.700000000000003
 20
10.0
 30
0.0
 11
-60.381139538100001
 21
10.0
 31
0.0
  0
LINE
  5
EA
  8
SK2
  6
CONTINUOUS
 62
   136
 10
-49.700000000000003
 20
-10.0
 30
0.0
 11
-60.381139538100001
 21
-10.0
 31
0.0
  0
LINE
  5
EB
  8
SK2
  6
CONTINUOUS
 62
   136
 10
-58.631139483999988
 20
10.0
 30
0.0
 11
-58.631139483999988
 21
-9.9999995530000003
 31
0.0
  0
TEXT
  5
EC
  8
SK2
  6
CONTINUOUS
 62
   136
 10
-59.506139484000002
 20
-5.1535683570000002
 30
0.0
 40
3.5
  1
O
 50
90.0
  7
SEACAD_SOLID_EDGE_ISO1_SYM
 11
-63.006139483999988
 21
-5.1535683570000002
 31
0.0
 73
     3
  0
TEXT
  5
ED
  8
SK2
  6
CONTINUOUS
 62
   136
 10
-59.506139484000002
 20
0.9376597131999995
 30
0.0
 40
3.5
  1
20
 50
90.0
  7
SEACAD_SOLID_EDGE_ISO
 11
-63.006139483999988
 21
0.9376597132
 31
0.0
 73
     3
  0
ENDBLK
  5
EF
  8
0
  0
ENDSEC
  0
SECTION
  2
ENTITIES
  0
TEXT
  5
40
  8
SK6
  6
CONTINUOUS
 62
     0
 10
-50.525295824899999
 20
25.7941457883
 30
0.0
 40
8.0
  1
393.CGP-20 03 72
  0
INSERT
  5
51
  8
2
  2
GDIMGGROUP1
 10
0.0
 20
0.0
 30
0.0
  0
INSERT
  5
5B
  8
SK2
  2
GDIMGGROUP2
 10
0.0
 20
0.0
 30
0.0
  0
INSERT
  5
65
  8
SK2
  2
GDIMGGROUP3
 10
0.0
 20
0.0
 30
0.0
  0
INSERT
  5
6F
  8
SK2
  2
GDIMGGROUP4
 10
0.0
 20
0.0
 30
0.0
  0
INSERT
  5
7B
  8
SK1
  2
SE
 10
0.0
 20
0.0
 30
0.0
  0
INSERT
  5
E6
  8
SK2
  2
GDIMGGROUP5
 10
0.0
 20
0.0
 30
0.0
  0
POLYLINE
  5
4CE
  8
SK2
  6
CONTINUOUS
 62
   136
 66
     1
 10
0.0
 20
0.0
 30
0.0
  0
VERTEX
  5
876
  8
SK2
  6
CONTINUOUS
 62
   136
 10
-14.294692703200001
 20
6.4999998919999999
 30
0.0
  0
VERTEX
  5
877
  8
SK2
  6
CONTINUOUS
 62
   136
 10
-13.1280260005
 20
6.4999998919999999
 30
0.0
  0
VERTEX
  5
878
  8
SK2
  6
CONTINUOUS
 62
   136
 10
-13.711359351900001
 20
10.0
 30
0.0
  0
VERTEX
  5
879
  8
SK2
  6
CONTINUOUS
 62
   136
 10
-14.294692703200001
 20
6.4999998919999999
 30
0.0
  0
SEQEND
  5
87A
  8
SK2
  6
CONTINUOUS
 62
   136
  0
POLYLINE
  5
4CF
  8
SK2
  6
CONTINUOUS
 62
   136
 66
     1
 10
0.0
 20
0.0
 30
0.0
  0
VERTEX
  5
87B
  8
SK2
  6
CONTINUOUS
 62
   136
 10
-14.294692703200001
 20
-6.4999994449000003
 30
0.0
  0
VERTEX
  5
87C
  8
SK2
  6
CONTINUOUS
 62
   136
 10
-13.1280260005
 20
-6.4999994449000003
 30
0.0
  0
VERTEX
  5
87D
  8
SK2
  6
CONTINUOUS
 62
   136
 10
-13.711359351900001
 20
-9.9999995530000003
 30
0.0
  0
VERTEX
  5
87E
  8
SK2
  6
CONTINUOUS
 62
   136
 10
-14.294692703200001
 20
-6.4999994449000003
 30
0.0
  0
SEQEND
  5
87F
  8
SK2
  6
CONTINUOUS
 62
   136
  0
LINE
  5
4D0
  8
SK2
  6
CONTINUOUS
 62
   136
 10
0.0
 20
10.0
 30
0.0
 11
-15.4613594059
 21
10.0
 31
0.0
  0
LINE
  5
4D1
  8
SK2
  6
CONTINUOUS
 62
   136
 10
0.0
 20
-10.0
 30
0.0
 11
-15.4613594059
 21
-10.0
 31
0.0
  0
LINE
  5
4D2
  8
SK2
  6
CONTINUOUS
 62
   136
 10
-13.711359351900001
 20
10.0
 30
0.0
 11
-13.711359351900001
 21
-9.9999995530000003
 31
0.0
  0
TEXT
  5
4D3
  8
SK2
  6
CONTINUOUS
 62
   136
 10
-14.586359351900001
 20
-5.1535683570000002
 30
0.0
 40
3.5
  1
O
 50
90.0
  7
SEACAD_SOLID_EDGE_ISO1_SYM
 11
-18.086359351900001
 21
-5.1535683570000002
 31
0.0
 73
     3
  0
TEXT
  5
4D4
  8
SK2
  6
CONTINUOUS
 62
   136
 10
-14.586359351900001
 20
0.9376597131999995
 30
0.0
 40
3.5
  1
20
 50
90.0
  7
SEACAD_SOLID_EDGE_ISO
 11
-18.086359351900001
 21
0.9376597132
 31
0.0
 73
     3
  0
ENDSEC
  0
EOF
